  0
SECTION
  2
HEADER
  9
$ACADVER
  1
AC1009
  9
$INSBASE
 10
0.0
 20
0.0
 30
0.0
  9
$EXTMIN
 10
-368.65058619322059
 20
-323.46467707053682
 30
0.0
  9
$EXTMAX
 10
911.9458738694218
 20
313.2396614518301
 30
0.0
  9
$LIMMIN
 10
0.0
 20
0.0
  9
$LIMMAX
 10
12.0
 20
9.0
  9
$ORTHOMODE
 70
     0
  9
$REGENMODE
 70
     1
  9
$FILLMODE
 70
     1
  9
$QTEXTMODE
 70
     0
  9
$MIRRTEXT
 70
     0
  9
$DRAGMODE
 70
     2
  9
$LTSCALE
 40
1.0
  9
$OSMODE
 70
     0
  9
$ATTMODE
 70
     1
  9
$TEXTSIZE
 40
0.2
  9
$TRACEWID
 40
0.05
  9
$TEXTSTYLE
  7
STANDARD
  9
$CLAYER
  8
0
  9
$CELTYPE
  6
BYLAYER
  9
$CECOLOR
 62
   256
  9
$DIMSCALE
 40
1.0
  9
$DIMASZ
 40
0.18
  9
$DIMEXO
 40
0.0625
  9
$DIMDLI
 40
0.38
  9
$DIMRND
 40
0.0
  9
$DIMDLE
 40
0.0
  9
$DIMEXE
 40
0.18
  9
$DIMTP
 40
0.0
  9
$DIMTM
 40
0.0
  9
$DIMTXT
 40
0.18
  9
$DIMCEN
 40
0.09
  9
$DIMTSZ
 40
0.0
  9
$DIMTOL
 70
     0
  9
$DIMLIM
 70
     0
  9
$DIMTIH
 70
     1
  9
$DIMTOH
 70
     1
  9
$DIMSE1
 70
     0
  9
$DIMSE2
 70
     0
  9
$DIMTAD
 70
     0
  9
$DIMZIN
 70
     0
  9
$DIMBLK
  1

  9
$DIMASO
 70
     1
  9
$DIMSHO
 70
     1
  9
$DIMPOST
  1

  9
$DIMAPOST
  1

  9
$DIMALT
 70
     0
  9
$DIMALTD
 70
     2
  9
$DIMALTF
 40
25.399999999999999
  9
$DIMLFAC
 40
1.0
  9
$DIMTOFL
 70
     0
  9
$DIMTVP
 40
0.0
  9
$DIMTIX
 70
     0
  9
$DIMSOXD
 70
     0
  9
$DIMSAH
 70
     0
  9
$DIMBLK1
  1

  9
$DIMBLK2
  1

  9
$DIMSTYLE
  2
STANDARD
  9
$DIMCLRD
 70
     0
  9
$DIMCLRE
 70
     0
  9
$DIMCLRT
 70
     0
  9
$DIMTFAC
 40
1.0
  9
$DIMGAP
 40
0.09
  9
$LUNITS
 70
     2
  9
$LUPREC
 70
     4
  9
$SKETCHINC
 40
0.1
  9
$FILLETRAD
 40
0.0
  9
$AUNITS
 70
     0
  9
$AUPREC
 70
     0
  9
$MENU
  1
.
  9
$ELEVATION
 40
0.0
  9
$PELEVATION
 40
0.0
  9
$THICKNESS
 40
0.0
  9
$LIMCHECK
 70
     0
  9
$BLIPMODE
 70
     0
  9
$CHAMFERA
 40
0.0
  9
$CHAMFERB
 40
0.0
  9
$SKPOLY
 70
     0
  9
$TDCREATE
 40
2457745.634895891
  9
$TDUPDATE
 40
2457745.6560780788
  9
$TDINDWG
 40
0.0001330787
  9
$TDUSRTIMER
 40
0.0001330787
  9
$USRTIMER
 70
     1
  9
$ANGBASE
 50
0.0
  9
$ANGDIR
 70
     0
  9
$PDMODE
 70
     0
  9
$PDSIZE
 40
0.0
  9
$PLINEWID
 40
0.0
  9
$COORDS
 70
     2
  9
$SPLFRAME
 70
     0
  9
$SPLINETYPE
 70
     6
  9
$SPLINESEGS
 70
     8
  9
$ATTDIA
 70
     0
  9
$ATTREQ
 70
     0
  9
$HANDLING
 70
     1
  9
$HANDSEED
  5
973
  9
$SURFTAB1
 70
     6
  9
$SURFTAB2
 70
     6
  9
$SURFTYPE
 70
     6
  9
$SURFU
 70
     6
  9
$SURFV
 70
     6
  9
$UCSNAME
  2

  9
$UCSORG
 10
0.0
 20
0.0
 30
0.0
  9
$UCSXDIR
 10
1.0
 20
0.0
 30
0.0
  9
$UCSYDIR
 10
0.0
 20
1.0
 30
0.0
  9
$PUCSNAME
  2

  9
$PUCSORG
 10
0.0
 20
0.0
 30
0.0
  9
$PUCSXDIR
 10
1.0
 20
0.0
 30
0.0
  9
$PUCSYDIR
 10
0.0
 20
1.0
 30
0.0
  9
$USERI1
 70
     0
  9
$USERI2
 70
     0
  9
$USERI3
 70
     0
  9
$USERI4
 70
     0
  9
$USERI5
 70
     0
  9
$USERR1
 40
0.0
  9
$USERR2
 40
0.0
  9
$USERR3
 40
0.0
  9
$USERR4
 40
0.0
  9
$USERR5
 40
0.0
  9
$WORLDVIEW
 70
     1
  9
$SHADEDGE
 70
     3
  9
$SHADEDIF
 70
    70
  9
$TILEMODE
 70
     1
  9
$MAXACTVP
 70
    64
  9
$PLIMCHECK
 70
     0
  9
$PEXTMIN
 10
28.674481201171879
 20
19.966517114639291
 30
0.0
  9
$PEXTMAX
 10
258.07033081054692
 20
179.69865403175351
 30
0.0
  9
$PLIMMIN
 10
-5.069427490234375
 20
-5.1964163780212402
  9
$PLIMMAX
 10
291.89889526367187
 20
204.77691125869751
  9
$UNITMODE
 70
     0
  9
$VISRETAIN
 70
     1
  9
$PLINEGEN
 70
     0
  9
$PSLTSCALE
 70
     1
  0
ENDSEC
  0
SECTION
  2
TABLES
  0
TABLE
  2
VPORT
 70
     1
  0
VPORT
  2
*ACTIVE
 70
     0
 10
0.0
 20
0.0
 11
1.0
 21
1.0
 12
271.64764383810058
 22
102.5899024077566
 13
0.0
 23
0.0
 14
1.0
 24
1.0
 15
0.0
 25
0.0
 16
0.0
 26
0.0
 36
1.0
 17
0.0
 27
0.0
 37
0.0
 40
845.96207811826355
 41
1.506508875739645
 42
50.0
 43
0.0
 44
0.0
 50
0.0
 51
0.0
 71
     0
 72
  1000
 73
     1
 74
     1
 75
     0
 76
     0
 77
     0
 78
     0
  0
ENDTAB
  0
TABLE
  2
LTYPE
 70
     2
  0
LTYPE
  2
CONTINUOUS
 70
     0
  3
Solid line
 72
    65
 73
     0
 40
0.0
  0
LTYPE
  2
DASH
 70
     0
  3

 72
    65
 73
     2
 40
6.3499999999999996
 49
3.1749999999999998
 49
-3.1749999999999998
  0
ENDTAB
  0
TABLE
  2
LAYER
 70
     8
  0
LAYER
  2
0
 70
     0
 62
     7
  6
CONTINUOUS
  0
ENDTAB
  0
TABLE
  2
STYLE
 70
     8
  0
STYLE
  2
STANDARD
 70
     0
 40
0.0
 41
1.0
 50
0.0
 71
     0
 42
0.2
  3
txt
  4

  0
STYLE
  2
ARIAL
 70
     0
 40
12.2941616766467
 41
1.0
 50
0.0
 71
     0
 42
0.2
  3
txt
  4

  0
ENDTAB
  0
TABLE
  2
VIEW
 70
     1
  0
ENDTAB
  0
TABLE
  2
UCS
 70
     0
  0
ENDTAB
  0
TABLE
  2
APPID
 70
     6
  0
APPID
  2
ACAD
 70
     0
  0
APPID
  2
ACADANNOTATIVE
 70
     0
  0
APPID
  2
REVIT
 70
     0
  0
APPID
  2
ACAD_PSEXT
 70
     0
  0
APPID
  2
ACAD_NAV_VCDISPLAY
 70
     0
  0
APPID
  2
ACAD_MLEADERVER
 70
     0
  0
ENDTAB
  0
TABLE
  2
DIMSTYLE
 70
     2
  0
DIMSTYLE
  2
STANDARD
 70
     0
  3

  4

  5

  6

  7

 40
1.0
 41
0.18
 42
0.0625
 43
0.38
 44
0.18
 45
0.0
 46
0.0
 47
0.0
 48
0.0
140
0.18
141
0.09
142
0.0
143
25.399999999999999
144
1.0
145
0.0
146
1.0
147
0.09
 71
     0
 72
     0
 73
     1
 74
     1
 75
     0
 76
     0
 77
     0
 78
     0
170
     0
171
     2
172
     0
173
     0
174
     0
175
     0
176
     0
177
     0
178
     0
  0
ENDTAB
  0
ENDSEC
  0
SECTION
  2
BLOCKS
  0
BLOCK
  8
0
  2
$MODEL_SPACE
 70
     0
 10
0.0
 20
0.0
 30
0.0
  3
$MODEL_SPACE
  1

  0
ENDBLK
  5
72
  8
0
  0
BLOCK
 67
     1
  8
0
  2
$PAPER_SPACE
 70
     0
 10
0.0
 20
0.0
 30
0.0
  3
$PAPER_SPACE
  1

  0
ENDBLK
  5
76
 67
     1
  8
0
  0
BLOCK
  8
0
  2
*U24
 70
     1
 10
0.0
 20
0.0
 30
0.0
  3
*U24
  1

  0
SOLID
  5
471
  8
0
  6
CONTINUOUS
 10
-156.41654338549449
 20
189.96056199610021
 30
0.0
 11
-157.3732519664072
 21
189.77026082737851
 31
0.0
 12
-155.45983480458179
 22
189.77026082737851
 32
0.0
 13
-155.45983480458179
 23
189.77026082737851
 33
0.0
210
0.0
220
0.0
230
1.0
  0
SOLID
  5
472
  8
0
  6
CONTINUOUS
 10
-157.3732519664072
 20
189.77026082737851
 30
0.0
 11
-158.18431033846079
 21
189.22832894906659
 31
0.0
 12
-154.64877643252811
 22
189.22832894906659
 32
0.0
 13
-154.64877643252811
 23
189.22832894906659
 33
0.0
210
0.0
220
0.0
230
1.0
  0
SOLID
  5
473
  8
0
  6
CONTINUOUS
 10
157.3732519664072
 20
189.77026082737851
 30
0.0
 11
155.45983480458179
 21
189.77026082737851
 31
0.0
 12
154.64877643252811
 22
189.22832894906659
 32
0.0
 13
154.64877643252811
 23
189.22832894906659
 33
0.0
210
0.0
220
0.0
230
-1.0
  0
SOLID
  5
474
  8
0
  6
CONTINUOUS
 10
-158.18431033846079
 20
189.22832894906659
 30
0.0
 11
-158.7262422167727
 21
188.417270577013
 31
0.0
 12
-154.10684455421631
 22
188.417270577013
 32
0.0
 13
-154.10684455421631
 23
188.417270577013
 33
0.0
210
0.0
220
0.0
230
1.0
  0
SOLID
  5
475
  8
0
  6
CONTINUOUS
 10
158.18431033846079
 20
189.22832894906659
 30
0.0
 11
154.64877643252811
 21
189.22832894906659
 31
0.0
 12
154.10684455421631
 22
188.417270577013
 32
0.0
 13
154.10684455421631
 23
188.417270577013
 33
0.0
210
0.0
220
0.0
230
-1.0
  0
SOLID
  5
476
  8
0
  6
CONTINUOUS
 10
-158.7262422167727
 20
188.417270577013
 30
0.0
 11
-158.91654338549449
 21
187.46056199610021
 31
0.0
 12
-153.91654338549449
 22
187.46056199610021
 32
0.0
 13
-153.91654338549449
 23
187.46056199610021
 33
0.0
210
0.0
220
0.0
230
1.0
  0
SOLID
  5
477
  8
0
  6
CONTINUOUS
 10
158.7262422167727
 20
188.417270577013
 30
0.0
 11
154.10684455421631
 21
188.417270577013
 31
0.0
 12
153.91654338549449
 22
187.46056199610021
 32
0.0
 13
153.91654338549449
 23
187.46056199610021
 33
0.0
210
0.0
220
0.0
230
-1.0
  0
SOLID
  5
478
  8
0
  6
CONTINUOUS
 10
-158.91654338549449
 20
187.46056199610021
 30
0.0
 11
-158.7262422167727
 21
186.50385341518751
 31
0.0
 12
-154.10684455421631
 22
186.50385341518751
 32
0.0
 13
-154.10684455421631
 23
186.50385341518751
 33
0.0
  0
SOLID
  5
479
  8
0
  6
CONTINUOUS
 10
158.91654338549449
 20
187.46056199610021
 30
0.0
 11
153.91654338549449
 21
187.46056199610021
 31
0.0
 12
154.10684455421631
 22
186.50385341518751
 32
0.0
 13
154.10684455421631
 23
186.50385341518751
 33
0.0
210
0.0
220
0.0
230
-1.0
  0
SOLID
  5
47A
  8
0
  6
CONTINUOUS
 10
-158.7262422167727
 20
186.50385341518751
 30
0.0
 11
-158.18431033846079
 21
185.69279504313391
 31
0.0
 12
-154.64877643252811
 22
185.69279504313391
 32
0.0
 13
-154.64877643252811
 23
185.69279504313391
 33
0.0
210
0.0
220
0.0
230
1.0
  0
SOLID
  5
47B
  8
0
  6
CONTINUOUS
 10
158.7262422167727
 20
186.50385341518751
 30
0.0
 11
154.10684455421631
 21
186.50385341518751
 31
0.0
 12
154.64877643252811
 22
185.69279504313391
 32
0.0
 13
154.64877643252811
 23
185.69279504313391
 33
0.0
210
0.0
220
0.0
230
-1.0
  0
SOLID
  5
47C
  8
0
  6
CONTINUOUS
 10
157.3732519664072
 20
185.150863164822
 30
0.0
 11
155.45983480458179
 21
185.150863164822
 31
0.0
 12
156.41654338549449
 22
184.96056199610021
 32
0.0
 13
156.41654338549449
 23
184.96056199610021
 33
0.0
210
0.0
220
0.0
230
-1.0
  0
SOLID
  5
47D
  8
0
  6
CONTINUOUS
 10
-158.18431033846079
 20
185.69279504313391
 30
0.0
 11
-157.3732519664072
 21
185.150863164822
 31
0.0
 12
-155.45983480458179
 22
185.150863164822
 32
0.0
 13
-155.45983480458179
 23
185.150863164822
 33
0.0
  0
SOLID
  5
47E
  8
0
  6
CONTINUOUS
 10
158.18431033846079
 20
185.69279504313391
 30
0.0
 11
154.64877643252811
 21
185.69279504313391
 31
0.0
 12
155.45983480458179
 22
185.150863164822
 32
0.0
 13
155.45983480458179
 23
185.150863164822
 33
0.0
210
0.0
220
0.0
230
-1.0
  0
LINE
  5
47F
  8
0
  6
CONTINUOUS
 10
-156.41654338549449
 20
189.96056199610021
 30
0.0
 11
-157.3732519664072
 21
189.77026082737851
 31
0.0
  0
LINE
  5
480
  8
0
  6
CONTINUOUS
 10
-155.45983480458179
 20
189.77026082737851
 30
0.0
 11
-156.41654338549449
 21
189.96056199610021
 31
0.0
  0
LINE
  5
481
  8
0
  6
CONTINUOUS
 10
-157.3732519664072
 20
189.77026082737851
 30
0.0
 11
-158.18431033846079
 21
189.22832894906659
 31
0.0
  0
LINE
  5
482
  8
0
  6
CONTINUOUS
 10
-155.45983480458179
 20
189.77026082737851
 30
0.0
 11
-154.64877643252811
 21
189.22832894906659
 31
0.0
  0
LINE
  5
483
  8
0
  6
CONTINUOUS
 10
-158.18431033846079
 20
189.22832894906659
 30
0.0
 11
-158.7262422167727
 21
188.417270577013
 31
0.0
  0
LINE
  5
484
  8
0
  6
CONTINUOUS
 10
-154.64877643252811
 20
189.22832894906659
 30
0.0
 11
-154.10684455421631
 21
188.417270577013
 31
0.0
  0
LINE
  5
485
  8
0
  6
CONTINUOUS
 10
-158.7262422167727
 20
188.417270577013
 30
0.0
 11
-158.91654338549449
 21
187.46056199610021
 31
0.0
  0
LINE
  5
486
  8
0
  6
CONTINUOUS
 10
-154.10684455421631
 20
188.417270577013
 30
0.0
 11
-153.91654338549449
 21
187.46056199610021
 31
0.0
  0
LINE
  5
487
  8
0
  6
CONTINUOUS
 10
-158.91654338549449
 20
187.46056199610021
 30
0.0
 11
-158.7262422167727
 21
186.50385341518751
 31
0.0
  0
LINE
  5
488
  8
0
  6
CONTINUOUS
 10
-153.91654338549449
 20
187.46056199610021
 30
0.0
 11
-154.10684455421631
 21
186.50385341518751
 31
0.0
  0
LINE
  5
489
  8
0
  6
CONTINUOUS
 10
-158.7262422167727
 20
186.50385341518751
 30
0.0
 11
-158.18431033846079
 21
185.69279504313391
 31
0.0
  0
LINE
  5
48A
  8
0
  6
CONTINUOUS
 10
-154.10684455421631
 20
186.50385341518751
 30
0.0
 11
-154.64877643252811
 21
185.69279504313391
 31
0.0
  0
LINE
  5
48B
  8
0
  6
CONTINUOUS
 10
-155.45983480458179
 20
185.150863164822
 30
0.0
 11
-156.41654338549449
 21
184.96056199610021
 31
0.0
  0
LINE
  5
48C
  8
0
  6
CONTINUOUS
 10
-156.41654338549449
 20
184.96056199610021
 30
0.0
 11
-157.3732519664072
 21
185.150863164822
 31
0.0
  0
LINE
  5
48D
  8
0
  6
CONTINUOUS
 10
-158.18431033846079
 20
185.69279504313391
 30
0.0
 11
-157.3732519664072
 21
185.150863164822
 31
0.0
  0
LINE
  5
48E
  8
0
  6
CONTINUOUS
 10
-154.64877643252811
 20
185.69279504313391
 30
0.0
 11
-155.45983480458179
 21
185.150863164822
 31
0.0
  0
ENDBLK
  5
490
  8
0
  0
BLOCK
  8
0
  2
*U25
 70
     1
 10
0.0
 20
0.0
 30
0.0
  3
*U25
  1

  0
TEXT
  5
492
  8
0
 10
-365.97958312772812
 20
261.98732828949028
 30
0.0
 40
12.2941616766467
  1
Tilcor Antica Tile
  7
ARIAL
  0
ENDBLK
  5
494
  8
0
  0
BLOCK
  8
0
  2
*U26
 70
     1
 10
0.0
 20
0.0
 30
0.0
  3
*U26
  1

  0
TEXT
  5
496
  8
0
 62
     7
 10
419.03561697870111
 20
-316.29308275915952
 30
0.0
 40
12.294161676646709
  1
* Barge board must project at least to top of tile batten
  7
ARIAL
  0
ENDBLK
  5
498
  8
0
  0
BLOCK
  8
0
  2
*U27
 70
     1
 10
0.0
 20
0.0
 30
0.0
  3
*U27
  1

  0
SOLID
  5
49A
  8
0
  6
CONTINUOUS
 10
414.54427973252899
 20
193.02842306383079
 30
0.0
 11
413.5875711516162
 21
192.838121895109
 31
0.0
 12
415.50098831344172
 22
192.838121895109
 32
0.0
 13
415.50098831344172
 23
192.838121895109
 33
0.0
210
0.0
220
0.0
230
1.0
  0
SOLID
  5
49B
  8
0
  6
CONTINUOUS
 10
413.5875711516162
 20
192.838121895109
 30
0.0
 11
412.77651277956261
 21
192.29619001679711
 31
0.0
 12
416.31204668549532
 22
192.29619001679711
 32
0.0
 13
416.31204668549532
 23
192.29619001679711
 33
0.0
210
0.0
220
0.0
230
1.0
  0
SOLID
  5
49C
  8
0
  6
CONTINUOUS
 10
-413.5875711516162
 20
192.838121895109
 30
0.0
 11
-415.50098831344172
 21
192.838121895109
 31
0.0
 12
-416.31204668549532
 22
192.29619001679711
 32
0.0
 13
-416.31204668549532
 23
192.29619001679711
 33
0.0
210
0.0
220
0.0
230
-1.0
  0
SOLID
  5
49D
  8
0
  6
CONTINUOUS
 10
412.77651277956261
 20
192.29619001679711
 30
0.0
 11
412.23458090125069
 21
191.48513164474349
 31
0.0
 12
416.85397856380717
 22
191.48513164474349
 32
0.0
 13
416.85397856380717
 23
191.48513164474349
 33
0.0
210
0.0
220
0.0
230
1.0
  0
SOLID
  5
49E
  8
0
  6
CONTINUOUS
 10
-412.77651277956261
 20
192.29619001679711
 30
0.0
 11
-416.31204668549532
 21
192.29619001679711
 31
0.0
 12
-416.85397856380717
 22
191.48513164474349
 32
0.0
 13
-416.85397856380717
 23
191.48513164474349
 33
0.0
210
0.0
220
0.0
230
-1.0
  0
SOLID
  5
49F
  8
0
  6
CONTINUOUS
 10
412.23458090125069
 20
191.48513164474349
 30
0.0
 11
412.04427973252899
 21
190.52842306383079
 31
0.0
 12
417.04427973252899
 22
190.52842306383079
 32
0.0
 13
417.04427973252899
 23
190.52842306383079
 33
0.0
210
0.0
220
0.0
230
1.0
  0
SOLID
  5
4A0
  8
0
  6
CONTINUOUS
 10
-412.23458090125069
 20
191.48513164474349
 30
0.0
 11
-416.85397856380717
 21
191.48513164474349
 31
0.0
 12
-417.04427973252899
 22
190.52842306383079
 32
0.0
 13
-417.04427973252899
 23
190.52842306383079
 33
0.0
210
0.0
220
0.0
230
-1.0
  0
SOLID
  5
4A1
  8
0
  6
CONTINUOUS
 10
412.04427973252899
 20
190.52842306383079
 30
0.0
 11
412.23458090125069
 21
189.571714482918
 31
0.0
 12
416.85397856380717
 22
189.571714482918
 32
0.0
 13
416.85397856380717
 23
189.571714482918
 33
0.0
210
0.0
220
0.0
230
1.0
  0
SOLID
  5
4A2
  8
0
  6
CONTINUOUS
 10
-412.04427973252899
 20
190.52842306383079
 30
0.0
 11
-417.04427973252899
 21
190.52842306383079
 31
0.0
 12
-416.85397856380717
 22
189.571714482918
 32
0.0
 13
-416.85397856380717
 23
189.571714482918
 33
0.0
210
0.0
220
0.0
230
-1.0
  0
SOLID
  5
4A3
  8
0
  6
CONTINUOUS
 10
412.23458090125069
 20
189.571714482918
 30
0.0
 11
412.77651277956261
 21
188.7606561108644
 31
0.0
 12
416.31204668549532
 22
188.7606561108644
 32
0.0
 13
416.31204668549532
 23
188.7606561108644
 33
0.0
210
0.0
220
0.0
230
1.0
  0
SOLID
  5
4A4
  8
0
  6
CONTINUOUS
 10
-412.23458090125069
 20
189.571714482918
 30
0.0
 11
-416.85397856380717
 21
189.571714482918
 31
0.0
 12
-416.31204668549532
 22
188.7606561108644
 32
0.0
 13
-416.31204668549532
 23
188.7606561108644
 33
0.0
210
0.0
220
0.0
230
-1.0
  0
SOLID
  5
4A5
  8
0
  6
CONTINUOUS
 10
-413.5875711516162
 20
188.21872423255249
 30
0.0
 11
-415.50098831344172
 21
188.21872423255249
 31
0.0
 12
-414.54427973252899
 22
188.02842306383079
 32
0.0
 13
-414.54427973252899
 23
188.02842306383079
 33
0.0
210
0.0
220
0.0
230
-1.0
  0
SOLID
  5
4A6
  8
0
  6
CONTINUOUS
 10
412.77651277956261
 20
188.7606561108644
 30
0.0
 11
413.5875711516162
 21
188.21872423255249
 31
0.0
 12
415.50098831344172
 22
188.21872423255249
 32
0.0
 13
415.50098831344172
 23
188.21872423255249
 33
0.0
210
0.0
220
0.0
230
1.0
  0
SOLID
  5
4A7
  8
0
  6
CONTINUOUS
 10
-412.77651277956261
 20
188.7606561108644
 30
0.0
 11
-416.31204668549532
 21
188.7606561108644
 31
0.0
 12
-415.50098831344172
 22
188.21872423255249
 32
0.0
 13
-415.50098831344172
 23
188.21872423255249
 33
0.0
210
0.0
220
0.0
230
-1.0
  0
LINE
  5
4A8
  8
0
  6
CONTINUOUS
 10
414.54427973252899
 20
193.02842306383079
 30
0.0
 11
413.5875711516162
 21
192.838121895109
 31
0.0
  0
LINE
  5
4A9
  8
0
  6
CONTINUOUS
 10
415.50098831344172
 20
192.838121895109
 30
0.0
 11
414.54427973252899
 21
193.02842306383079
 31
0.0
  0
LINE
  5
4AA
  8
0
  6
CONTINUOUS
 10
413.5875711516162
 20
192.838121895109
 30
0.0
 11
412.77651277956261
 21
192.29619001679711
 31
0.0
  0
LINE
  5
4AB
  8
0
  6
CONTINUOUS
 10
415.50098831344172
 20
192.838121895109
 30
0.0
 11
416.31204668549532
 21
192.29619001679711
 31
0.0
  0
LINE
  5
4AC
  8
0
  6
CONTINUOUS
 10
412.77651277956261
 20
192.29619001679711
 30
0.0
 11
412.23458090125069
 21
191.48513164474349
 31
0.0
  0
LINE
  5
4AD
  8
0
  6
CONTINUOUS
 10
416.31204668549532
 20
192.29619001679711
 30
0.0
 11
416.85397856380717
 21
191.48513164474349
 31
0.0
  0
LINE
  5
4AE
  8
0
  6
CONTINUOUS
 10
412.23458090125069
 20
191.48513164474349
 30
0.0
 11
412.04427973252899
 21
190.52842306383079
 31
0.0
  0
LINE
  5
4AF
  8
0
  6
CONTINUOUS
 10
416.85397856380717
 20
191.48513164474349
 30
0.0
 11
417.04427973252899
 21
190.52842306383079
 31
0.0
  0
LINE
  5
4B0
  8
0
  6
CONTINUOUS
 10
412.04427973252899
 20
190.52842306383079
 30
0.0
 11
412.23458090125069
 21
189.571714482918
 31
0.0
  0
LINE
  5
4B1
  8
0
  6
CONTINUOUS
 10
417.04427973252899
 20
190.52842306383079
 30
0.0
 11
416.85397856380717
 21
189.571714482918
 31
0.0
  0
LINE
  5
4B2
  8
0
  6
CONTINUOUS
 10
412.23458090125069
 20
189.571714482918
 30
0.0
 11
412.77651277956261
 21
188.7606561108644
 31
0.0
  0
LINE
  5
4B3
  8
0
  6
CONTINUOUS
 10
416.85397856380717
 20
189.571714482918
 30
0.0
 11
416.31204668549532
 21
188.7606561108644
 31
0.0
  0
LINE
  5
4B4
  8
0
  6
CONTINUOUS
 10
415.50098831344172
 20
188.21872423255249
 30
0.0
 11
414.54427973252899
 21
188.02842306383079
 31
0.0
  0
LINE
  5
4B5
  8
0
  6
CONTINUOUS
 10
414.54427973252899
 20
188.02842306383079
 30
0.0
 11
413.5875711516162
 21
188.21872423255249
 31
0.0
  0
LINE
  5
4B6
  8
0
  6
CONTINUOUS
 10
412.77651277956261
 20
188.7606561108644
 30
0.0
 11
413.5875711516162
 21
188.21872423255249
 31
0.0
  0
LINE
  5
4B7
  8
0
  6
CONTINUOUS
 10
416.31204668549532
 20
188.7606561108644
 30
0.0
 11
415.50098831344172
 21
188.21872423255249
 31
0.0
  0
ENDBLK
  5
4B9
  8
0
  0
BLOCK
  8
0
  2
*U28
 70
     1
 10
0.0
 20
0.0
 30
0.0
  3
*U28
  1

  0
TEXT
  5
4BB
  8
0
 10
607.9913102675946
 20
297.69165616635752
 30
0.0
 40
12.2941616766467
  1
Barrel Trim minimum cover
  7
ARIAL
  0
TEXT
  5
4BC
  8
0
 10
608.67897824677948
 20
278.46088693558818
 30
0.0
 40
12.2941616766467
  1
over turn up 1" at any point
  7
ARIAL
  0
ENDBLK
  5
4BE
  8
0
  0
BLOCK
  8
0
  2
*U29
 70
     1
 10
0.0
 20
0.0
 30
0.0
  3
*U29
  1

  0
SOLID
  5
4C0
  8
0
  6
CONTINUOUS
 10
-146.9809986356874
 20
98.012896747618413
 30
0.0
 11
-147.9377072166001
 21
97.822595578896625
 31
0.0
 12
-146.02429005477461
 22
97.822595578896625
 32
0.0
 13
-146.02429005477461
 23
97.822595578896625
 33
0.0
210
0.0
220
0.0
230
1.0
  0
SOLID
  5
4C1
  8
0
  6
CONTINUOUS
 10
-147.9377072166001
 20
97.822595578896625
 30
0.0
 11
-148.7487655886537
 21
97.280663700584782
 31
0.0
 12
-145.21323168272099
 22
97.280663700584782
 32
0.0
 13
-145.21323168272099
 23
97.280663700584782
 33
0.0
210
0.0
220
0.0
230
1.0
  0
SOLID
  5
4C2
  8
0
  6
CONTINUOUS
 10
147.9377072166001
 20
97.822595578896625
 30
0.0
 11
146.02429005477461
 21
97.822595578896625
 31
0.0
 12
145.21323168272099
 22
97.280663700584782
 32
0.0
 13
145.21323168272099
 23
97.280663700584782
 33
0.0
210
0.0
220
0.0
230
-1.0
  0
SOLID
  5
4C3
  8
0
  6
CONTINUOUS
 10
-148.7487655886537
 20
97.280663700584782
 30
0.0
 11
-149.29069746696561
 21
96.469605328531117
 31
0.0
 12
-144.6712998044091
 22
96.469605328531117
 32
0.0
 13
-144.6712998044091
 23
96.469605328531117
 33
0.0
210
0.0
220
0.0
230
1.0
  0
SOLID
  5
4C4
  8
0
  6
CONTINUOUS
 10
148.7487655886537
 20
97.280663700584782
 30
0.0
 11
145.21323168272099
 21
97.280663700584782
 31
0.0
 12
144.6712998044091
 22
96.469605328531117
 32
0.0
 13
144.6712998044091
 23
96.469605328531117
 33
0.0
210
0.0
220
0.0
230
-1.0
  0
SOLID
  5
4C5
  8
0
  6
CONTINUOUS
 10
-149.29069746696561
 20
96.469605328531117
 30
0.0
 11
-149.4809986356874
 21
95.512896747618385
 31
0.0
 12
-144.48099863568731
 22
95.512896747618385
 32
0.0
 13
-144.48099863568731
 23
95.512896747618385
 33
0.0
210
0.0
220
0.0
230
1.0
  0
SOLID
  5
4C6
  8
0
  6
CONTINUOUS
 10
149.29069746696561
 20
96.469605328531117
 30
0.0
 11
144.6712998044091
 21
96.469605328531117
 31
0.0
 12
144.48099863568731
 22
95.512896747618385
 32
0.0
 13
144.48099863568731
 23
95.512896747618385
 33
0.0
210
0.0
220
0.0
230
-1.0
  0
SOLID
  5
4C7
  8
0
  6
CONTINUOUS
 10
-149.4809986356874
 20
95.512896747618385
 30
0.0
 11
-149.29069746696561
 21
94.556188166705653
 31
0.0
 12
-144.6712998044091
 22
94.556188166705653
 32
0.0
 13
-144.6712998044091
 23
94.556188166705653
 33
0.0
  0
SOLID
  5
4C8
  8
0
  6
CONTINUOUS
 10
149.4809986356874
 20
95.512896747618385
 30
0.0
 11
144.48099863568731
 21
95.512896747618385
 31
0.0
 12
144.6712998044091
 22
94.556188166705653
 32
0.0
 13
144.6712998044091
 23
94.556188166705653
 33
0.0
210
0.0
220
0.0
230
-1.0
  0
SOLID
  5
4C9
  8
0
  6
CONTINUOUS
 10
-149.29069746696561
 20
94.556188166705653
 30
0.0
 11
-148.7487655886537
 21
93.745129794651987
 31
0.0
 12
-145.21323168272099
 22
93.745129794651987
 32
0.0
 13
-145.21323168272099
 23
93.745129794651987
 33
0.0
210
0.0
220
0.0
230
1.0
  0
SOLID
  5
4CA
  8
0
  6
CONTINUOUS
 10
149.29069746696561
 20
94.556188166705653
 30
0.0
 11
144.6712998044091
 21
94.556188166705653
 31
0.0
 12
145.21323168272099
 22
93.745129794651987
 32
0.0
 13
145.21323168272099
 23
93.745129794651987
 33
0.0
210
0.0
220
0.0
230
-1.0
  0
SOLID
  5
4CB
  8
0
  6
CONTINUOUS
 10
147.9377072166001
 20
93.203197916340145
 30
0.0
 11
146.02429005477461
 21
93.203197916340145
 31
0.0
 12
146.9809986356874
 22
93.012896747618356
 32
0.0
 13
146.9809986356874
 23
93.012896747618356
 33
0.0
210
0.0
220
0.0
230
-1.0
  0
SOLID
  5
4CC
  8
0
  6
CONTINUOUS
 10
-148.7487655886537
 20
93.745129794651987
 30
0.0
 11
-147.9377072166001
 21
93.203197916340145
 31
0.0
 12
-146.02429005477461
 22
93.203197916340145
 32
0.0
 13
-146.02429005477461
 23
93.203197916340145
 33
0.0
210
0.0
220
0.0
230
1.0
  0
SOLID
  5
4CD
  8
0
  6
CONTINUOUS
 10
148.7487655886537
 20
93.745129794651987
 30
0.0
 11
145.21323168272099
 21
93.745129794651987
 31
0.0
 12
146.02429005477461
 22
93.203197916340145
 32
0.0
 13
146.02429005477461
 23
93.203197916340145
 33
0.0
210
0.0
220
0.0
230
-1.0
  0
LINE
  5
4CE
  8
0
  6
CONTINUOUS
 10
-146.9809986356874
 20
98.012896747618413
 30
0.0
 11
-147.9377072166001
 21
97.822595578896625
 31
0.0
  0
LINE
  5
4CF
  8
0
  6
CONTINUOUS
 10
-146.02429005477461
 20
97.822595578896625
 30
0.0
 11
-146.9809986356874
 21
98.012896747618413
 31
0.0
  0
LINE
  5
4D0
  8
0
  6
CONTINUOUS
 10
-147.9377072166001
 20
97.822595578896625
 30
0.0
 11
-148.7487655886537
 21
97.280663700584782
 31
0.0
  0
LINE
  5
4D1
  8
0
  6
CONTINUOUS
 10
-146.02429005477461
 20
97.822595578896625
 30
0.0
 11
-145.21323168272099
 21
97.280663700584782
 31
0.0
  0
LINE
  5
4D2
  8
0
  6
CONTINUOUS
 10
-148.7487655886537
 20
97.280663700584782
 30
0.0
 11
-149.29069746696561
 21
96.469605328531117
 31
0.0
  0
LINE
  5
4D3
  8
0
  6
CONTINUOUS
 10
-145.21323168272099
 20
97.280663700584782
 30
0.0
 11
-144.6712998044091
 21
96.469605328531117
 31
0.0
  0
LINE
  5
4D4
  8
0
  6
CONTINUOUS
 10
-149.29069746696561
 20
96.469605328531117
 30
0.0
 11
-149.4809986356874
 21
95.512896747618385
 31
0.0
  0
LINE
  5
4D5
  8
0
  6
CONTINUOUS
 10
-144.6712998044091
 20
96.469605328531117
 30
0.0
 11
-144.48099863568731
 21
95.512896747618385
 31
0.0
  0
LINE
  5
4D6
  8
0
  6
CONTINUOUS
 10
-149.4809986356874
 20
95.512896747618385
 30
0.0
 11
-149.29069746696561
 21
94.556188166705653
 31
0.0
  0
LINE
  5
4D7
  8
0
  6
CONTINUOUS
 10
-144.48099863568731
 20
95.512896747618385
 30
0.0
 11
-144.6712998044091
 21
94.556188166705653
 31
0.0
  0
LINE
  5
4D8
  8
0
  6
CONTINUOUS
 10
-149.29069746696561
 20
94.556188166705653
 30
0.0
 11
-148.7487655886537
 21
93.745129794651987
 31
0.0
  0
LINE
  5
4D9
  8
0
  6
CONTINUOUS
 10
-144.6712998044091
 20
94.556188166705653
 30
0.0
 11
-145.21323168272099
 21
93.745129794651987
 31
0.0
  0
LINE
  5
4DA
  8
0
  6
CONTINUOUS
 10
-146.02429005477461
 20
93.203197916340145
 30
0.0
 11
-146.9809986356874
 21
93.012896747618356
 31
0.0
  0
LINE
  5
4DB
  8
0
  6
CONTINUOUS
 10
-146.9809986356874
 20
93.012896747618356
 30
0.0
 11
-147.9377072166001
 21
93.203197916340145
 31
0.0
  0
LINE
  5
4DC
  8
0
  6
CONTINUOUS
 10
-148.7487655886537
 20
93.745129794651987
 30
0.0
 11
-147.9377072166001
 21
93.203197916340145
 31
0.0
  0
LINE
  5
4DD
  8
0
  6
CONTINUOUS
 10
-145.21323168272099
 20
93.745129794651987
 30
0.0
 11
-146.02429005477461
 21
93.203197916340145
 31
0.0
  0
ENDBLK
  5
4DF
  8
0
  0
BLOCK
  8
0
  2
*U30
 70
     1
 10
0.0
 20
0.0
 30
0.0
  3
*U30
  1

  0
TEXT
  5
4E1
  8
0
 10
-366.92722314782429
 20
36.920111103333006
 30
0.0
 40
12.2941616766467
  1
Underlay
  7
ARIAL
  0
ENDBLK
  5
4E3
  8
0
  0
BLOCK
  8
0
  2
*U31
 70
     1
 10
0.0
 20
0.0
 30
0.0
  3
*U31
  1

  0
SOLID
  5
4E5
  8
0
  6
CONTINUOUS
 10
-94.996620456609307
 20
148.61250000000251
 30
0.0
 11
-95.953329037522025
 21
148.42219883128081
 31
0.0
 12
-94.039911875696575
 22
148.42219883128081
 32
0.0
 13
-94.039911875696575
 23
148.42219883128081
 33
0.0
210
0.0
220
0.0
230
1.0
  0
SOLID
  5
4E6
  8
0
  6
CONTINUOUS
 10
-95.953329037522025
 20
148.42219883128081
 30
0.0
 11
-96.764387409575676
 21
147.8802669529689
 31
0.0
 12
-93.228853503642924
 22
147.8802669529689
 32
0.0
 13
-93.228853503642924
 23
147.8802669529689
 33
0.0
210
0.0
220
0.0
230
1.0
  0
SOLID
  5
4E7
  8
0
  6
CONTINUOUS
 10
95.953329037522025
 20
148.42219883128081
 30
0.0
 11
94.039911875696575
 21
148.42219883128081
 31
0.0
 12
93.228853503642924
 22
147.8802669529689
 32
0.0
 13
93.228853503642924
 23
147.8802669529689
 33
0.0
210
0.0
220
0.0
230
-1.0
  0
SOLID
  5
4E8
  8
0
  6
CONTINUOUS
 10
-96.764387409575676
 20
147.8802669529689
 30
0.0
 11
-97.306319287887533
 21
147.0692085809153
 31
0.0
 12
-92.686921625331095
 22
147.0692085809153
 32
0.0
 13
-92.686921625331095
 23
147.0692085809153
 33
0.0
210
0.0
220
0.0
230
1.0
  0
SOLID
  5
4E9
  8
0
  6
CONTINUOUS
 10
96.764387409575676
 20
147.8802669529689
 30
0.0
 11
93.228853503642924
 21
147.8802669529689
 31
0.0
 12
92.686921625331095
 22
147.0692085809153
 32
0.0
 13
92.686921625331095
 23
147.0692085809153
 33
0.0
210
0.0
220
0.0
230
-1.0
  0
SOLID
  5
4EA
  8
0
  6
CONTINUOUS
 10
-97.306319287887533
 20
147.0692085809153
 30
0.0
 11
-97.496620456609307
 21
146.11250000000251
 31
0.0
 12
-92.496620456609307
 22
146.11250000000251
 32
0.0
 13
-92.496620456609307
 23
146.11250000000251
 33
0.0
210
0.0
220
0.0
230
1.0
  0
SOLID
  5
4EB
  8
0
  6
CONTINUOUS
 10
97.306319287887533
 20
147.0692085809153
 30
0.0
 11
92.686921625331095
 21
147.0692085809153
 31
0.0
 12
92.496620456609307
 22
146.11250000000251
 32
0.0
 13
92.496620456609307
 23
146.11250000000251
 33
0.0
210
0.0
220
0.0
230
-1.0
  0
SOLID
  5
4EC
  8
0
  6
CONTINUOUS
 10
-97.496620456609307
 20
146.11250000000251
 30
0.0
 11
-97.306319287887533
 21
145.15579141908981
 31
0.0
 12
-92.686921625331095
 22
145.15579141908981
 32
0.0
 13
-92.686921625331095
 23
145.15579141908981
 33
0.0
  0
SOLID
  5
4ED
  8
0
  6
CONTINUOUS
 10
97.496620456609307
 20
146.11250000000251
 30
0.0
 11
92.496620456609307
 21
146.11250000000251
 31
0.0
 12
92.686921625331095
 22
145.15579141908981
 32
0.0
 13
92.686921625331095
 23
145.15579141908981
 33
0.0
210
0.0
220
0.0
230
-1.0
  0
SOLID
  5
4EE
  8
0
  6
CONTINUOUS
 10
-97.306319287887533
 20
145.15579141908981
 30
0.0
 11
-96.764387409575676
 21
144.34473304703619
 31
0.0
 12
-93.228853503642924
 22
144.34473304703619
 32
0.0
 13
-93.228853503642924
 23
144.34473304703619
 33
0.0
210
0.0
220
0.0
230
1.0
  0
SOLID
  5
4EF
  8
0
  6
CONTINUOUS
 10
97.306319287887533
 20
145.15579141908981
 30
0.0
 11
92.686921625331095
 21
145.15579141908981
 31
0.0
 12
93.228853503642924
 22
144.34473304703619
 32
0.0
 13
93.228853503642924
 23
144.34473304703619
 33
0.0
210
0.0
220
0.0
230
-1.0
  0
SOLID
  5
4F0
  8
0
  6
CONTINUOUS
 10
95.953329037522025
 20
143.8028011687243
 30
0.0
 11
94.039911875696575
 21
143.8028011687243
 31
0.0
 12
94.996620456609307
 22
143.61250000000251
 32
0.0
 13
94.996620456609307
 23
143.61250000000251
 33
0.0
210
0.0
220
0.0
230
-1.0
  0
SOLID
  5
4F1
  8
0
  6
CONTINUOUS
 10
-96.764387409575676
 20
144.34473304703619
 30
0.0
 11
-95.953329037522025
 21
143.8028011687243
 31
0.0
 12
-94.039911875696575
 22
143.8028011687243
 32
0.0
 13
-94.039911875696575
 23
143.8028011687243
 33
0.0
210
0.0
220
0.0
230
1.0
  0
SOLID
  5
4F2
  8
0
  6
CONTINUOUS
 10
96.764387409575676
 20
144.34473304703619
 30
0.0
 11
93.228853503642924
 21
144.34473304703619
 31
0.0
 12
94.039911875696575
 22
143.8028011687243
 32
0.0
 13
94.039911875696575
 23
143.8028011687243
 33
0.0
210
0.0
220
0.0
230
-1.0
  0
LINE
  5
4F3
  8
0
  6
CONTINUOUS
 10
-94.996620456609307
 20
148.61250000000251
 30
0.0
 11
-95.953329037522025
 21
148.42219883128081
 31
0.0
  0
LINE
  5
4F4
  8
0
  6
CONTINUOUS
 10
-94.039911875696575
 20
148.42219883128081
 30
0.0
 11
-94.996620456609307
 21
148.61250000000251
 31
0.0
  0
LINE
  5
4F5
  8
0
  6
CONTINUOUS
 10
-95.953329037522025
 20
148.42219883128081
 30
0.0
 11
-96.764387409575676
 21
147.8802669529689
 31
0.0
  0
LINE
  5
4F6
  8
0
  6
CONTINUOUS
 10
-94.039911875696575
 20
148.42219883128081
 30
0.0
 11
-93.228853503642924
 21
147.8802669529689
 31
0.0
  0
LINE
  5
4F7
  8
0
  6
CONTINUOUS
 10
-96.764387409575676
 20
147.8802669529689
 30
0.0
 11
-97.306319287887533
 21
147.0692085809153
 31
0.0
  0
LINE
  5
4F8
  8
0
  6
CONTINUOUS
 10
-93.228853503642924
 20
147.8802669529689
 30
0.0
 11
-92.686921625331095
 21
147.0692085809153
 31
0.0
  0
LINE
  5
4F9
  8
0
  6
CONTINUOUS
 10
-97.306319287887533
 20
147.0692085809153
 30
0.0
 11
-97.496620456609307
 21
146.11250000000251
 31
0.0
  0
LINE
  5
4FA
  8
0
  6
CONTINUOUS
 10
-92.686921625331095
 20
147.0692085809153
 30
0.0
 11
-92.496620456609307
 21
146.11250000000251
 31
0.0
  0
LINE
  5
4FB
  8
0
  6
CONTINUOUS
 10
-97.496620456609307
 20
146.11250000000251
 30
0.0
 11
-97.306319287887533
 21
145.15579141908981
 31
0.0
  0
LINE
  5
4FC
  8
0
  6
CONTINUOUS
 10
-92.496620456609307
 20
146.11250000000251
 30
0.0
 11
-92.686921625331095
 21
145.15579141908981
 31
0.0
  0
LINE
  5
4FD
  8
0
  6
CONTINUOUS
 10
-97.306319287887533
 20
145.15579141908981
 30
0.0
 11
-96.764387409575676
 21
144.34473304703619
 31
0.0
  0
LINE
  5
4FE
  8
0
  6
CONTINUOUS
 10
-92.686921625331095
 20
145.15579141908981
 30
0.0
 11
-93.228853503642924
 21
144.34473304703619
 31
0.0
  0
LINE
  5
4FF
  8
0
  6
CONTINUOUS
 10
-94.039911875696575
 20
143.8028011687243
 30
0.0
 11
-94.996620456609307
 21
143.61250000000251
 31
0.0
  0
LINE
  5
500
  8
0
  6
CONTINUOUS
 10
-94.996620456609307
 20
143.61250000000251
 30
0.0
 11
-95.953329037522025
 21
143.8028011687243
 31
0.0
  0
LINE
  5
501
  8
0
  6
CONTINUOUS
 10
-96.764387409575676
 20
144.34473304703619
 30
0.0
 11
-95.953329037522025
 21
143.8028011687243
 31
0.0
  0
LINE
  5
502
  8
0
  6
CONTINUOUS
 10
-93.228853503642924
 20
144.34473304703619
 30
0.0
 11
-94.039911875696575
 21
143.8028011687243
 31
0.0
  0
ENDBLK
  5
504
  8
0
  0
BLOCK
  8
0
  2
*U32
 70
     1
 10
0.0
 20
0.0
 30
0.0
  3
*U32
  1

  0
TEXT
  5
506
  8
0
 10
-366.83497500427512
 20
140.43942307692561
 30
0.0
 40
12.2941616766467
  1
Batten
  7
ARIAL
  0
ENDBLK
  5
508
  8
0
  0
BLOCK
  8
0
  2
*U33
 70
     1
 10
0.0
 20
0.0
 30
0.0
  3
*U33
  1

  0
SOLID
  5
50A
  8
0
  6
CONTINUOUS
 10
394.68212937990307
 20
-40.786727847887398
 30
0.0
 11
393.7254207989904
 21
-40.977029016609187
 31
0.0
 12
395.63883796081592
 22
-40.977029016609187
 32
0.0
 13
395.63883796081592
 23
-40.977029016609187
 33
0.0
  0
SOLID
  5
50B
  8
0
  6
CONTINUOUS
 10
393.7254207989904
 20
-40.977029016609187
 30
0.0
 11
392.9143624269368
 21
-41.518960894921037
 31
0.0
 12
396.44989633286951
 22
-41.518960894921037
 32
0.0
 13
396.44989633286951
 23
-41.518960894921037
 33
0.0
210
0.0
220
0.0
230
1.0
  0
SOLID
  5
50C
  8
0
  6
CONTINUOUS
 10
-393.7254207989904
 20
-40.977029016609187
 30
0.0
 11
-395.63883796081592
 21
-40.977029016609187
 31
0.0
 12
-396.44989633286951
 22
-41.518960894921037
 32
0.0
 13
-396.44989633286951
 23
-41.518960894921037
 33
0.0
210
0.0
220
0.0
230
-1.0
  0
SOLID
  5
50D
  8
0
  6
CONTINUOUS
 10
392.9143624269368
 20
-41.518960894921037
 30
0.0
 11
392.37243054862489
 21
-42.330019266974674
 31
0.0
 12
396.99182821118143
 22
-42.330019266974674
 32
0.0
 13
396.99182821118143
 23
-42.330019266974674
 33
0.0
  0
SOLID
  5
50E
  8
0
  6
CONTINUOUS
 10
-392.9143624269368
 20
-41.518960894921037
 30
0.0
 11
-396.44989633286951
 21
-41.518960894921037
 31
0.0
 12
-396.99182821118143
 22
-42.330019266974674
 32
0.0
 13
-396.99182821118143
 23
-42.330019266974674
 33
0.0
210
0.0
220
0.0
230
-1.0
  0
SOLID
  5
50F
  8
0
  6
CONTINUOUS
 10
392.37243054862489
 20
-42.330019266974674
 30
0.0
 11
392.18212937990307
 21
-43.286727847887398
 31
0.0
 12
397.18212937990307
 22
-43.286727847887398
 32
0.0
 13
397.18212937990307
 23
-43.286727847887398
 33
0.0
210
0.0
220
0.0
230
1.0
  0
SOLID
  5
510
  8
0
  6
CONTINUOUS
 10
-392.37243054862489
 20
-42.330019266974674
 30
0.0
 11
-396.99182821118143
 21
-42.330019266974674
 31
0.0
 12
-397.18212937990307
 22
-43.286727847887398
 32
0.0
 13
-397.18212937990307
 23
-43.286727847887398
 33
0.0
210
0.0
220
0.0
230
-1.0
  0
SOLID
  5
511
  8
0
  6
CONTINUOUS
 10
392.18212937990307
 20
-43.286727847887398
 30
0.0
 11
392.37243054862489
 21
-44.24343642880013
 31
0.0
 12
396.99182821118143
 22
-44.24343642880013
 32
0.0
 13
396.99182821118143
 23
-44.24343642880013
 33
0.0
210
0.0
220
0.0
230
1.0
  0
SOLID
  5
512
  8
0
  6
CONTINUOUS
 10
-392.18212937990307
 20
-43.286727847887398
 30
0.0
 11
-397.18212937990307
 21
-43.286727847887398
 31
0.0
 12
-396.99182821118143
 22
-44.24343642880013
 32
0.0
 13
-396.99182821118143
 23
-44.24343642880013
 33
0.0
210
0.0
220
0.0
230
-1.0
  0
SOLID
  5
513
  8
0
  6
CONTINUOUS
 10
392.37243054862489
 20
-44.24343642880013
 30
0.0
 11
392.9143624269368
 21
-45.054494800853767
 31
0.0
 12
396.44989633286951
 22
-45.054494800853767
 32
0.0
 13
396.44989633286951
 23
-45.054494800853767
 33
0.0
210
0.0
220
0.0
230
1.0
  0
SOLID
  5
514
  8
0
  6
CONTINUOUS
 10
-392.37243054862489
 20
-44.24343642880013
 30
0.0
 11
-396.99182821118143
 21
-44.24343642880013
 31
0.0
 12
-396.44989633286951
 22
-45.054494800853767
 32
0.0
 13
-396.44989633286951
 23
-45.054494800853767
 33
0.0
210
0.0
220
0.0
230
-1.0
  0
SOLID
  5
515
  8
0
  6
CONTINUOUS
 10
-393.7254207989904
 20
-45.596426679165617
 30
0.0
 11
-395.63883796081592
 21
-45.596426679165617
 31
0.0
 12
-394.68212937990307
 22
-45.786727847887398
 32
0.0
 13
-394.68212937990307
 23
-45.786727847887398
 33
0.0
210
0.0
220
0.0
230
-1.0
  0
SOLID
  5
516
  8
0
  6
CONTINUOUS
 10
392.9143624269368
 20
-45.054494800853767
 30
0.0
 11
393.7254207989904
 21
-45.596426679165617
 31
0.0
 12
395.63883796081592
 22
-45.596426679165617
 32
0.0
 13
395.63883796081592
 23
-45.596426679165617
 33
0.0
210
0.0
220
0.0
230
1.0
  0
SOLID
  5
517
  8
0
  6
CONTINUOUS
 10
-392.9143624269368
 20
-45.054494800853767
 30
0.0
 11
-396.44989633286951
 21
-45.054494800853767
 31
0.0
 12
-395.63883796081592
 22
-45.596426679165617
 32
0.0
 13
-395.63883796081592
 23
-45.596426679165617
 33
0.0
210
0.0
220
0.0
230
-1.0
  0
LINE
  5
518
  8
0
  6
CONTINUOUS
 10
394.68212937990307
 20
-40.786727847887398
 30
0.0
 11
393.7254207989904
 21
-40.977029016609187
 31
0.0
  0
LINE
  5
519
  8
0
  6
CONTINUOUS
 10
395.63883796081592
 20
-40.977029016609187
 30
0.0
 11
394.68212937990307
 21
-40.786727847887398
 31
0.0
  0
LINE
  5
51A
  8
0
  6
CONTINUOUS
 10
393.7254207989904
 20
-40.977029016609187
 30
0.0
 11
392.9143624269368
 21
-41.518960894921037
 31
0.0
  0
LINE
  5
51B
  8
0
  6
CONTINUOUS
 10
395.63883796081592
 20
-40.977029016609187
 30
0.0
 11
396.44989633286951
 21
-41.518960894921037
 31
0.0
  0
LINE
  5
51C
  8
0
  6
CONTINUOUS
 10
392.9143624269368
 20
-41.518960894921037
 30
0.0
 11
392.37243054862489
 21
-42.330019266974674
 31
0.0
  0
LINE
  5
51D
  8
0
  6
CONTINUOUS
 10
396.44989633286951
 20
-41.518960894921037
 30
0.0
 11
396.99182821118143
 21
-42.330019266974674
 31
0.0
  0
LINE
  5
51E
  8
0
  6
CONTINUOUS
 10
392.37243054862489
 20
-42.330019266974674
 30
0.0
 11
392.18212937990307
 21
-43.286727847887398
 31
0.0
  0
LINE
  5
51F
  8
0
  6
CONTINUOUS
 10
396.99182821118143
 20
-42.330019266974674
 30
0.0
 11
397.18212937990307
 21
-43.286727847887398
 31
0.0
  0
LINE
  5
520
  8
0
  6
CONTINUOUS
 10
392.18212937990307
 20
-43.286727847887398
 30
0.0
 11
392.37243054862489
 21
-44.24343642880013
 31
0.0
  0
LINE
  5
521
  8
0
  6
CONTINUOUS
 10
397.18212937990307
 20
-43.286727847887398
 30
0.0
 11
396.99182821118143
 21
-44.24343642880013
 31
0.0
  0
LINE
  5
522
  8
0
  6
CONTINUOUS
 10
392.37243054862489
 20
-44.24343642880013
 30
0.0
 11
392.9143624269368
 21
-45.054494800853767
 31
0.0
  0
LINE
  5
523
  8
0
  6
CONTINUOUS
 10
396.99182821118143
 20
-44.24343642880013
 30
0.0
 11
396.44989633286951
 21
-45.054494800853767
 31
0.0
  0
LINE
  5
524
  8
0
  6
CONTINUOUS
 10
395.63883796081592
 20
-45.596426679165617
 30
0.0
 11
394.68212937990307
 21
-45.786727847887398
 31
0.0
  0
LINE
  5
525
  8
0
  6
CONTINUOUS
 10
394.68212937990307
 20
-45.786727847887398
 30
0.0
 11
393.7254207989904
 21
-45.596426679165617
 31
0.0
  0
LINE
  5
526
  8
0
  6
CONTINUOUS
 10
392.9143624269368
 20
-45.054494800853767
 30
0.0
 11
393.7254207989904
 21
-45.596426679165617
 31
0.0
  0
LINE
  5
527
  8
0
  6
CONTINUOUS
 10
396.44989633286951
 20
-45.054494800853767
 30
0.0
 11
395.63883796081592
 21
-45.596426679165617
 31
0.0
  0
ENDBLK
  5
529
  8
0
  0
BLOCK
  8
0
  2
*U34
 70
     1
 10
0.0
 20
0.0
 30
0.0
  3
*U34
  1

  0
TEXT
  5
52B
  8
0
 10
608.47770956994498
 20
-205.25116414056919
 30
0.0
 40
12.2941616766467
  1
Soffit lining
  7
ARIAL
  0
ENDBLK
  5
52D
  8
0
  0
BLOCK
  8
0
  2
*U35
 70
     1
 10
0.0
 20
0.0
 30
0.0
  3
*U35
  1

  0
SOLID
  5
52F
  8
0
  6
CONTINUOUS
 10
471.7544009220203
 20
229.17575167923519
 30
0.0
 11
470.79769234110762
 21
228.9854505105134
 31
0.0
 12
472.71110950293303
 22
228.9854505105134
 32
0.0
 13
472.71110950293303
 23
228.9854505105134
 33
0.0
  0
SOLID
  5
530
  8
0
  6
CONTINUOUS
 10
470.79769234110762
 20
228.9854505105134
 30
0.0
 11
469.98663396905403
 21
228.4435186322016
 31
0.0
 12
473.52216787498668
 22
228.4435186322016
 32
0.0
 13
473.52216787498668
 23
228.4435186322016
 33
0.0
210
0.0
220
0.0
230
1.0
  0
SOLID
  5
531
  8
0
  6
CONTINUOUS
 10
-470.79769234110762
 20
228.9854505105134
 30
0.0
 11
-472.71110950293303
 21
228.9854505105134
 31
0.0
 12
-473.52216787498668
 22
228.4435186322016
 32
0.0
 13
-473.52216787498668
 23
228.4435186322016
 33
0.0
210
0.0
220
0.0
230
-1.0
  0
SOLID
  5
532
  8
0
  6
CONTINUOUS
 10
469.98663396905403
 20
228.4435186322016
 30
0.0
 11
469.44470209074211
 21
227.63246026014801
 31
0.0
 12
474.06409975329848
 22
227.63246026014801
 32
0.0
 13
474.06409975329848
 23
227.63246026014801
 33
0.0
210
0.0
220
0.0
230
1.0
  0
SOLID
  5
533
  8
0
  6
CONTINUOUS
 10
-469.98663396905403
 20
228.4435186322016
 30
0.0
 11
-473.52216787498668
 21
228.4435186322016
 31
0.0
 12
-474.06409975329848
 22
227.63246026014801
 32
0.0
 13
-474.06409975329848
 23
227.63246026014801
 33
0.0
210
0.0
220
0.0
230
-1.0
  0
SOLID
  5
534
  8
0
  6
CONTINUOUS
 10
469.44470209074211
 20
227.63246026014801
 30
0.0
 11
469.2544009220203
 21
226.6757516792353
 31
0.0
 12
474.25440092202018
 22
226.6757516792353
 32
0.0
 13
474.25440092202018
 23
226.6757516792353
 33
0.0
210
0.0
220
0.0
230
1.0
  0
SOLID
  5
535
  8
0
  6
CONTINUOUS
 10
-469.44470209074211
 20
227.63246026014801
 30
0.0
 11
-474.06409975329848
 21
227.63246026014801
 31
0.0
 12
-474.25440092202018
 22
226.6757516792353
 32
0.0
 13
-474.25440092202018
 23
226.6757516792353
 33
0.0
210
0.0
220
0.0
230
-1.0
  0
SOLID
  5
536
  8
0
  6
CONTINUOUS
 10
469.2544009220203
 20
226.6757516792353
 30
0.0
 11
469.44470209074211
 21
225.7190430983226
 31
0.0
 12
474.06409975329848
 22
225.7190430983226
 32
0.0
 13
474.06409975329848
 23
225.7190430983226
 33
0.0
210
0.0
220
0.0
230
1.0
  0
SOLID
  5
537
  8
0
  6
CONTINUOUS
 10
-469.2544009220203
 20
226.6757516792353
 30
0.0
 11
-474.25440092202018
 21
226.6757516792353
 31
0.0
 12
-474.06409975329848
 22
225.7190430983226
 32
0.0
 13
-474.06409975329848
 23
225.7190430983226
 33
0.0
210
0.0
220
0.0
230
-1.0
  0
SOLID
  5
538
  8
0
  6
CONTINUOUS
 10
469.44470209074211
 20
225.7190430983226
 30
0.0
 11
469.98663396905403
 21
224.90798472626889
 31
0.0
 12
473.52216787498668
 22
224.90798472626889
 32
0.0
 13
473.52216787498668
 23
224.90798472626889
 33
0.0
210
0.0
220
0.0
230
1.0
  0
SOLID
  5
539
  8
0
  6
CONTINUOUS
 10
-469.44470209074211
 20
225.7190430983226
 30
0.0
 11
-474.06409975329848
 21
225.7190430983226
 31
0.0
 12
-473.52216787498668
 22
224.90798472626889
 32
0.0
 13
-473.52216787498668
 23
224.90798472626889
 33
0.0
210
0.0
220
0.0
230
-1.0
  0
SOLID
  5
53A
  8
0
  6
CONTINUOUS
 10
-470.79769234110762
 20
224.36605284795709
 30
0.0
 11
-472.71110950293303
 21
224.36605284795709
 31
0.0
 12
-471.7544009220203
 22
224.1757516792353
 32
0.0
 13
-471.7544009220203
 23
224.1757516792353
 33
0.0
210
0.0
220
0.0
230
-1.0
  0
SOLID
  5
53B
  8
0
  6
CONTINUOUS
 10
469.98663396905403
 20
224.90798472626889
 30
0.0
 11
470.79769234110762
 21
224.36605284795709
 31
0.0
 12
472.71110950293303
 22
224.36605284795709
 32
0.0
 13
472.71110950293303
 23
224.36605284795709
 33
0.0
210
0.0
220
0.0
230
1.0
  0
SOLID
  5
53C
  8
0
  6
CONTINUOUS
 10
-469.98663396905403
 20
224.90798472626889
 30
0.0
 11
-473.52216787498668
 21
224.90798472626889
 31
0.0
 12
-472.71110950293303
 22
224.36605284795709
 32
0.0
 13
-472.71110950293303
 23
224.36605284795709
 33
0.0
210
0.0
220
0.0
230
-1.0
  0
LINE
  5
53D
  8
0
  6
CONTINUOUS
 10
471.7544009220203
 20
229.17575167923519
 30
0.0
 11
470.79769234110762
 21
228.9854505105134
 31
0.0
  0
LINE
  5
53E
  8
0
  6
CONTINUOUS
 10
472.71110950293303
 20
228.9854505105134
 30
0.0
 11
471.7544009220203
 21
229.17575167923519
 31
0.0
  0
LINE
  5
53F
  8
0
  6
CONTINUOUS
 10
470.79769234110762
 20
228.9854505105134
 30
0.0
 11
469.98663396905403
 21
228.4435186322016
 31
0.0
  0
LINE
  5
540
  8
0
  6
CONTINUOUS
 10
472.71110950293303
 20
228.9854505105134
 30
0.0
 11
473.52216787498668
 21
228.4435186322016
 31
0.0
  0
LINE
  5
541
  8
0
  6
CONTINUOUS
 10
469.98663396905403
 20
228.4435186322016
 30
0.0
 11
469.44470209074211
 21
227.63246026014801
 31
0.0
  0
LINE
  5
542
  8
0
  6
CONTINUOUS
 10
473.52216787498668
 20
228.4435186322016
 30
0.0
 11
474.06409975329848
 21
227.63246026014801
 31
0.0
  0
LINE
  5
543
  8
0
  6
CONTINUOUS
 10
469.44470209074211
 20
227.63246026014801
 30
0.0
 11
469.2544009220203
 21
226.6757516792353
 31
0.0
  0
LINE
  5
544
  8
0
  6
CONTINUOUS
 10
474.06409975329848
 20
227.63246026014801
 30
0.0
 11
474.25440092202018
 21
226.6757516792353
 31
0.0
  0
LINE
  5
545
  8
0
  6
CONTINUOUS
 10
469.2544009220203
 20
226.6757516792353
 30
0.0
 11
469.44470209074211
 21
225.7190430983226
 31
0.0
  0
LINE
  5
546
  8
0
  6
CONTINUOUS
 10
474.25440092202018
 20
226.6757516792353
 30
0.0
 11
474.06409975329848
 21
225.7190430983226
 31
0.0
  0
LINE
  5
547
  8
0
  6
CONTINUOUS
 10
469.44470209074211
 20
225.7190430983226
 30
0.0
 11
469.98663396905403
 21
224.90798472626889
 31
0.0
  0
LINE
  5
548
  8
0
  6
CONTINUOUS
 10
474.06409975329848
 20
225.7190430983226
 30
0.0
 11
473.52216787498668
 21
224.90798472626889
 31
0.0
  0
LINE
  5
549
  8
0
  6
CONTINUOUS
 10
472.71110950293303
 20
224.36605284795709
 30
0.0
 11
471.7544009220203
 21
224.1757516792353
 31
0.0
  0
LINE
  5
54A
  8
0
  6
CONTINUOUS
 10
471.7544009220203
 20
224.1757516792353
 30
0.0
 11
470.79769234110762
 21
224.36605284795709
 31
0.0
  0
LINE
  5
54B
  8
0
  6
CONTINUOUS
 10
469.98663396905403
 20
224.90798472626889
 30
0.0
 11
470.79769234110762
 21
224.36605284795709
 31
0.0
  0
LINE
  5
54C
  8
0
  6
CONTINUOUS
 10
473.52216787498668
 20
224.90798472626889
 30
0.0
 11
472.71110950293303
 21
224.36605284795709
 31
0.0
  0
ENDBLK
  5
54E
  8
0
  0
BLOCK
  8
0
  2
*U36
 70
     1
 10
0.0
 20
0.0
 30
0.0
  3
*U36
  1

  0
TEXT
  5
550
  8
0
 10
602.73859871882325
 20
221.00267475615831
 30
0.0
 40
12.2941616766467
  1
Climateseal nail
  7
ARIAL
  0
ENDBLK
  5
552
  8
0
  0
BLOCK
  8
0
  2
*U37
 70
     1
 10
0.0
 20
0.0
 30
0.0
  3
*U37
  1

  0
SOLID
  5
554
  8
0
  6
CONTINUOUS
 10
-138.3228457504575
 20
-1.3853390501340579
 30
0.0
 11
-139.27955433137021
 21
-1.5756402188558409
 31
0.0
 12
-137.36613716954469
 22
-1.5756402188558409
 32
0.0
 13
-137.36613716954469
 23
-1.5756402188558409
 33
0.0
210
0.0
220
0.0
230
1.0
  0
SOLID
  5
555
  8
0
  6
CONTINUOUS
 10
-139.27955433137021
 20
-1.5756402188558409
 30
0.0
 11
-140.0906127034238
 21
-2.117572097167689
 31
0.0
 12
-136.55507879749109
 22
-2.117572097167689
 32
0.0
 13
-136.55507879749109
 23
-2.117572097167689
 33
0.0
210
0.0
220
0.0
230
1.0
  0
SOLID
  5
556
  8
0
  6
CONTINUOUS
 10
139.27955433137021
 20
-1.5756402188558409
 30
0.0
 11
137.36613716954469
 21
-1.5756402188558409
 31
0.0
 12
136.55507879749109
 22
-2.117572097167689
 32
0.0
 13
136.55507879749109
 23
-2.117572097167689
 33
0.0
210
0.0
220
0.0
230
-1.0
  0
SOLID
  5
557
  8
0
  6
CONTINUOUS
 10
-140.0906127034238
 20
-2.117572097167689
 30
0.0
 11
-140.63254458173569
 21
-2.9286304692213339
 31
0.0
 12
-136.01314691917921
 22
-2.9286304692213339
 32
0.0
 13
-136.01314691917921
 23
-2.9286304692213339
 33
0.0
210
0.0
220
0.0
230
1.0
  0
SOLID
  5
558
  8
0
  6
CONTINUOUS
 10
140.0906127034238
 20
-2.117572097167689
 30
0.0
 11
136.55507879749109
 21
-2.117572097167689
 31
0.0
 12
136.01314691917921
 22
-2.9286304692213339
 32
0.0
 13
136.01314691917921
 23
-2.9286304692213339
 33
0.0
210
0.0
220
0.0
230
-1.0
  0
SOLID
  5
559
  8
0
  6
CONTINUOUS
 10
-140.63254458173569
 20
-2.9286304692213339
 30
0.0
 11
-140.82284575045739
 21
-3.8853390501340579
 31
0.0
 12
-135.8228457504575
 22
-3.8853390501340579
 32
0.0
 13
-135.8228457504575
 23
-3.8853390501340579
 33
0.0
210
0.0
220
0.0
230
1.0
  0
SOLID
  5
55A
  8
0
  6
CONTINUOUS
 10
140.63254458173569
 20
-2.9286304692213339
 30
0.0
 11
136.01314691917921
 21
-2.9286304692213339
 31
0.0
 12
135.8228457504575
 22
-3.8853390501340579
 32
0.0
 13
135.8228457504575
 23
-3.8853390501340579
 33
0.0
210
0.0
220
0.0
230
-1.0
  0
SOLID
  5
55B
  8
0
  6
CONTINUOUS
 10
-140.82284575045739
 20
-3.8853390501340579
 30
0.0
 11
-140.63254458173569
 21
-4.8420476310467828
 31
0.0
 12
-136.01314691917921
 22
-4.8420476310467828
 32
0.0
 13
-136.01314691917921
 23
-4.8420476310467828
 33
0.0
  0
SOLID
  5
55C
  8
0
  6
CONTINUOUS
 10
140.82284575045739
 20
-3.8853390501340579
 30
0.0
 11
135.8228457504575
 21
-3.8853390501340579
 31
0.0
 12
136.01314691917921
 22
-4.8420476310467828
 32
0.0
 13
136.01314691917921
 23
-4.8420476310467828
 33
0.0
210
0.0
220
0.0
230
-1.0
  0
SOLID
  5
55D
  8
0
  6
CONTINUOUS
 10
-140.63254458173569
 20
-4.8420476310467828
 30
0.0
 11
-140.0906127034238
 21
-5.6531060031004268
 31
0.0
 12
-136.55507879749109
 22
-5.6531060031004268
 32
0.0
 13
-136.55507879749109
 23
-5.6531060031004268
 33
0.0
210
0.0
220
0.0
230
1.0
  0
SOLID
  5
55E
  8
0
  6
CONTINUOUS
 10
140.63254458173569
 20
-4.8420476310467828
 30
0.0
 11
136.01314691917921
 21
-4.8420476310467828
 31
0.0
 12
136.55507879749109
 22
-5.6531060031004268
 32
0.0
 13
136.55507879749109
 23
-5.6531060031004268
 33
0.0
210
0.0
220
0.0
230
-1.0
  0
SOLID
  5
55F
  8
0
  6
CONTINUOUS
 10
139.27955433137021
 20
-6.1950378814122748
 30
0.0
 11
137.36613716954469
 21
-6.1950378814122748
 31
0.0
 12
138.3228457504575
 22
-6.3853390501340579
 32
0.0
 13
138.3228457504575
 23
-6.3853390501340579
 33
0.0
210
0.0
220
0.0
230
-1.0
  0
SOLID
  5
560
  8
0
  6
CONTINUOUS
 10
-140.0906127034238
 20
-5.6531060031004268
 30
0.0
 11
-139.27955433137021
 21
-6.1950378814122748
 31
0.0
 12
-137.36613716954469
 22
-6.1950378814122748
 32
0.0
 13
-137.36613716954469
 23
-6.1950378814122748
 33
0.0
210
0.0
220
0.0
230
1.0
  0
SOLID
  5
561
  8
0
  6
CONTINUOUS
 10
140.0906127034238
 20
-5.6531060031004268
 30
0.0
 11
136.55507879749109
 21
-5.6531060031004268
 31
0.0
 12
137.36613716954469
 22
-6.1950378814122748
 32
0.0
 13
137.36613716954469
 23
-6.1950378814122748
 33
0.0
210
0.0
220
0.0
230
-1.0
  0
LINE
  5
562
  8
0
  6
CONTINUOUS
 10
-138.3228457504575
 20
-1.3853390501340579
 30
0.0
 11
-139.27955433137021
 21
-1.5756402188558409
 31
0.0
  0
LINE
  5
563
  8
0
  6
CONTINUOUS
 10
-137.36613716954469
 20
-1.5756402188558409
 30
0.0
 11
-138.3228457504575
 21
-1.3853390501340579
 31
0.0
  0
LINE
  5
564
  8
0
  6
CONTINUOUS
 10
-139.27955433137021
 20
-1.5756402188558409
 30
0.0
 11
-140.0906127034238
 21
-2.117572097167689
 31
0.0
  0
LINE
  5
565
  8
0
  6
CONTINUOUS
 10
-137.36613716954469
 20
-1.5756402188558409
 30
0.0
 11
-136.55507879749109
 21
-2.117572097167689
 31
0.0
  0
LINE
  5
566
  8
0
  6
CONTINUOUS
 10
-140.0906127034238
 20
-2.117572097167689
 30
0.0
 11
-140.63254458173569
 21
-2.9286304692213339
 31
0.0
  0
LINE
  5
567
  8
0
  6
CONTINUOUS
 10
-136.55507879749109
 20
-2.117572097167689
 30
0.0
 11
-136.01314691917921
 21
-2.9286304692213339
 31
0.0
  0
LINE
  5
568
  8
0
  6
CONTINUOUS
 10
-140.63254458173569
 20
-2.9286304692213339
 30
0.0
 11
-140.82284575045739
 21
-3.8853390501340579
 31
0.0
  0
LINE
  5
569
  8
0
  6
CONTINUOUS
 10
-136.01314691917921
 20
-2.9286304692213339
 30
0.0
 11
-135.8228457504575
 21
-3.8853390501340579
 31
0.0
  0
LINE
  5
56A
  8
0
  6
CONTINUOUS
 10
-140.82284575045739
 20
-3.8853390501340579
 30
0.0
 11
-140.63254458173569
 21
-4.8420476310467828
 31
0.0
  0
LINE
  5
56B
  8
0
  6
CONTINUOUS
 10
-135.8228457504575
 20
-3.8853390501340579
 30
0.0
 11
-136.01314691917921
 21
-4.8420476310467828
 31
0.0
  0
LINE
  5
56C
  8
0
  6
CONTINUOUS
 10
-140.63254458173569
 20
-4.8420476310467828
 30
0.0
 11
-140.0906127034238
 21
-5.6531060031004268
 31
0.0
  0
LINE
  5
56D
  8
0
  6
CONTINUOUS
 10
-136.01314691917921
 20
-4.8420476310467828
 30
0.0
 11
-136.55507879749109
 21
-5.6531060031004268
 31
0.0
  0
LINE
  5
56E
  8
0
  6
CONTINUOUS
 10
-137.36613716954469
 20
-6.1950378814122748
 30
0.0
 11
-138.3228457504575
 21
-6.3853390501340579
 31
0.0
  0
LINE
  5
56F
  8
0
  6
CONTINUOUS
 10
-138.3228457504575
 20
-6.3853390501340579
 30
0.0
 11
-139.27955433137021
 21
-6.1950378814122748
 31
0.0
  0
LINE
  5
570
  8
0
  6
CONTINUOUS
 10
-140.0906127034238
 20
-5.6531060031004268
 30
0.0
 11
-139.27955433137021
 21
-6.1950378814122748
 31
0.0
  0
LINE
  5
571
  8
0
  6
CONTINUOUS
 10
-136.55507879749109
 20
-5.6531060031004268
 30
0.0
 11
-137.36613716954469
 21
-6.1950378814122748
 31
0.0
  0
ENDBLK
  5
573
  8
0
  0
BLOCK
  8
0
  2
*U38
 70
     1
 10
0.0
 20
0.0
 30
0.0
  3
*U38
  1

  0
TEXT
  5
575
  8
0
 10
-366.90206456321999
 20
-9.5584159732109732
 30
0.0
 40
12.2941616766467
  1
Purlin
  7
ARIAL
  0
ENDBLK
  5
577
  8
0
  0
BLOCK
  8
0
  2
*U39
 70
     1
 10
0.0
 20
0.0
 30
0.0
  3
*U39
  1

  0
SOLID
  5
579
  8
0
  6
CONTINUOUS
 10
486.92870474013603
 20
-43.786455357922399
 30
0.0
 11
485.97199615922329
 21
-43.976756526644181
 31
0.0
 12
487.8854133210487
 22
-43.976756526644181
 32
0.0
 13
487.8854133210487
 23
-43.976756526644181
 33
0.0
  0
SOLID
  5
57A
  8
0
  6
CONTINUOUS
 10
485.97199615922329
 20
-43.976756526644181
 30
0.0
 11
485.1609377871697
 21
-44.518688404956023
 31
0.0
 12
488.6964716931023
 22
-44.518688404956023
 32
0.0
 13
488.6964716931023
 23
-44.518688404956023
 33
0.0
210
0.0
220
0.0
230
1.0
  0
SOLID
  5
57B
  8
0
  6
CONTINUOUS
 10
-485.97199615922329
 20
-43.976756526644181
 30
0.0
 11
-487.8854133210487
 21
-43.976756526644181
 31
0.0
 12
-488.6964716931023
 22
-44.518688404956023
 32
0.0
 13
-488.6964716931023
 23
-44.518688404956023
 33
0.0
210
0.0
220
0.0
230
-1.0
  0
SOLID
  5
57C
  8
0
  6
CONTINUOUS
 10
485.1609377871697
 20
-44.518688404956023
 30
0.0
 11
484.61900590885779
 21
-45.329746777009639
 31
0.0
 12
489.23840357141421
 22
-45.329746777009639
 32
0.0
 13
489.23840357141421
 23
-45.329746777009639
 33
0.0
210
0.0
220
0.0
230
1.0
  0
SOLID
  5
57D
  8
0
  6
CONTINUOUS
 10
-485.1609377871697
 20
-44.518688404956023
 30
0.0
 11
-488.6964716931023
 21
-44.518688404956023
 31
0.0
 12
-489.23840357141421
 22
-45.329746777009639
 32
0.0
 13
-489.23840357141421
 23
-45.329746777009639
 33
0.0
210
0.0
220
0.0
230
-1.0
  0
SOLID
  5
57E
  8
0
  6
CONTINUOUS
 10
484.61900590885779
 20
-45.329746777009639
 30
0.0
 11
484.42870474013603
 21
-46.28645535792235
 31
0.0
 12
489.42870474013591
 22
-46.28645535792235
 32
0.0
 13
489.42870474013591
 23
-46.28645535792235
 33
0.0
210
0.0
220
0.0
230
1.0
  0
SOLID
  5
57F
  8
0
  6
CONTINUOUS
 10
-484.61900590885779
 20
-45.329746777009639
 30
0.0
 11
-489.23840357141421
 21
-45.329746777009639
 31
0.0
 12
-489.42870474013591
 22
-46.28645535792235
 32
0.0
 13
-489.42870474013591
 23
-46.28645535792235
 33
0.0
210
0.0
220
0.0
230
-1.0
  0
SOLID
  5
580
  8
0
  6
CONTINUOUS
 10
484.42870474013603
 20
-46.28645535792235
 30
0.0
 11
484.61900590885779
 21
-47.243163938835053
 31
0.0
 12
489.23840357141421
 22
-47.243163938835053
 32
0.0
 13
489.23840357141421
 23
-47.243163938835053
 33
0.0
210
0.0
220
0.0
230
1.0
  0
SOLID
  5
581
  8
0
  6
CONTINUOUS
 10
-484.42870474013603
 20
-46.28645535792235
 30
0.0
 11
-489.42870474013591
 21
-46.28645535792235
 31
0.0
 12
-489.23840357141421
 22
-47.243163938835053
 32
0.0
 13
-489.23840357141421
 23
-47.243163938835053
 33
0.0
210
0.0
220
0.0
230
-1.0
  0
SOLID
  5
582
  8
0
  6
CONTINUOUS
 10
484.61900590885779
 20
-47.243163938835053
 30
0.0
 11
485.1609377871697
 21
-48.054222310888683
 31
0.0
 12
488.6964716931023
 22
-48.054222310888683
 32
0.0
 13
488.6964716931023
 23
-48.054222310888683
 33
0.0
210
0.0
220
0.0
230
1.0
  0
SOLID
  5
583
  8
0
  6
CONTINUOUS
 10
-484.61900590885779
 20
-47.243163938835053
 30
0.0
 11
-489.23840357141421
 21
-47.243163938835053
 31
0.0
 12
-488.6964716931023
 22
-48.054222310888683
 32
0.0
 13
-488.6964716931023
 23
-48.054222310888683
 33
0.0
210
0.0
220
0.0
230
-1.0
  0
SOLID
  5
584
  8
0
  6
CONTINUOUS
 10
-485.97199615922329
 20
-48.596154189200512
 30
0.0
 11
-487.8854133210487
 21
-48.596154189200512
 31
0.0
 12
-486.92870474013603
 22
-48.786455357922293
 32
0.0
 13
-486.92870474013603
 23
-48.786455357922293
 33
0.0
210
0.0
220
0.0
230
-1.0
  0
SOLID
  5
585
  8
0
  6
CONTINUOUS
 10
485.1609377871697
 20
-48.054222310888683
 30
0.0
 11
485.97199615922329
 21
-48.596154189200512
 31
0.0
 12
487.8854133210487
 22
-48.596154189200512
 32
0.0
 13
487.8854133210487
 23
-48.596154189200512
 33
0.0
  0
SOLID
  5
586
  8
0
  6
CONTINUOUS
 10
-485.1609377871697
 20
-48.054222310888683
 30
0.0
 11
-488.6964716931023
 21
-48.054222310888683
 31
0.0
 12
-487.8854133210487
 22
-48.596154189200512
 32
0.0
 13
-487.8854133210487
 23
-48.596154189200512
 33
0.0
210
0.0
220
0.0
230
-1.0
  0
LINE
  5
587
  8
0
  6
CONTINUOUS
 10
486.92870474013603
 20
-43.786455357922399
 30
0.0
 11
485.97199615922329
 21
-43.976756526644181
 31
0.0
  0
LINE
  5
588
  8
0
  6
CONTINUOUS
 10
487.8854133210487
 20
-43.976756526644181
 30
0.0
 11
486.92870474013603
 21
-43.786455357922399
 31
0.0
  0
LINE
  5
589
  8
0
  6
CONTINUOUS
 10
485.97199615922329
 20
-43.976756526644181
 30
0.0
 11
485.1609377871697
 21
-44.518688404956023
 31
0.0
  0
LINE
  5
58A
  8
0
  6
CONTINUOUS
 10
487.8854133210487
 20
-43.976756526644181
 30
0.0
 11
488.6964716931023
 21
-44.518688404956023
 31
0.0
  0
LINE
  5
58B
  8
0
  6
CONTINUOUS
 10
485.1609377871697
 20
-44.518688404956023
 30
0.0
 11
484.61900590885779
 21
-45.329746777009639
 31
0.0
  0
LINE
  5
58C
  8
0
  6
CONTINUOUS
 10
488.6964716931023
 20
-44.518688404956023
 30
0.0
 11
489.23840357141421
 21
-45.329746777009639
 31
0.0
  0
LINE
  5
58D
  8
0
  6
CONTINUOUS
 10
484.61900590885779
 20
-45.329746777009639
 30
0.0
 11
484.42870474013603
 21
-46.28645535792235
 31
0.0
  0
LINE
  5
58E
  8
0
  6
CONTINUOUS
 10
489.23840357141421
 20
-45.329746777009639
 30
0.0
 11
489.42870474013591
 21
-46.28645535792235
 31
0.0
  0
LINE
  5
58F
  8
0
  6
CONTINUOUS
 10
484.42870474013603
 20
-46.28645535792235
 30
0.0
 11
484.61900590885779
 21
-47.243163938835053
 31
0.0
  0
LINE
  5
590
  8
0
  6
CONTINUOUS
 10
489.42870474013591
 20
-46.28645535792235
 30
0.0
 11
489.23840357141421
 21
-47.243163938835053
 31
0.0
  0
LINE
  5
591
  8
0
  6
CONTINUOUS
 10
484.61900590885779
 20
-47.243163938835053
 30
0.0
 11
485.1609377871697
 21
-48.054222310888683
 31
0.0
  0
LINE
  5
592
  8
0
  6
CONTINUOUS
 10
489.23840357141421
 20
-47.243163938835053
 30
0.0
 11
488.6964716931023
 21
-48.054222310888683
 31
0.0
  0
LINE
  5
593
  8
0
  6
CONTINUOUS
 10
487.8854133210487
 20
-48.596154189200512
 30
0.0
 11
486.92870474013603
 21
-48.786455357922293
 31
0.0
  0
LINE
  5
594
  8
0
  6
CONTINUOUS
 10
486.92870474013603
 20
-48.786455357922293
 30
0.0
 11
485.97199615922329
 21
-48.596154189200512
 31
0.0
  0
LINE
  5
595
  8
0
  6
CONTINUOUS
 10
485.1609377871697
 20
-48.054222310888683
 30
0.0
 11
485.97199615922329
 21
-48.596154189200512
 31
0.0
  0
LINE
  5
596
  8
0
  6
CONTINUOUS
 10
488.6964716931023
 20
-48.054222310888683
 30
0.0
 11
487.8854133210487
 21
-48.596154189200512
 31
0.0
  0
ENDBLK
  5
598
  8
0
  0
BLOCK
  8
0
  2
*U40
 70
     1
 10
0.0
 20
0.0
 30
0.0
  3
*U40
  1

  0
TEXT
  5
59A
  8
0
 10
608.52802673915346
 20
-163.31556949836801
 30
0.0
 40
12.2941616766467
  1
3"x3/4"Fascia
  7
ARIAL
  0
ENDBLK
  5
59C
  8
0
  0
BLOCK
  8
0
  2
*U41
 70
     1
 10
0.0
 20
0.0
 30
0.0
  3
*U41
  1

  0
SOLID
  5
59E
  8
0
  6
CONTINUOUS
 10
-110.88824945980789
 20
79.491204437401422
 30
0.0
 11
-111.8449580407206
 21
79.300903268679633
 31
0.0
 12
-109.93154087889511
 22
79.300903268679633
 32
0.0
 13
-109.93154087889511
 23
79.300903268679633
 33
0.0
210
0.0
220
0.0
230
1.0
  0
SOLID
  5
59F
  8
0
  6
CONTINUOUS
 10
-111.8449580407206
 20
79.300903268679633
 30
0.0
 11
-112.65601641277421
 21
78.75897139036779
 31
0.0
 12
-109.1204825068415
 22
78.75897139036779
 32
0.0
 13
-109.1204825068415
 23
78.75897139036779
 33
0.0
210
0.0
220
0.0
230
1.0
  0
SOLID
  5
5A0
  8
0
  6
CONTINUOUS
 10
111.8449580407206
 20
79.300903268679633
 30
0.0
 11
109.93154087889511
 21
79.300903268679633
 31
0.0
 12
109.1204825068415
 22
78.75897139036779
 32
0.0
 13
109.1204825068415
 23
78.75897139036779
 33
0.0
210
0.0
220
0.0
230
-1.0
  0
SOLID
  5
5A1
  8
0
  6
CONTINUOUS
 10
-112.65601641277421
 20
78.75897139036779
 30
0.0
 11
-113.19794829108611
 21
77.947913018314139
 31
0.0
 12
-108.5785506285297
 22
77.947913018314139
 32
0.0
 13
-108.5785506285297
 23
77.947913018314139
 33
0.0
210
0.0
220
0.0
230
1.0
  0
SOLID
  5
5A2
  8
0
  6
CONTINUOUS
 10
112.65601641277421
 20
78.75897139036779
 30
0.0
 11
109.1204825068415
 21
78.75897139036779
 31
0.0
 12
108.5785506285297
 22
77.947913018314139
 32
0.0
 13
108.5785506285297
 23
77.947913018314139
 33
0.0
210
0.0
220
0.0
230
-1.0
  0
SOLID
  5
5A3
  8
0
  6
CONTINUOUS
 10
-113.19794829108611
 20
77.947913018314139
 30
0.0
 11
-113.3882494598078
 21
76.991204437401422
 31
0.0
 12
-108.3882494598078
 22
76.991204437401422
 32
0.0
 13
-108.3882494598078
 23
76.991204437401422
 33
0.0
210
0.0
220
0.0
230
1.0
  0
SOLID
  5
5A4
  8
0
  6
CONTINUOUS
 10
113.19794829108611
 20
77.947913018314139
 30
0.0
 11
108.5785506285297
 21
77.947913018314139
 31
0.0
 12
108.3882494598078
 22
76.991204437401422
 32
0.0
 13
108.3882494598078
 23
76.991204437401422
 33
0.0
210
0.0
220
0.0
230
-1.0
  0
SOLID
  5
5A5
  8
0
  6
CONTINUOUS
 10
-113.3882494598078
 20
76.991204437401422
 30
0.0
 11
-113.19794829108611
 21
76.034495856488704
 31
0.0
 12
-108.5785506285297
 22
76.034495856488704
 32
0.0
 13
-108.5785506285297
 23
76.034495856488704
 33
0.0
  0
SOLID
  5
5A6
  8
0
  6
CONTINUOUS
 10
113.3882494598078
 20
76.991204437401422
 30
0.0
 11
108.3882494598078
 21
76.991204437401422
 31
0.0
 12
108.5785506285297
 22
76.034495856488704
 32
0.0
 13
108.5785506285297
 23
76.034495856488704
 33
0.0
210
0.0
220
0.0
230
-1.0
  0
SOLID
  5
5A7
  8
0
  6
CONTINUOUS
 10
-113.19794829108611
 20
76.034495856488704
 30
0.0
 11
-112.65601641277421
 21
75.223437484435053
 31
0.0
 12
-109.1204825068415
 22
75.223437484435053
 32
0.0
 13
-109.1204825068415
 23
75.223437484435053
 33
0.0
210
0.0
220
0.0
230
1.0
  0
SOLID
  5
5A8
  8
0
  6
CONTINUOUS
 10
113.19794829108611
 20
76.034495856488704
 30
0.0
 11
108.5785506285297
 21
76.034495856488704
 31
0.0
 12
109.1204825068415
 22
75.223437484435053
 32
0.0
 13
109.1204825068415
 23
75.223437484435053
 33
0.0
210
0.0
220
0.0
230
-1.0
  0
SOLID
  5
5A9
  8
0
  6
CONTINUOUS
 10
111.8449580407206
 20
74.68150560612321
 30
0.0
 11
109.93154087889511
 21
74.68150560612321
 31
0.0
 12
110.88824945980789
 22
74.491204437401422
 32
0.0
 13
110.88824945980789
 23
74.491204437401422
 33
0.0
210
0.0
220
0.0
230
-1.0
  0
SOLID
  5
5AA
  8
0
  6
CONTINUOUS
 10
-112.65601641277421
 20
75.223437484435053
 30
0.0
 11
-111.8449580407206
 21
74.68150560612321
 31
0.0
 12
-109.93154087889511
 22
74.68150560612321
 32
0.0
 13
-109.93154087889511
 23
74.68150560612321
 33
0.0
210
0.0
220
0.0
230
1.0
  0
SOLID
  5
5AB
  8
0
  6
CONTINUOUS
 10
112.65601641277421
 20
75.223437484435053
 30
0.0
 11
109.1204825068415
 21
75.223437484435053
 31
0.0
 12
109.93154087889511
 22
74.68150560612321
 32
0.0
 13
109.93154087889511
 23
74.68150560612321
 33
0.0
210
0.0
220
0.0
230
-1.0
  0
LINE
  5
5AC
  8
0
  6
CONTINUOUS
 10
-110.88824945980789
 20
79.491204437401422
 30
0.0
 11
-111.8449580407206
 21
79.300903268679633
 31
0.0
  0
LINE
  5
5AD
  8
0
  6
CONTINUOUS
 10
-109.93154087889511
 20
79.300903268679633
 30
0.0
 11
-110.88824945980789
 21
79.491204437401422
 31
0.0
  0
LINE
  5
5AE
  8
0
  6
CONTINUOUS
 10
-111.8449580407206
 20
79.300903268679633
 30
0.0
 11
-112.65601641277421
 21
78.75897139036779
 31
0.0
  0
LINE
  5
5AF
  8
0
  6
CONTINUOUS
 10
-109.93154087889511
 20
79.300903268679633
 30
0.0
 11
-109.1204825068415
 21
78.75897139036779
 31
0.0
  0
LINE
  5
5B0
  8
0
  6
CONTINUOUS
 10
-112.65601641277421
 20
78.75897139036779
 30
0.0
 11
-113.19794829108611
 21
77.947913018314139
 31
0.0
  0
LINE
  5
5B1
  8
0
  6
CONTINUOUS
 10
-109.1204825068415
 20
78.75897139036779
 30
0.0
 11
-108.5785506285297
 21
77.947913018314139
 31
0.0
  0
LINE
  5
5B2
  8
0
  6
CONTINUOUS
 10
-113.19794829108611
 20
77.947913018314139
 30
0.0
 11
-113.3882494598078
 21
76.991204437401422
 31
0.0
  0
LINE
  5
5B3
  8
0
  6
CONTINUOUS
 10
-108.5785506285297
 20
77.947913018314139
 30
0.0
 11
-108.3882494598078
 21
76.991204437401422
 31
0.0
  0
LINE
  5
5B4
  8
0
  6
CONTINUOUS
 10
-113.3882494598078
 20
76.991204437401422
 30
0.0
 11
-113.19794829108611
 21
76.034495856488704
 31
0.0
  0
LINE
  5
5B5
  8
0
  6
CONTINUOUS
 10
-108.3882494598078
 20
76.991204437401422
 30
0.0
 11
-108.5785506285297
 21
76.034495856488704
 31
0.0
  0
LINE
  5
5B6
  8
0
  6
CONTINUOUS
 10
-113.19794829108611
 20
76.034495856488704
 30
0.0
 11
-112.65601641277421
 21
75.223437484435053
 31
0.0
  0
LINE
  5
5B7
  8
0
  6
CONTINUOUS
 10
-108.5785506285297
 20
76.034495856488704
 30
0.0
 11
-109.1204825068415
 21
75.223437484435053
 31
0.0
  0
LINE
  5
5B8
  8
0
  6
CONTINUOUS
 10
-109.93154087889511
 20
74.68150560612321
 30
0.0
 11
-110.88824945980789
 21
74.491204437401422
 31
0.0
  0
LINE
  5
5B9
  8
0
  6
CONTINUOUS
 10
-110.88824945980789
 20
74.491204437401422
 30
0.0
 11
-111.8449580407206
 21
74.68150560612321
 31
0.0
  0
LINE
  5
5BA
  8
0
  6
CONTINUOUS
 10
-112.65601641277421
 20
75.223437484435053
 30
0.0
 11
-111.8449580407206
 21
74.68150560612321
 31
0.0
  0
LINE
  5
5BB
  8
0
  6
CONTINUOUS
 10
-109.1204825068415
 20
75.223437484435053
 30
0.0
 11
-109.93154087889511
 21
74.68150560612321
 31
0.0
  0
ENDBLK
  5
5BD
  8
0
  0
BLOCK
  8
0
  2
*U42
 70
     1
 10
0.0
 20
0.0
 30
0.0
  3
*U42
  1

  0
TEXT
  5
5BF
  8
0
 10
-366.34857570192491
 20
-126.65637724003381
 30
0.0
 40
12.2941616766467
  1
Skip sheathing
  7
ARIAL
  0
ENDBLK
  5
5C1
  8
0
  0
BLOCK
  8
0
  2
*U43
 70
     1
 10
0.0
 20
0.0
 30
0.0
  3
*U43
  1

  0
SOLID
  5
5C3
  8
0
  6
CONTINUOUS
 10
363.21931145152541
 20
105.2947467518342
 30
0.0
 11
362.26260287061268
 21
105.10444558311239
 31
0.0
 12
364.17602003243798
 22
105.10444558311239
 32
0.0
 13
364.17602003243798
 23
105.10444558311239
 33
0.0
210
0.0
220
0.0
230
1.0
  0
SOLID
  5
5C4
  8
0
  6
CONTINUOUS
 10
362.26260287061268
 20
105.10444558311239
 30
0.0
 11
361.45154449855897
 21
104.56251370480059
 31
0.0
 12
364.98707840449168
 22
104.56251370480059
 32
0.0
 13
364.98707840449168
 23
104.56251370480059
 33
0.0
210
0.0
220
0.0
230
1.0
  0
SOLID
  5
5C5
  8
0
  6
CONTINUOUS
 10
-362.26260287061268
 20
105.10444558311239
 30
0.0
 11
-364.17602003243798
 21
105.10444558311239
 31
0.0
 12
-364.98707840449168
 22
104.56251370480059
 32
0.0
 13
-364.98707840449168
 23
104.56251370480059
 33
0.0
210
0.0
220
0.0
230
-1.0
  0
SOLID
  5
5C6
  8
0
  6
CONTINUOUS
 10
361.45154449855897
 20
104.56251370480059
 30
0.0
 11
360.90961262024717
 21
103.751455332747
 31
0.0
 12
365.52901028280348
 22
103.751455332747
 32
0.0
 13
365.52901028280348
 23
103.751455332747
 33
0.0
210
0.0
220
0.0
230
1.0
  0
SOLID
  5
5C7
  8
0
  6
CONTINUOUS
 10
-361.45154449855897
 20
104.56251370480059
 30
0.0
 11
-364.98707840449168
 21
104.56251370480059
 31
0.0
 12
-365.52901028280348
 22
103.751455332747
 32
0.0
 13
-365.52901028280348
 23
103.751455332747
 33
0.0
210
0.0
220
0.0
230
-1.0
  0
SOLID
  5
5C8
  8
0
  6
CONTINUOUS
 10
360.90961262024717
 20
103.751455332747
 30
0.0
 11
360.71931145152541
 21
102.7947467518343
 31
0.0
 12
365.7193114515253
 22
102.7947467518343
 32
0.0
 13
365.7193114515253
 23
102.7947467518343
 33
0.0
210
0.0
220
0.0
230
1.0
  0
SOLID
  5
5C9
  8
0
  6
CONTINUOUS
 10
-360.90961262024717
 20
103.751455332747
 30
0.0
 11
-365.52901028280348
 21
103.751455332747
 31
0.0
 12
-365.7193114515253
 22
102.7947467518343
 32
0.0
 13
-365.7193114515253
 23
102.7947467518343
 33
0.0
210
0.0
220
0.0
230
-1.0
  0
SOLID
  5
5CA
  8
0
  6
CONTINUOUS
 10
360.71931145152541
 20
102.7947467518343
 30
0.0
 11
360.90961262024717
 21
101.83803817092161
 31
0.0
 12
365.52901028280348
 22
101.83803817092161
 32
0.0
 13
365.52901028280348
 23
101.83803817092161
 33
0.0
210
0.0
220
0.0
230
1.0
  0
SOLID
  5
5CB
  8
0
  6
CONTINUOUS
 10
-360.71931145152541
 20
102.7947467518343
 30
0.0
 11
-365.7193114515253
 21
102.7947467518343
 31
0.0
 12
-365.52901028280348
 22
101.83803817092161
 32
0.0
 13
-365.52901028280348
 23
101.83803817092161
 33
0.0
210
0.0
220
0.0
230
-1.0
  0
SOLID
  5
5CC
  8
0
  6
CONTINUOUS
 10
360.90961262024717
 20
101.83803817092161
 30
0.0
 11
361.45154449855897
 21
101.0269797988679
 31
0.0
 12
364.98707840449168
 22
101.0269797988679
 32
0.0
 13
364.98707840449168
 23
101.0269797988679
 33
0.0
210
0.0
220
0.0
230
1.0
  0
SOLID
  5
5CD
  8
0
  6
CONTINUOUS
 10
-360.90961262024717
 20
101.83803817092161
 30
0.0
 11
-365.52901028280348
 21
101.83803817092161
 31
0.0
 12
-364.98707840449168
 22
101.0269797988679
 32
0.0
 13
-364.98707840449168
 23
101.0269797988679
 33
0.0
210
0.0
220
0.0
230
-1.0
  0
SOLID
  5
5CE
  8
0
  6
CONTINUOUS
 10
-362.26260287061268
 20
100.4850479205561
 30
0.0
 11
-364.17602003243798
 21
100.4850479205561
 31
0.0
 12
-363.21931145152541
 22
100.2947467518343
 32
0.0
 13
-363.21931145152541
 23
100.2947467518343
 33
0.0
210
0.0
220
0.0
230
-1.0
  0
SOLID
  5
5CF
  8
0
  6
CONTINUOUS
 10
361.45154449855897
 20
101.0269797988679
 30
0.0
 11
362.26260287061268
 21
100.4850479205561
 31
0.0
 12
364.17602003243798
 22
100.4850479205561
 32
0.0
 13
364.17602003243798
 23
100.4850479205561
 33
0.0
  0
SOLID
  5
5D0
  8
0
  6
CONTINUOUS
 10
-361.45154449855897
 20
101.0269797988679
 30
0.0
 11
-364.98707840449168
 21
101.0269797988679
 31
0.0
 12
-364.17602003243798
 22
100.4850479205561
 32
0.0
 13
-364.17602003243798
 23
100.4850479205561
 33
0.0
210
0.0
220
0.0
230
-1.0
  0
LINE
  5
5D1
  8
0
  6
CONTINUOUS
 10
363.21931145152541
 20
105.2947467518342
 30
0.0
 11
362.26260287061268
 21
105.10444558311239
 31
0.0
  0
LINE
  5
5D2
  8
0
  6
CONTINUOUS
 10
364.17602003243798
 20
105.10444558311239
 30
0.0
 11
363.21931145152541
 21
105.2947467518342
 31
0.0
  0
LINE
  5
5D3
  8
0
  6
CONTINUOUS
 10
362.26260287061268
 20
105.10444558311239
 30
0.0
 11
361.45154449855897
 21
104.56251370480059
 31
0.0
  0
LINE
  5
5D4
  8
0
  6
CONTINUOUS
 10
364.17602003243798
 20
105.10444558311239
 30
0.0
 11
364.98707840449168
 21
104.56251370480059
 31
0.0
  0
LINE
  5
5D5
  8
0
  6
CONTINUOUS
 10
361.45154449855897
 20
104.56251370480059
 30
0.0
 11
360.90961262024717
 21
103.751455332747
 31
0.0
  0
LINE
  5
5D6
  8
0
  6
CONTINUOUS
 10
364.98707840449168
 20
104.56251370480059
 30
0.0
 11
365.52901028280348
 21
103.751455332747
 31
0.0
  0
LINE
  5
5D7
  8
0
  6
CONTINUOUS
 10
360.90961262024717
 20
103.751455332747
 30
0.0
 11
360.71931145152541
 21
102.7947467518343
 31
0.0
  0
LINE
  5
5D8
  8
0
  6
CONTINUOUS
 10
365.52901028280348
 20
103.751455332747
 30
0.0
 11
365.7193114515253
 21
102.7947467518343
 31
0.0
  0
LINE
  5
5D9
  8
0
  6
CONTINUOUS
 10
360.71931145152541
 20
102.7947467518343
 30
0.0
 11
360.90961262024717
 21
101.83803817092161
 31
0.0
  0
LINE
  5
5DA
  8
0
  6
CONTINUOUS
 10
365.7193114515253
 20
102.7947467518343
 30
0.0
 11
365.52901028280348
 21
101.83803817092161
 31
0.0
  0
LINE
  5
5DB
  8
0
  6
CONTINUOUS
 10
360.90961262024717
 20
101.83803817092161
 30
0.0
 11
361.45154449855897
 21
101.0269797988679
 31
0.0
  0
LINE
  5
5DC
  8
0
  6
CONTINUOUS
 10
365.52901028280348
 20
101.83803817092161
 30
0.0
 11
364.98707840449168
 21
101.0269797988679
 31
0.0
  0
LINE
  5
5DD
  8
0
  6
CONTINUOUS
 10
364.17602003243798
 20
100.4850479205561
 30
0.0
 11
363.21931145152541
 21
100.2947467518343
 31
0.0
  0
LINE
  5
5DE
  8
0
  6
CONTINUOUS
 10
363.21931145152541
 20
100.2947467518343
 30
0.0
 11
362.26260287061268
 21
100.4850479205561
 31
0.0
  0
LINE
  5
5DF
  8
0
  6
CONTINUOUS
 10
361.45154449855897
 20
101.0269797988679
 30
0.0
 11
362.26260287061268
 21
100.4850479205561
 31
0.0
  0
LINE
  5
5E0
  8
0
  6
CONTINUOUS
 10
364.98707840449168
 20
101.0269797988679
 30
0.0
 11
364.17602003243798
 21
100.4850479205561
 31
0.0
  0
ENDBLK
  5
5E2
  8
0
  0
BLOCK
  8
0
  2
*U44
 70
     1
 10
0.0
 20
0.0
 30
0.0
  3
*U44
  1

  0
TEXT
  5
5E4
  8
0
 10
607.89906212404537
 20
-250.2707152292619
 30
0.0
 40
12.2941616766467
  1
Universal Channel
  7
ARIAL
  0
ENDBLK
  5
5E6
  8
0
  0
BLOCK
  8
0
  2
*U45
 70
     1
 10
0.0
 20
0.0
 30
0.0
  3
*U45
  1

  0
SOLID
  5
5E8
  8
0
  6
CONTINUOUS
 10
530.68408769445523
 20
178.20978608421339
 30
0.0
 11
529.7273791135425
 21
178.01948491549169
 31
0.0
 12
531.64079627536785
 22
178.01948491549169
 32
0.0
 13
531.64079627536785
 23
178.01948491549169
 33
0.0
210
0.0
220
0.0
230
1.0
  0
SOLID
  5
5E9
  8
0
  6
CONTINUOUS
 10
529.7273791135425
 20
178.01948491549169
 30
0.0
 11
528.9163207414889
 21
177.4775530371798
 31
0.0
 12
532.45185464742156
 22
177.4775530371798
 32
0.0
 13
532.45185464742156
 23
177.4775530371798
 33
0.0
210
0.0
220
0.0
230
1.0
  0
SOLID
  5
5EA
  8
0
  6
CONTINUOUS
 10
-529.7273791135425
 20
178.01948491549169
 30
0.0
 11
-531.64079627536785
 21
178.01948491549169
 31
0.0
 12
-532.45185464742156
 22
177.4775530371798
 32
0.0
 13
-532.45185464742156
 23
177.4775530371798
 33
0.0
210
0.0
220
0.0
230
-1.0
  0
SOLID
  5
5EB
  8
0
  6
CONTINUOUS
 10
528.9163207414889
 20
177.4775530371798
 30
0.0
 11
528.37438886317705
 21
176.66649466512621
 31
0.0
 12
532.99378652573341
 22
176.66649466512621
 32
0.0
 13
532.99378652573341
 23
176.66649466512621
 33
0.0
  0
SOLID
  5
5EC
  8
0
  6
CONTINUOUS
 10
-528.9163207414889
 20
177.4775530371798
 30
0.0
 11
-532.45185464742156
 21
177.4775530371798
 31
0.0
 12
-532.99378652573341
 22
176.66649466512621
 32
0.0
 13
-532.99378652573341
 23
176.66649466512621
 33
0.0
210
0.0
220
0.0
230
-1.0
  0
SOLID
  5
5ED
  8
0
  6
CONTINUOUS
 10
528.37438886317705
 20
176.66649466512621
 30
0.0
 11
528.18408769445523
 21
175.7097860842135
 31
0.0
 12
533.18408769445523
 22
175.7097860842135
 32
0.0
 13
533.18408769445523
 23
175.7097860842135
 33
0.0
210
0.0
220
0.0
230
1.0
  0
SOLID
  5
5EE
  8
0
  6
CONTINUOUS
 10
-528.37438886317705
 20
176.66649466512621
 30
0.0
 11
-532.99378652573341
 21
176.66649466512621
 31
0.0
 12
-533.18408769445523
 22
175.7097860842135
 32
0.0
 13
-533.18408769445523
 23
175.7097860842135
 33
0.0
210
0.0
220
0.0
230
-1.0
  0
SOLID
  5
5EF
  8
0
  6
CONTINUOUS
 10
528.18408769445523
 20
175.7097860842135
 30
0.0
 11
528.37438886317705
 21
174.75307750330069
 31
0.0
 12
532.99378652573341
 22
174.75307750330069
 32
0.0
 13
532.99378652573341
 23
174.75307750330069
 33
0.0
210
0.0
220
0.0
230
1.0
  0
SOLID
  5
5F0
  8
0
  6
CONTINUOUS
 10
-528.18408769445523
 20
175.7097860842135
 30
0.0
 11
-533.18408769445523
 21
175.7097860842135
 31
0.0
 12
-532.99378652573341
 22
174.75307750330069
 32
0.0
 13
-532.99378652573341
 23
174.75307750330069
 33
0.0
210
0.0
220
0.0
230
-1.0
  0
SOLID
  5
5F1
  8
0
  6
CONTINUOUS
 10
528.37438886317705
 20
174.75307750330069
 30
0.0
 11
528.9163207414889
 21
173.94201913124709
 31
0.0
 12
532.45185464742156
 22
173.94201913124709
 32
0.0
 13
532.45185464742156
 23
173.94201913124709
 33
0.0
210
0.0
220
0.0
230
1.0
  0
SOLID
  5
5F2
  8
0
  6
CONTINUOUS
 10
-528.37438886317705
 20
174.75307750330069
 30
0.0
 11
-532.99378652573341
 21
174.75307750330069
 31
0.0
 12
-532.45185464742156
 22
173.94201913124709
 32
0.0
 13
-532.45185464742156
 23
173.94201913124709
 33
0.0
210
0.0
220
0.0
230
-1.0
  0
SOLID
  5
5F3
  8
0
  6
CONTINUOUS
 10
-529.7273791135425
 20
173.40008725293521
 30
0.0
 11
-531.64079627536785
 21
173.40008725293521
 31
0.0
 12
-530.68408769445523
 22
173.2097860842135
 32
0.0
 13
-530.68408769445523
 23
173.2097860842135
 33
0.0
210
0.0
220
0.0
230
-1.0
  0
SOLID
  5
5F4
  8
0
  6
CONTINUOUS
 10
528.9163207414889
 20
173.94201913124709
 30
0.0
 11
529.7273791135425
 21
173.40008725293521
 31
0.0
 12
531.64079627536785
 22
173.40008725293521
 32
0.0
 13
531.64079627536785
 23
173.40008725293521
 33
0.0
  0
SOLID
  5
5F5
  8
0
  6
CONTINUOUS
 10
-528.9163207414889
 20
173.94201913124709
 30
0.0
 11
-532.45185464742156
 21
173.94201913124709
 31
0.0
 12
-531.64079627536785
 22
173.40008725293521
 32
0.0
 13
-531.64079627536785
 23
173.40008725293521
 33
0.0
210
0.0
220
0.0
230
-1.0
  0
LINE
  5
5F6
  8
0
  6
CONTINUOUS
 10
530.68408769445523
 20
178.20978608421339
 30
0.0
 11
529.7273791135425
 21
178.01948491549169
 31
0.0
  0
LINE
  5
5F7
  8
0
  6
CONTINUOUS
 10
531.64079627536785
 20
178.01948491549169
 30
0.0
 11
530.68408769445523
 21
178.20978608421339
 31
0.0
  0
LINE
  5
5F8
  8
0
  6
CONTINUOUS
 10
529.7273791135425
 20
178.01948491549169
 30
0.0
 11
528.9163207414889
 21
177.4775530371798
 31
0.0
  0
LINE
  5
5F9
  8
0
  6
CONTINUOUS
 10
531.64079627536785
 20
178.01948491549169
 30
0.0
 11
532.45185464742156
 21
177.4775530371798
 31
0.0
  0
LINE
  5
5FA
  8
0
  6
CONTINUOUS
 10
528.9163207414889
 20
177.4775530371798
 30
0.0
 11
528.37438886317705
 21
176.66649466512621
 31
0.0
  0
LINE
  5
5FB
  8
0
  6
CONTINUOUS
 10
532.45185464742156
 20
177.4775530371798
 30
0.0
 11
532.99378652573341
 21
176.66649466512621
 31
0.0
  0
LINE
  5
5FC
  8
0
  6
CONTINUOUS
 10
528.37438886317705
 20
176.66649466512621
 30
0.0
 11
528.18408769445523
 21
175.7097860842135
 31
0.0
  0
LINE
  5
5FD
  8
0
  6
CONTINUOUS
 10
532.99378652573341
 20
176.66649466512621
 30
0.0
 11
533.18408769445523
 21
175.7097860842135
 31
0.0
  0
LINE
  5
5FE
  8
0
  6
CONTINUOUS
 10
528.18408769445523
 20
175.7097860842135
 30
0.0
 11
528.37438886317705
 21
174.75307750330069
 31
0.0
  0
LINE
  5
5FF
  8
0
  6
CONTINUOUS
 10
533.18408769445523
 20
175.7097860842135
 30
0.0
 11
532.99378652573341
 21
174.75307750330069
 31
0.0
  0
LINE
  5
600
  8
0
  6
CONTINUOUS
 10
528.37438886317705
 20
174.75307750330069
 30
0.0
 11
528.9163207414889
 21
173.94201913124709
 31
0.0
  0
LINE
  5
601
  8
0
  6
CONTINUOUS
 10
532.99378652573341
 20
174.75307750330069
 30
0.0
 11
532.45185464742156
 21
173.94201913124709
 31
0.0
  0
LINE
  5
602
  8
0
  6
CONTINUOUS
 10
531.64079627536785
 20
173.40008725293521
 30
0.0
 11
530.68408769445523
 21
173.2097860842135
 31
0.0
  0
LINE
  5
603
  8
0
  6
CONTINUOUS
 10
530.68408769445523
 20
173.2097860842135
 30
0.0
 11
529.7273791135425
 21
173.40008725293521
 31
0.0
  0
LINE
  5
604
  8
0
  6
CONTINUOUS
 10
528.9163207414889
 20
173.94201913124709
 30
0.0
 11
529.7273791135425
 21
173.40008725293521
 31
0.0
  0
LINE
  5
605
  8
0
  6
CONTINUOUS
 10
532.45185464742156
 20
173.94201913124709
 30
0.0
 11
531.64079627536785
 21
173.40008725293521
 31
0.0
  0
ENDBLK
  5
607
  8
0
  0
BLOCK
  8
0
  2
*U46
 70
     1
 10
0.0
 20
0.0
 30
0.0
  3
*U46
  1

  0
TEXT
  5
609
  8
0
 10
601.7238691397821
 20
170.0367091611366
 30
0.0
 40
12.2941616766467
  1
100 Barrel Trim
  7
ARIAL
  0
ENDBLK
  5
60B
  8
0
  0
BLOCK
  8
0
  2
*U47
 70
     1
 10
0.0
 20
0.0
 30
0.0
  3
*U47
  1

  0
SOLID
  5
60D
  8
0
  6
CONTINUOUS
 10
-45.833286125270391
 20
113.94669743943859
 30
0.0
 11
-46.789994706183123
 21
113.75639627071681
 31
0.0
 12
-44.876577544357673
 22
113.75639627071681
 32
0.0
 13
-44.876577544357673
 23
113.75639627071681
 33
0.0
210
0.0
220
0.0
230
1.0
  0
SOLID
  5
60E
  8
0
  6
CONTINUOUS
 10
-46.789994706183123
 20
113.75639627071681
 30
0.0
 11
-47.601053078236767
 21
113.21446439240501
 31
0.0
 12
-44.065519172304029
 22
113.21446439240501
 32
0.0
 13
-44.065519172304029
 23
113.21446439240501
 33
0.0
210
0.0
220
0.0
230
1.0
  0
SOLID
  5
60F
  8
0
  6
CONTINUOUS
 10
46.789994706183123
 20
113.75639627071681
 30
0.0
 11
44.876577544357673
 21
113.75639627071681
 31
0.0
 12
44.065519172304029
 22
113.21446439240501
 32
0.0
 13
44.065519172304029
 23
113.21446439240501
 33
0.0
210
0.0
220
0.0
230
-1.0
  0
SOLID
  5
610
  8
0
  6
CONTINUOUS
 10
-47.601053078236767
 20
113.21446439240501
 30
0.0
 11
-48.142984956548617
 21
112.4034060203513
 31
0.0
 12
-43.523587293992179
 22
112.4034060203513
 32
0.0
 13
-43.523587293992179
 23
112.4034060203513
 33
0.0
210
0.0
220
0.0
230
1.0
  0
SOLID
  5
611
  8
0
  6
CONTINUOUS
 10
47.601053078236767
 20
113.21446439240501
 30
0.0
 11
44.065519172304029
 21
113.21446439240501
 31
0.0
 12
43.523587293992179
 22
112.4034060203513
 32
0.0
 13
43.523587293992179
 23
112.4034060203513
 33
0.0
210
0.0
220
0.0
230
-1.0
  0
SOLID
  5
612
  8
0
  6
CONTINUOUS
 10
-48.142984956548617
 20
112.4034060203513
 30
0.0
 11
-48.333286125270398
 21
111.44669743943859
 31
0.0
 12
-43.333286125270391
 22
111.44669743943859
 32
0.0
 13
-43.333286125270391
 23
111.44669743943859
 33
0.0
210
0.0
220
0.0
230
1.0
  0
SOLID
  5
613
  8
0
  6
CONTINUOUS
 10
48.142984956548617
 20
112.4034060203513
 30
0.0
 11
43.523587293992179
 21
112.4034060203513
 31
0.0
 12
43.333286125270391
 22
111.44669743943859
 32
0.0
 13
43.333286125270391
 23
111.44669743943859
 33
0.0
210
0.0
220
0.0
230
-1.0
  0
SOLID
  5
614
  8
0
  6
CONTINUOUS
 10
-48.333286125270398
 20
111.44669743943859
 30
0.0
 11
-48.142984956548617
 21
110.4899888585259
 31
0.0
 12
-43.523587293992179
 22
110.4899888585259
 32
0.0
 13
-43.523587293992179
 23
110.4899888585259
 33
0.0
210
0.0
220
0.0
230
1.0
  0
SOLID
  5
615
  8
0
  6
CONTINUOUS
 10
48.333286125270398
 20
111.44669743943859
 30
0.0
 11
43.333286125270391
 21
111.44669743943859
 31
0.0
 12
43.523587293992179
 22
110.4899888585259
 32
0.0
 13
43.523587293992179
 23
110.4899888585259
 33
0.0
210
0.0
220
0.0
230
-1.0
  0
SOLID
  5
616
  8
0
  6
CONTINUOUS
 10
-48.142984956548617
 20
110.4899888585259
 30
0.0
 11
-47.601053078236767
 21
109.6789304864723
 31
0.0
 12
-44.065519172304029
 22
109.6789304864723
 32
0.0
 13
-44.065519172304029
 23
109.6789304864723
 33
0.0
210
0.0
220
0.0
230
1.0
  0
SOLID
  5
617
  8
0
  6
CONTINUOUS
 10
48.142984956548617
 20
110.4899888585259
 30
0.0
 11
43.523587293992179
 21
110.4899888585259
 31
0.0
 12
44.065519172304029
 22
109.6789304864723
 32
0.0
 13
44.065519172304029
 23
109.6789304864723
 33
0.0
210
0.0
220
0.0
230
-1.0
  0
SOLID
  5
618
  8
0
  6
CONTINUOUS
 10
46.789994706183123
 20
109.1369986081604
 30
0.0
 11
44.876577544357673
 21
109.1369986081604
 31
0.0
 12
45.833286125270391
 22
108.94669743943859
 32
0.0
 13
45.833286125270391
 23
108.94669743943859
 33
0.0
210
0.0
220
0.0
230
-1.0
  0
SOLID
  5
619
  8
0
  6
CONTINUOUS
 10
-47.601053078236767
 20
109.6789304864723
 30
0.0
 11
-46.789994706183123
 21
109.1369986081604
 31
0.0
 12
-44.876577544357673
 22
109.1369986081604
 32
0.0
 13
-44.876577544357673
 23
109.1369986081604
 33
0.0
210
0.0
220
0.0
230
1.0
  0
SOLID
  5
61A
  8
0
  6
CONTINUOUS
 10
47.601053078236767
 20
109.6789304864723
 30
0.0
 11
44.065519172304029
 21
109.6789304864723
 31
0.0
 12
44.876577544357673
 22
109.1369986081604
 32
0.0
 13
44.876577544357673
 23
109.1369986081604
 33
0.0
210
0.0
220
0.0
230
-1.0
  0
LINE
  5
61B
  8
0
  6
CONTINUOUS
 10
-45.833286125270391
 20
113.94669743943859
 30
0.0
 11
-46.789994706183123
 21
113.75639627071681
 31
0.0
  0
LINE
  5
61C
  8
0
  6
CONTINUOUS
 10
-44.876577544357673
 20
113.75639627071681
 30
0.0
 11
-45.833286125270391
 21
113.94669743943859
 31
0.0
  0
LINE
  5
61D
  8
0
  6
CONTINUOUS
 10
-46.789994706183123
 20
113.75639627071681
 30
0.0
 11
-47.601053078236767
 21
113.21446439240501
 31
0.0
  0
LINE
  5
61E
  8
0
  6
CONTINUOUS
 10
-44.876577544357673
 20
113.75639627071681
 30
0.0
 11
-44.065519172304029
 21
113.21446439240501
 31
0.0
  0
LINE
  5
61F
  8
0
  6
CONTINUOUS
 10
-47.601053078236767
 20
113.21446439240501
 30
0.0
 11
-48.142984956548617
 21
112.4034060203513
 31
0.0
  0
LINE
  5
620
  8
0
  6
CONTINUOUS
 10
-44.065519172304029
 20
113.21446439240501
 30
0.0
 11
-43.523587293992179
 21
112.4034060203513
 31
0.0
  0
LINE
  5
621
  8
0
  6
CONTINUOUS
 10
-48.142984956548617
 20
112.4034060203513
 30
0.0
 11
-48.333286125270398
 21
111.44669743943859
 31
0.0
  0
LINE
  5
622
  8
0
  6
CONTINUOUS
 10
-43.523587293992179
 20
112.4034060203513
 30
0.0
 11
-43.333286125270391
 21
111.44669743943859
 31
0.0
  0
LINE
  5
623
  8
0
  6
CONTINUOUS
 10
-48.333286125270398
 20
111.44669743943859
 30
0.0
 11
-48.142984956548617
 21
110.4899888585259
 31
0.0
  0
LINE
  5
624
  8
0
  6
CONTINUOUS
 10
-43.333286125270391
 20
111.44669743943859
 30
0.0
 11
-43.523587293992179
 21
110.4899888585259
 31
0.0
  0
LINE
  5
625
  8
0
  6
CONTINUOUS
 10
-48.142984956548617
 20
110.4899888585259
 30
0.0
 11
-47.601053078236767
 21
109.6789304864723
 31
0.0
  0
LINE
  5
626
  8
0
  6
CONTINUOUS
 10
-43.523587293992179
 20
110.4899888585259
 30
0.0
 11
-44.065519172304029
 21
109.6789304864723
 31
0.0
  0
LINE
  5
627
  8
0
  6
CONTINUOUS
 10
-44.876577544357673
 20
109.1369986081604
 30
0.0
 11
-45.833286125270391
 21
108.94669743943859
 31
0.0
  0
LINE
  5
628
  8
0
  6
CONTINUOUS
 10
-45.833286125270391
 20
108.94669743943859
 30
0.0
 11
-46.789994706183123
 21
109.1369986081604
 31
0.0
  0
LINE
  5
629
  8
0
  6
CONTINUOUS
 10
-47.601053078236767
 20
109.6789304864723
 30
0.0
 11
-46.789994706183123
 21
109.1369986081604
 31
0.0
  0
LINE
  5
62A
  8
0
  6
CONTINUOUS
 10
-44.065519172304029
 20
109.6789304864723
 30
0.0
 11
-44.876577544357673
 21
109.1369986081604
 31
0.0
  0
ENDBLK
  5
62C
  8
0
  0
BLOCK
  8
0
  2
*U48
 70
     1
 10
0.0
 20
0.0
 30
0.0
  3
*U48
  1

  0
TEXT
  5
62E
  8
0
 10
-367.44716722964699
 20
105.7736205163617
 30
0.0
 40
12.2941616766467
  1
1x4 counter batten
  7
ARIAL
  0
ENDBLK
  5
630
  8
0
  0
BLOCK
  8
0
  2
*U49
 70
     1
 10
0.0
 20
0.0
 30
0.0
  3
*U49
  1

  0
SOLID
  5
63C
  8
0
  6
CONTINUOUS
 10
469.42454974728219
 20
236.48607019776981
 30
0.0
 11
469.22286488978108
 21
236.46896046673149
 31
0.0
 12
474.5430649810055
 22
236.46896046673149
 32
0.0
 13
474.5430649810055
 23
236.46896046673149
 33
0.0
210
0.0
220
0.0
230
1.0
  0
SOLID
  5
63D
  8
0
  6
CONTINUOUS
 10
469.22286488978108
 20
236.46896046673149
 30
0.0
 11
464.32432567625239
 21
236.05339784362579
 31
0.0
 12
479.21249735267469
 22
236.05339784362579
 32
0.0
 13
479.21249735267469
 23
236.05339784362579
 33
0.0
210
0.0
220
0.0
230
1.0
  0
SOLID
  5
63E
  8
0
  6
CONTINUOUS
 10
-469.22286488978108
 20
236.46896046673149
 30
0.0
 11
-474.5430649810055
 21
236.46896046673149
 31
0.0
 12
-479.21249735267469
 22
236.05339784362579
 32
0.0
 13
-479.21249735267469
 23
236.05339784362579
 33
0.0
210
0.0
220
0.0
230
-1.0
  0
SOLID
  5
63F
  8
0
  6
CONTINUOUS
 10
464.32432567625239
 20
236.05339784362579
 30
0.0
 11
464.08229342736638
 21
236.0118386021004
 31
0.0
 12
479.67947406552412
 22
236.0118386021004
 32
0.0
 13
479.67947406552412
 23
236.0118386021004
 33
0.0
210
0.0
220
0.0
230
1.0
  0
SOLID
  5
640
  8
0
  6
CONTINUOUS
 10
-464.32432567625239
 20
236.05339784362579
 30
0.0
 11
-479.21249735267469
 21
236.05339784362579
 31
0.0
 12
-479.67947406552412
 22
236.0118386021004
 32
0.0
 13
-479.67947406552412
 23
236.0118386021004
 33
0.0
210
0.0
220
0.0
230
-1.0
  0
SOLID
  5
641
  8
0
  6
CONTINUOUS
 10
464.08229342736638
 20
236.0118386021004
 30
0.0
 11
461.02969245503442
 21
235.4876779513032
 31
0.0
 12
482.65824254831142
 22
235.4876779513032
 32
0.0
 13
482.65824254831142
 23
235.4876779513032
 33
0.0
210
0.0
220
0.0
230
1.0
  0
SOLID
  5
642
  8
0
  6
CONTINUOUS
 10
-464.08229342736638
 20
236.0118386021004
 30
0.0
 11
-479.67947406552412
 21
236.0118386021004
 31
0.0
 12
-482.65824254831142
 22
235.4876779513032
 32
0.0
 13
-482.65824254831142
 23
235.4876779513032
 33
0.0
210
0.0
220
0.0
230
-1.0
  0
SOLID
  5
643
  8
0
  6
CONTINUOUS
 10
469.48448810065003
 20
235.4876779513032
 30
0.0
 11
474.51803597356201
 21
235.4691408651141
 31
0.0
 12
482.7635875184435
 22
235.4691408651141
 32
0.0
 13
482.7635875184435
 23
235.4691408651141
 33
0.0
210
0.0
220
0.0
230
1.0
  0
SOLID
  5
644
  8
0
  6
CONTINUOUS
 10
-469.48448810065003
 20
235.4876779513032
 30
0.0
 11
-482.65824254831142
 21
235.4876779513032
 31
0.0
 12
-482.7635875184435
 22
235.4691408651141
 32
0.0
 13
-482.7635875184435
 23
235.4691408651141
 33
0.0
210
0.0
220
0.0
230
-1.0
  0
SOLID
  5
645
  8
0
  6
CONTINUOUS
 10
461.02969245503442
 20
235.4876779513032
 30
0.0
 11
459.24199545601761
 21
235.180713355889
 31
0.0
 12
465.8522495237728
 22
235.180713355889
 32
0.0
 13
465.8522495237728
 23
235.180713355889
 33
0.0
210
0.0
220
0.0
230
1.0
  0
SOLID
  5
646
  8
0
  6
CONTINUOUS
 10
-461.02969245503442
 20
235.4876779513032
 30
0.0
 11
-469.48448810065003
 21
235.4876779513032
 31
0.0
 12
-465.8522495237728
 22
235.180713355889
 32
0.0
 13
-465.8522495237728
 23
235.180713355889
 33
0.0
210
0.0
220
0.0
230
-1.0
  0
SOLID
  5
647
  8
0
  6
CONTINUOUS
 10
474.51803597356201
 20
235.4691408651141
 30
0.0
 11
478.3718006922486
 21
235.12477988697279
 31
0.0
 12
484.72056698042542
 22
235.12477988697279
 32
0.0
 13
484.72056698042542
 23
235.12477988697279
 33
0.0
210
0.0
220
0.0
230
1.0
  0
SOLID
  5
648
  8
0
  6
CONTINUOUS
 10
-474.51803597356201
 20
235.4691408651141
 30
0.0
 11
-482.7635875184435
 21
235.4691408651141
 31
0.0
 12
-484.72056698042542
 22
235.12477988697279
 32
0.0
 13
-484.72056698042542
 23
235.12477988697279
 33
0.0
210
0.0
220
0.0
230
-1.0
  0
SOLID
  5
649
  8
0
  6
CONTINUOUS
 10
459.24199545601761
 20
235.180713355889
 30
0.0
 11
458.79433845821251
 21
235.06379525555181
 31
0.0
 12
464.4687856301374
 22
235.06379525555181
 32
0.0
 13
464.4687856301374
 23
235.06379525555181
 33
0.0
210
0.0
220
0.0
230
1.0
  0
SOLID
  5
64A
  8
0
  6
CONTINUOUS
 10
-459.24199545601761
 20
235.180713355889
 30
0.0
 11
-465.8522495237728
 21
235.180713355889
 31
0.0
 12
-464.4687856301374
 22
235.06379525555181
 32
0.0
 13
-464.4687856301374
 23
235.06379525555181
 33
0.0
210
0.0
220
0.0
230
-1.0
  0
SOLID
  5
64B
  8
0
  6
CONTINUOUS
 10
478.3718006922486
 20
235.12477988697279
 30
0.0
 11
479.56904145915013
 21
235.01779800518801
 31
0.0
 12
485.11925934388358
 22
235.01779800518801
 32
0.0
 13
485.11925934388358
 23
235.01779800518801
 33
0.0
210
0.0
220
0.0
230
1.0
  0
SOLID
  5
64C
  8
0
  6
CONTINUOUS
 10
-478.3718006922486
 20
235.12477988697279
 30
0.0
 11
-484.72056698042542
 21
235.12477988697279
 31
0.0
 12
-485.11925934388358
 22
235.01779800518801
 32
0.0
 13
-485.11925934388358
 23
235.01779800518801
 33
0.0
210
0.0
220
0.0
230
-1.0
  0
SOLID
  5
64D
  8
0
  6
CONTINUOUS
 10
458.79433845821251
 20
235.06379525555181
 30
0.0
 11
455.5142425004484
 21
234.20710678606329
 31
0.0
 12
459.47054077230098
 22
234.20710678606329
 32
0.0
 13
459.47054077230098
 23
234.20710678606329
 33
0.0
  0
SOLID
  5
64E
  8
0
  6
CONTINUOUS
 10
-458.79433845821251
 20
235.06379525555181
 30
0.0
 11
-464.4687856301374
 21
235.06379525555181
 31
0.0
 12
-459.47054077230098
 22
234.20710678606329
 32
0.0
 13
-459.47054077230098
 23
234.20710678606329
 33
0.0
210
0.0
220
0.0
230
-1.0
  0
SOLID
  5
64F
  8
0
  6
CONTINUOUS
 10
479.56904145915013
 20
235.01779800518801
 30
0.0
 11
484.52613014210129
 21
234.14360145874261
 31
0.0
 12
488.37715200210522
 22
234.14360145874261
 32
0.0
 13
488.37715200210522
 23
234.14360145874261
 33
0.0
210
0.0
220
0.0
230
1.0
  0
SOLID
  5
650
  8
0
  6
CONTINUOUS
 10
-479.56904145915013
 20
235.01779800518801
 30
0.0
 11
-485.11925934388358
 21
235.01779800518801
 31
0.0
 12
-488.37715200210522
 22
234.14360145874261
 32
0.0
 13
-488.37715200210522
 23
234.14360145874261
 33
0.0
210
0.0
220
0.0
230
-1.0
  0
SOLID
  5
651
  8
0
  6
CONTINUOUS
 10
455.5142425004484
 20
234.20710678606329
 30
0.0
 11
454.28957717129589
 21
233.8872513062307
 31
0.0
 12
458.24444663737069
 22
233.8872513062307
 32
0.0
 13
458.24444663737069
 23
233.8872513062307
 33
0.0
210
0.0
220
0.0
230
1.0
  0
SOLID
  5
652
  8
0
  6
CONTINUOUS
 10
-455.5142425004484
 20
234.20710678606329
 30
0.0
 11
-459.47054077230098
 21
234.20710678606329
 31
0.0
 12
-458.24444663737069
 22
233.8872513062307
 32
0.0
 13
-458.24444663737069
 23
233.8872513062307
 33
0.0
210
0.0
220
0.0
230
-1.0
  0
SOLID
  5
653
  8
0
  6
CONTINUOUS
 10
484.52613014210129
 20
234.14360145874261
 30
0.0
 11
485.81117721749638
 21
233.7982380795633
 31
0.0
 12
489.66422734233822
 22
233.7982380795633
 32
0.0
 13
489.66422734233822
 23
233.7982380795633
 33
0.0
210
0.0
220
0.0
230
1.0
  0
SOLID
  5
654
  8
0
  6
CONTINUOUS
 10
-484.52613014210129
 20
234.14360145874261
 30
0.0
 11
-488.37715200210522
 21
234.14360145874261
 31
0.0
 12
-489.66422734233822
 22
233.7982380795633
 32
0.0
 13
-489.66422734233822
 23
233.7982380795633
 33
0.0
210
0.0
220
0.0
230
-1.0
  0
SOLID
  5
655
  8
0
  6
CONTINUOUS
 10
454.28957717129589
 20
233.8872513062307
 30
0.0
 11
451.66361008238567
 21
232.9365024802307
 31
0.0
 12
454.59996457328072
 22
232.9365024802307
 32
0.0
 13
454.59996457328072
 23
232.9365024802307
 33
0.0
210
0.0
220
0.0
230
1.0
  0
SOLID
  5
656
  8
0
  6
CONTINUOUS
 10
-454.28957717129589
 20
233.8872513062307
 30
0.0
 11
-458.24444663737069
 21
233.8872513062307
 31
0.0
 12
-454.59996457328072
 22
232.9365024802307
 32
0.0
 13
-454.59996457328072
 23
232.9365024802307
 33
0.0
210
0.0
220
0.0
230
-1.0
  0
SOLID
  5
657
  8
0
  6
CONTINUOUS
 10
485.81117721749638
 20
233.7982380795633
 30
0.0
 11
489.38721582817931
 21
232.83715828543879
 31
0.0
 12
492.31706096328958
 22
232.83715828543879
 32
0.0
 13
492.31706096328958
 23
232.83715828543879
 33
0.0
210
0.0
220
0.0
230
1.0
  0
SOLID
  5
658
  8
0
  6
CONTINUOUS
 10
-485.81117721749638
 20
233.7982380795633
 30
0.0
 11
-489.66422734233822
 21
233.7982380795633
 31
0.0
 12
-492.31706096328958
 22
232.83715828543879
 32
0.0
 13
-492.31706096328958
 23
232.83715828543879
 33
0.0
210
0.0
220
0.0
230
-1.0
  0
SOLID
  5
659
  8
0
  6
CONTINUOUS
 10
489.38721582817931
 20
232.83715828543879
 30
0.0
 11
491.52711945235438
 21
232.06090539654619
 31
0.0
 12
494.45972359609482
 22
232.06090539654619
 32
0.0
 13
494.45972359609482
 23
232.06090539654619
 33
0.0
210
0.0
220
0.0
230
1.0
  0
SOLID
  5
65A
  8
0
  6
CONTINUOUS
 10
-489.38721582817931
 20
232.83715828543879
 30
0.0
 11
-492.31706096328958
 21
232.83715828543879
 31
0.0
 12
-494.45972359609482
 22
232.06090539654619
 32
0.0
 13
-494.45972359609482
 23
232.06090539654619
 33
0.0
210
0.0
220
0.0
230
-1.0
  0
SOLID
  5
65B
  8
0
  6
CONTINUOUS
 10
451.66361008238567
 20
232.9365024802307
 30
0.0
 11
449.24521201338717
 21
232.06090539654619
 31
0.0
 12
452.14949681799209
 22
232.06090539654619
 32
0.0
 13
452.14949681799209
 23
232.06090539654619
 33
0.0
210
0.0
220
0.0
230
1.0
  0
SOLID
  5
65C
  8
0
  6
CONTINUOUS
 10
-451.66361008238567
 20
232.9365024802307
 30
0.0
 11
-454.59996457328072
 21
232.9365024802307
 31
0.0
 12
-452.14949681799209
 22
232.06090539654619
 32
0.0
 13
-452.14949681799209
 23
232.06090539654619
 33
0.0
210
0.0
220
0.0
230
-1.0
  0
SOLID
  5
65D
  8
0
  6
CONTINUOUS
 10
449.24521201338717
 20
232.06090539654619
 30
0.0
 11
447.45599124268722
 21
231.24278793611279
 31
0.0
 12
449.8598929645911
 22
231.24278793611279
 32
0.0
 13
449.8598929645911
 23
231.24278793611279
 33
0.0
  0
SOLID
  5
65E
  8
0
  6
CONTINUOUS
 10
-449.24521201338717
 20
232.06090539654619
 30
0.0
 11
-452.14949681799209
 21
232.06090539654619
 31
0.0
 12
-449.8598929645911
 22
231.24278793611279
 32
0.0
 13
-449.8598929645911
 23
231.24278793611279
 33
0.0
210
0.0
220
0.0
230
-1.0
  0
SOLID
  5
65F
  8
0
  6
CONTINUOUS
 10
491.52711945235438
 20
232.06090539654619
 30
0.0
 11
494.15438471162059
 21
231.10786142561571
 31
0.0
 12
496.52649020228949
 22
231.10786142561571
 32
0.0
 13
496.52649020228949
 23
231.10786142561571
 33
0.0
210
0.0
220
0.0
230
1.0
  0
SOLID
  5
660
  8
0
  6
CONTINUOUS
 10
-491.52711945235438
 20
232.06090539654619
 30
0.0
 11
-494.45972359609482
 21
232.06090539654619
 31
0.0
 12
-496.52649020228949
 22
231.10786142561571
 32
0.0
 13
-496.52649020228949
 23
231.10786142561571
 33
0.0
210
0.0
220
0.0
230
-1.0
  0
SOLID
  5
661
  8
0
  6
CONTINUOUS
 10
447.45599124268722
 20
231.24278793611279
 30
0.0
 11
444.78024549166821
 21
230.01930878002599
 31
0.0
 12
447.18239366444988
 22
230.01930878002599
 32
0.0
 13
447.18239366444988
 23
230.01930878002599
 33
0.0
210
0.0
220
0.0
230
1.0
  0
SOLID
  5
662
  8
0
  6
CONTINUOUS
 10
-447.45599124268722
 20
231.24278793611279
 30
0.0
 11
-449.8598929645911
 21
231.24278793611279
 31
0.0
 12
-447.18239366444988
 22
230.01930878002599
 32
0.0
 13
-447.18239366444988
 23
230.01930878002599
 33
0.0
210
0.0
220
0.0
230
-1.0
  0
SOLID
  5
663
  8
0
  6
CONTINUOUS
 10
494.15438471162059
 20
231.10786142561571
 30
0.0
 11
496.77726469080659
 21
229.89405792170791
 31
0.0
 12
499.15873868701539
 22
229.89405792170791
 32
0.0
 13
499.15873868701539
 23
229.89405792170791
 33
0.0
210
0.0
220
0.0
230
1.0
  0
SOLID
  5
664
  8
0
  6
CONTINUOUS
 10
-494.15438471162059
 20
231.10786142561571
 30
0.0
 11
-496.52649020228949
 21
231.10786142561571
 31
0.0
 12
-499.15873868701539
 22
229.89405792170791
 32
0.0
 13
-499.15873868701539
 23
229.89405792170791
 33
0.0
210
0.0
220
0.0
230
-1.0
  0
SOLID
  5
665
  8
0
  6
CONTINUOUS
 10
444.78024549166821
 20
230.01930878002599
 30
0.0
 11
443.21536954734012
 21
229.13515755565089
 31
0.0
 12
445.24749001471793
 22
229.13515755565089
 32
0.0
 13
445.24749001471793
 23
229.13515755565089
 33
0.0
210
0.0
220
0.0
230
1.0
  0
SOLID
  5
666
  8
0
  6
CONTINUOUS
 10
-444.78024549166821
 20
230.01930878002599
 30
0.0
 11
-447.18239366444988
 21
230.01930878002599
 31
0.0
 12
-445.24749001471793
 22
229.13515755565089
 32
0.0
 13
-445.24749001471793
 23
229.13515755565089
 33
0.0
210
0.0
220
0.0
230
-1.0
  0
SOLID
  5
667
  8
0
  6
CONTINUOUS
 10
496.77726469080659
 20
229.89405792170791
 30
0.0
 11
498.72252095982458
 21
228.9938417875081
 31
0.0
 12
500.72746737447147
 22
228.9938417875081
 32
0.0
 13
500.72746737447147
 23
228.9938417875081
 33
0.0
  0
SOLID
  5
668
  8
0
  6
CONTINUOUS
 10
-496.77726469080659
 20
229.89405792170791
 30
0.0
 11
-499.15873868701539
 21
229.89405792170791
 31
0.0
 12
-500.72746737447147
 22
228.9938417875081
 32
0.0
 13
-500.72746737447147
 23
228.9938417875081
 33
0.0
210
0.0
220
0.0
230
-1.0
  0
SOLID
  5
669
  8
0
  6
CONTINUOUS
 10
443.21536954734012
 20
229.13515755565089
 30
0.0
 11
440.32381201492541
 21
227.50143435739881
 31
0.0
 12
442.35437968022762
 22
227.50143435739881
 32
0.0
 13
442.35437968022762
 23
227.50143435739881
 33
0.0
210
0.0
220
0.0
230
1.0
  0
SOLID
  5
66A
  8
0
  6
CONTINUOUS
 10
-443.21536954734012
 20
229.13515755565089
 30
0.0
 11
-445.24749001471793
 21
229.13515755565089
 31
0.0
 12
-442.35437968022762
 22
227.50143435739881
 32
0.0
 13
-442.35437968022762
 23
227.50143435739881
 33
0.0
210
0.0
220
0.0
230
-1.0
  0
SOLID
  5
66B
  8
0
  6
CONTINUOUS
 10
498.72252095982458
 20
228.9938417875081
 30
0.0
 11
501.59030256757188
 21
227.34644693692559
 31
0.0
 12
503.59823969624688
 22
227.34644693692559
 32
0.0
 13
503.59823969624688
 23
227.34644693692559
 33
0.0
  0
SOLID
  5
66C
  8
0
  6
CONTINUOUS
 10
-498.72252095982458
 20
228.9938417875081
 30
0.0
 11
-500.72746737447147
 21
228.9938417875081
 31
0.0
 12
-503.59823969624688
 22
227.34644693692559
 32
0.0
 13
-503.59823969624688
 23
227.34644693692559
 33
0.0
210
0.0
220
0.0
230
-1.0
  0
SOLID
  5
66D
  8
0
  6
CONTINUOUS
 10
440.32381201492541
 20
227.50143435739881
 30
0.0
 11
439.09995557108942
 21
226.66008448206119
 31
0.0
 12
440.86445897525999
 22
226.66008448206119
 32
0.0
 13
440.86445897525999
 23
226.66008448206119
 33
0.0
  0
SOLID
  5
66E
  8
0
  6
CONTINUOUS
 10
-440.32381201492541
 20
227.50143435739881
 30
0.0
 11
-442.35437968022762
 21
227.50143435739881
 31
0.0
 12
-440.86445897525999
 22
226.66008448206119
 32
0.0
 13
-440.86445897525999
 23
226.66008448206119
 33
0.0
210
0.0
220
0.0
230
-1.0
  0
SOLID
  5
66F
  8
0
  6
CONTINUOUS
 10
501.59030256757188
 20
227.34644693692559
 30
0.0
 11
503.08720341784408
 21
226.48655344088351
 31
0.0
 12
504.83806730697461
 22
226.48655344088351
 32
0.0
 13
504.83806730697461
 23
226.48655344088351
 33
0.0
210
0.0
220
0.0
230
1.0
  0
SOLID
  5
670
  8
0
  6
CONTINUOUS
 10
-501.59030256757188
 20
227.34644693692559
 30
0.0
 11
-503.59823969624688
 21
227.34644693692559
 31
0.0
 12
-504.83806730697461
 22
226.48655344088351
 32
0.0
 13
-504.83806730697461
 23
226.48655344088351
 33
0.0
210
0.0
220
0.0
230
-1.0
  0
SOLID
  5
671
  8
0
  6
CONTINUOUS
 10
439.09995557108942
 20
226.66008448206119
 30
0.0
 11
436.1058345613194
 21
224.60175210900931
 31
0.0
 12
437.86898768211762
 22
224.60175210900931
 32
0.0
 13
437.86898768211762
 23
224.60175210900931
 33
0.0
210
0.0
220
0.0
230
1.0
  0
SOLID
  5
672
  8
0
  6
CONTINUOUS
 10
-439.09995557108942
 20
226.66008448206119
 30
0.0
 11
-440.86445897525999
 21
226.66008448206119
 31
0.0
 12
-437.86898768211762
 22
224.60175210900931
 32
0.0
 13
-437.86898768211762
 23
224.60175210900931
 33
0.0
210
0.0
220
0.0
230
-1.0
  0
SOLID
  5
673
  8
0
  6
CONTINUOUS
 10
503.08720341784408
 20
226.48655344088351
 30
0.0
 11
506.08170691263132
 21
224.4076131100997
 31
0.0
 12
507.83556366556428
 22
224.4076131100997
 32
0.0
 13
507.83556366556428
 23
224.4076131100997
 33
0.0
210
0.0
220
0.0
230
1.0
  0
SOLID
  5
674
  8
0
  6
CONTINUOUS
 10
-503.08720341784408
 20
226.48655344088351
 30
0.0
 11
-504.83806730697461
 21
226.48655344088351
 31
0.0
 12
-507.83556366556428
 22
224.4076131100997
 32
0.0
 13
-507.83556366556428
 23
224.4076131100997
 33
0.0
210
0.0
220
0.0
230
-1.0
  0
SOLID
  5
675
  8
0
  6
CONTINUOUS
 10
436.1058345613194
 20
224.60175210900931
 30
0.0
 11
435.14125460384003
 21
223.8094066313781
 31
0.0
 12
436.71589493404178
 22
223.8094066313781
 32
0.0
 13
436.71589493404178
 23
223.8094066313781
 33
0.0
210
0.0
220
0.0
230
1.0
  0
SOLID
  5
676
  8
0
  6
CONTINUOUS
 10
-436.1058345613194
 20
224.60175210900931
 30
0.0
 11
-437.86898768211762
 21
224.60175210900931
 31
0.0
 12
-436.71589493404178
 22
223.8094066313781
 32
0.0
 13
-436.71589493404178
 23
223.8094066313781
 33
0.0
210
0.0
220
0.0
230
-1.0
  0
SOLID
  5
677
  8
0
  6
CONTINUOUS
 10
506.08170691263132
 20
224.4076131100997
 30
0.0
 11
507.25285324062639
 21
223.59454231597419
 31
0.0
 12
508.8170788373958
 22
223.59454231597419
 32
0.0
 13
508.8170788373958
 23
223.59454231597419
 33
0.0
210
0.0
220
0.0
230
1.0
  0
SOLID
  5
678
  8
0
  6
CONTINUOUS
 10
-506.08170691263132
 20
224.4076131100997
 30
0.0
 11
-507.83556366556428
 21
224.4076131100997
 31
0.0
 12
-508.8170788373958
 22
223.59454231597419
 32
0.0
 13
-508.8170788373958
 23
223.59454231597419
 33
0.0
210
0.0
220
0.0
230
-1.0
  0
SOLID
  5
679
  8
0
  6
CONTINUOUS
 10
435.14125460384003
 20
223.8094066313781
 30
0.0
 11
432.12113350302849
 21
221.32855548205549
 31
0.0
 12
433.69458725779032
 22
221.32855548205549
 32
0.0
 13
433.69458725779032
 23
221.32855548205549
 33
0.0
210
0.0
220
0.0
230
1.0
  0
SOLID
  5
67A
  8
0
  6
CONTINUOUS
 10
-435.14125460384003
 20
223.8094066313781
 30
0.0
 11
-436.71589493404178
 21
223.8094066313781
 31
0.0
 12
-433.69458725779032
 22
221.32855548205549
 32
0.0
 13
-433.69458725779032
 23
221.32855548205549
 33
0.0
210
0.0
220
0.0
230
-1.0
  0
SOLID
  5
67B
  8
0
  6
CONTINUOUS
 10
507.25285324062639
 20
223.59454231597419
 30
0.0
 11
510.21016648358562
 21
221.1423303780503
 31
0.0
 12
511.77731703437553
 22
221.1423303780503
 32
0.0
 13
511.77731703437553
 23
221.1423303780503
 33
0.0
  0
SOLID
  5
67C
  8
0
  6
CONTINUOUS
 10
-507.25285324062639
 20
223.59454231597419
 30
0.0
 11
-508.8170788373958
 21
223.59454231597419
 31
0.0
 12
-511.77731703437553
 22
221.1423303780503
 32
0.0
 13
-511.77731703437553
 23
221.1423303780503
 33
0.0
210
0.0
220
0.0
230
-1.0
  0
SOLID
  5
67D
  8
0
  6
CONTINUOUS
 10
432.12113350302849
 20
221.32855548205549
 30
0.0
 11
431.36550096987872
 21
220.5912860875672
 31
0.0
 12
432.79670280323882
 22
220.5912860875672
 32
0.0
 13
432.79670280323882
 23
220.5912860875672
 33
0.0
210
0.0
220
0.0
230
1.0
  0
SOLID
  5
67E
  8
0
  6
CONTINUOUS
 10
-432.12113350302849
 20
221.32855548205549
 30
0.0
 11
-433.69458725779032
 21
221.32855548205549
 31
0.0
 12
-432.79670280323882
 22
220.5912860875672
 32
0.0
 13
-432.79670280323882
 23
220.5912860875672
 33
0.0
210
0.0
220
0.0
230
-1.0
  0
SOLID
  5
67F
  8
0
  6
CONTINUOUS
 10
510.21016648358562
 20
221.1423303780503
 30
0.0
 11
511.12761806041419
 21
220.38157711171229
 31
0.0
 12
512.54666077673778
 22
220.38157711171229
 32
0.0
 13
512.54666077673778
 23
220.38157711171229
 33
0.0
210
0.0
220
0.0
230
1.0
  0
SOLID
  5
680
  8
0
  6
CONTINUOUS
 10
-510.21016648358562
 20
221.1423303780503
 30
0.0
 11
-511.77731703437553
 21
221.1423303780503
 31
0.0
 12
-512.54666077673778
 22
220.38157711171229
 32
0.0
 13
-512.54666077673778
 23
220.38157711171229
 33
0.0
210
0.0
220
0.0
230
-1.0
  0
SOLID
  5
681
  8
0
  6
CONTINUOUS
 10
511.12761806041419
 20
220.38157711171229
 30
0.0
 11
513.59370274319076
 21
217.89968444552699
 31
0.0
 12
515.05657913849006
 22
217.89968444552699
 32
0.0
 13
515.05657913849006
 23
217.89968444552699
 33
0.0
  0
SOLID
  5
682
  8
0
  6
CONTINUOUS
 10
-511.12761806041419
 20
220.38157711171229
 30
0.0
 11
-512.54666077673778
 21
220.38157711171229
 31
0.0
 12
-515.05657913849006
 22
217.89968444552699
 32
0.0
 13
-515.05657913849006
 23
217.89968444552699
 33
0.0
210
0.0
220
0.0
230
-1.0
  0
SOLID
  5
683
  8
0
  6
CONTINUOUS
 10
431.36550096987872
 20
220.5912860875672
 30
0.0
 11
428.45753441638811
 21
217.75398800148909
 31
0.0
 12
429.88771882749052
 22
217.75398800148909
 32
0.0
 13
429.88771882749052
 23
217.75398800148909
 33
0.0
210
0.0
220
0.0
230
1.0
  0
SOLID
  5
684
  8
0
  6
CONTINUOUS
 10
-431.36550096987872
 20
220.5912860875672
 30
0.0
 11
-432.79670280323882
 21
220.5912860875672
 31
0.0
 12
-429.88771882749052
 22
217.75398800148909
 32
0.0
 13
-429.88771882749052
 23
217.75398800148909
 33
0.0
210
0.0
220
0.0
230
-1.0
  0
SOLID
  5
685
  8
0
  6
CONTINUOUS
 10
428.45753441638811
 20
217.75398800148909
 30
0.0
 11
427.87569592019139
 21
217.07668224574189
 31
0.0
 12
429.19330057097437
 22
217.07668224574189
 32
0.0
 13
429.19330057097437
 23
217.07668224574189
 33
0.0
210
0.0
220
0.0
230
1.0
  0
SOLID
  5
686
  8
0
  6
CONTINUOUS
 10
-428.45753441638811
 20
217.75398800148909
 30
0.0
 11
-429.88771882749052
 21
217.75398800148909
 31
0.0
 12
-429.19330057097437
 22
217.07668224574189
 32
0.0
 13
-429.19330057097437
 23
217.07668224574189
 33
0.0
210
0.0
220
0.0
230
-1.0
  0
SOLID
  5
687
  8
0
  6
CONTINUOUS
 10
513.59370274319076
 20
217.89968444552699
 30
0.0
 11
515.05657913849018
 21
216.4274307867673
 31
0.0
 12
516.33031311523348
 22
216.4274307867673
 32
0.0
 13
516.33031311523348
 23
216.4274307867673
 33
0.0
210
0.0
220
0.0
230
1.0
  0
SOLID
  5
688
  8
0
  6
CONTINUOUS
 10
-513.59370274319076
 20
217.89968444552699
 30
0.0
 11
-515.05657913849006
 21
217.89968444552699
 31
0.0
 12
-516.33031311523348
 22
216.4274307867673
 32
0.0
 13
-516.33031311523348
 23
216.4274307867673
 33
0.0
210
0.0
220
0.0
230
-1.0
  0
SOLID
  5
689
  8
0
  6
CONTINUOUS
 10
427.87569592019139
 20
217.07668224574189
 30
0.0
 11
425.122166992784
 21
213.87135808218019
 31
0.0
 12
426.43890571546501
 22
213.87135808218019
 32
0.0
 13
426.43890571546501
 23
213.87135808218019
 33
0.0
  0
SOLID
  5
68A
  8
0
  6
CONTINUOUS
 10
-427.87569592019139
 20
217.07668224574189
 30
0.0
 11
-429.19330057097437
 21
217.07668224574189
 31
0.0
 12
-426.43890571546501
 22
213.87135808218019
 32
0.0
 13
-426.43890571546501
 23
213.87135808218019
 33
0.0
210
0.0
220
0.0
230
-1.0
  0
SOLID
  5
68B
  8
0
  6
CONTINUOUS
 10
515.05657913849018
 20
216.4274307867673
 30
0.0
 11
517.44744906490394
 21
213.61792137077609
 31
0.0
 12
518.76098637580685
 22
213.61792137077609
 32
0.0
 13
518.76098637580685
 23
213.61792137077609
 33
0.0
210
0.0
220
0.0
230
1.0
  0
SOLID
  5
68C
  8
0
  6
CONTINUOUS
 10
-515.05657913849018
 20
216.4274307867673
 30
0.0
 11
-516.33031311523348
 21
216.4274307867673
 31
0.0
 12
-518.76098637580685
 22
213.61792137077609
 32
0.0
 13
-518.76098637580685
 23
213.61792137077609
 33
0.0
210
0.0
220
0.0
230
-1.0
  0
SOLID
  5
68D
  8
0
  6
CONTINUOUS
 10
425.122166992784
 20
213.87135808218019
 30
0.0
 11
424.68101461148967
 21
213.25900925831809
 31
0.0
 12
425.91270294652298
 22
213.25900925831809
 32
0.0
 13
425.91270294652298
 23
213.25900925831809
 33
0.0
210
0.0
220
0.0
230
1.0
  0
SOLID
  5
68E
  8
0
  6
CONTINUOUS
 10
-425.122166992784
 20
213.87135808218019
 30
0.0
 11
-426.43890571546501
 21
213.87135808218019
 31
0.0
 12
-425.91270294652298
 22
213.25900925831809
 32
0.0
 13
-425.91270294652298
 23
213.25900925831809
 33
0.0
210
0.0
220
0.0
230
-1.0
  0
SOLID
  5
68F
  8
0
  6
CONTINUOUS
 10
517.44744906490394
 20
213.61792137077609
 30
0.0
 11
517.99156970811191
 21
212.97852562045131
 31
0.0
 12
519.21762354524867
 22
212.97852562045131
 32
0.0
 13
519.21762354524867
 23
212.97852562045131
 33
0.0
  0
SOLID
  5
690
  8
0
  6
CONTINUOUS
 10
-517.44744906490394
 20
213.61792137077609
 30
0.0
 11
-518.76098637580685
 21
213.61792137077609
 31
0.0
 12
-519.21762354524867
 22
212.97852562045131
 32
0.0
 13
-519.21762354524867
 23
212.97852562045131
 33
0.0
210
0.0
220
0.0
230
-1.0
  0
SOLID
  5
691
  8
0
  6
CONTINUOUS
 10
424.68101461148967
 20
213.25900925831809
 30
0.0
 11
422.10790154083082
 21
209.6873573092586
 31
0.0
 12
423.33884319055687
 22
209.6873573092586
 32
0.0
 13
423.33884319055687
 23
209.6873573092586
 33
0.0
210
0.0
220
0.0
230
1.0
  0
SOLID
  5
692
  8
0
  6
CONTINUOUS
 10
-424.68101461148967
 20
213.25900925831809
 30
0.0
 11
-425.91270294652298
 21
213.25900925831809
 31
0.0
 12
-423.33884319055687
 22
209.6873573092586
 32
0.0
 13
-423.33884319055687
 23
209.6873573092586
 33
0.0
210
0.0
220
0.0
230
-1.0
  0
SOLID
  5
693
  8
0
  6
CONTINUOUS
 10
517.99156970811191
 20
212.97852562045131
 30
0.0
 11
520.50682815979496
 21
209.45256268738149
 31
0.0
 12
521.7357599771791
 22
209.45256268738149
 32
0.0
 13
521.7357599771791
 23
209.45256268738149
 33
0.0
210
0.0
220
0.0
230
1.0
  0
SOLID
  5
694
  8
0
  6
CONTINUOUS
 10
-517.99156970811191
 20
212.97852562045131
 30
0.0
 11
-519.21762354524867
 21
212.97852562045131
 31
0.0
 12
-521.7357599771791
 22
209.45256268738149
 32
0.0
 13
-521.7357599771791
 23
209.45256268738149
 33
0.0
210
0.0
220
0.0
230
-1.0
  0
SOLID
  5
695
  8
0
  6
CONTINUOUS
 10
422.10790154083082
 20
209.6873573092586
 30
0.0
 11
421.78353071563538
 21
209.14485297287979
 31
0.0
 12
422.94789522060978
 22
209.14485297287979
 32
0.0
 13
422.94789522060978
 23
209.14485297287979
 33
0.0
210
0.0
220
0.0
230
1.0
  0
SOLID
  5
696
  8
0
  6
CONTINUOUS
 10
-422.10790154083082
 20
209.6873573092586
 30
0.0
 11
-423.33884319055687
 21
209.6873573092586
 31
0.0
 12
-422.94789522060978
 22
209.14485297287979
 32
0.0
 13
-422.94789522060978
 23
209.14485297287979
 33
0.0
210
0.0
220
0.0
230
-1.0
  0
SOLID
  5
697
  8
0
  6
CONTINUOUS
 10
520.50682815979496
 20
209.45256268738149
 30
0.0
 11
520.91475013405102
 21
208.8807257217413
 31
0.0
 12
522.07250009928464
 22
208.8807257217413
 32
0.0
 13
522.07250009928464
 23
208.8807257217413
 33
0.0
210
0.0
220
0.0
230
1.0
  0
SOLID
  5
698
  8
0
  6
CONTINUOUS
 10
-520.50682815979496
 20
209.45256268738149
 30
0.0
 11
-521.7357599771791
 21
209.45256268738149
 31
0.0
 12
-522.07250009928464
 22
208.8807257217413
 32
0.0
 13
-522.07250009928464
 23
208.8807257217413
 33
0.0
210
0.0
220
0.0
230
-1.0
  0
SOLID
  5
699
  8
0
  6
CONTINUOUS
 10
421.78353071563538
 20
209.14485297287979
 30
0.0
 11
419.48117456270882
 21
205.29420396306639
 31
0.0
 12
420.64491276010438
 22
205.29420396306639
 32
0.0
 13
420.64491276010438
 23
205.29420396306639
 33
0.0
210
0.0
220
0.0
230
1.0
  0
SOLID
  5
69A
  8
0
  6
CONTINUOUS
 10
-421.78353071563538
 20
209.14485297287979
 30
0.0
 11
-422.94789522060978
 21
209.14485297287979
 31
0.0
 12
-420.64491276010438
 22
205.29420396306639
 32
0.0
 13
-420.64491276010438
 23
205.29420396306639
 33
0.0
210
0.0
220
0.0
230
-1.0
  0
SOLID
  5
69B
  8
0
  6
CONTINUOUS
 10
520.91475013405102
 20
208.8807257217413
 30
0.0
 11
523.17241339220095
 21
205.04194691961609
 31
0.0
 12
524.3330584755987
 22
205.04194691961609
 32
0.0
 13
524.3330584755987
 23
205.04194691961609
 33
0.0
210
0.0
220
0.0
230
1.0
  0
SOLID
  5
69C
  8
0
  6
CONTINUOUS
 10
-520.91475013405102
 20
208.8807257217413
 30
0.0
 11
-522.07250009928464
 21
208.8807257217413
 31
0.0
 12
-524.3330584755987
 22
205.04194691961609
 32
0.0
 13
-524.3330584755987
 23
205.04194691961609
 33
0.0
210
0.0
220
0.0
230
-1.0
  0
SOLID
  5
69D
  8
0
  6
CONTINUOUS
 10
419.48117456270882
 20
205.29420396306639
 30
0.0
 11
419.25396260482898
 21
204.82493032729249
 31
0.0
 12
420.3642512535348
 22
204.82493032729249
 32
0.0
 13
420.3642512535348
 23
204.82493032729249
 33
0.0
210
0.0
220
0.0
230
1.0
  0
SOLID
  5
69E
  8
0
  6
CONTINUOUS
 10
-419.48117456270882
 20
205.29420396306639
 30
0.0
 11
-420.64491276010438
 21
205.29420396306639
 31
0.0
 12
-420.3642512535348
 22
204.82493032729249
 32
0.0
 13
-420.3642512535348
 23
204.82493032729249
 33
0.0
210
0.0
220
0.0
230
-1.0
  0
SOLID
  5
69F
  8
0
  6
CONTINUOUS
 10
523.17241339220095
 20
205.04194691961609
 30
0.0
 11
523.46650642715065
 21
204.54189089738031
 31
0.0
 12
524.57262955058286
 22
204.54189089738031
 32
0.0
 13
524.57262955058286
 23
204.54189089738031
 33
0.0
210
0.0
220
0.0
230
1.0
  0
SOLID
  5
6A0
  8
0
  6
CONTINUOUS
 10
-523.17241339220095
 20
205.04194691961609
 30
0.0
 11
-524.3330584755987
 21
205.04194691961609
 31
0.0
 12
-524.57262955058286
 22
204.54189089738031
 32
0.0
 13
-524.57262955058286
 23
204.54189089738031
 33
0.0
210
0.0
220
0.0
230
-1.0
  0
SOLID
  5
6A1
  8
0
  6
CONTINUOUS
 10
419.25396260482898
 20
204.82493032729249
 30
0.0
 11
417.25059089414719
 21
200.6872540568595
 31
0.0
 12
418.36036683218862
 22
200.6872540568595
 32
0.0
 13
418.36036683218862
 23
200.6872540568595
 33
0.0
210
0.0
220
0.0
230
1.0
  0
SOLID
  5
6A2
  8
0
  6
CONTINUOUS
 10
-419.25396260482898
 20
204.82493032729249
 30
0.0
 11
-420.3642512535348
 21
204.82493032729249
 31
0.0
 12
-418.36036683218862
 22
200.6872540568595
 32
0.0
 13
-418.36036683218862
 23
200.6872540568595
 33
0.0
210
0.0
220
0.0
230
-1.0
  0
SOLID
  5
6A3
  8
0
  6
CONTINUOUS
 10
523.46650642715065
 20
204.54189089738031
 30
0.0
 11
525.45200938858875
 21
200.39140142470481
 31
0.0
 12
526.56108120492797
 22
200.39140142470481
 32
0.0
 13
526.56108120492797
 23
200.39140142470481
 33
0.0
210
0.0
220
0.0
230
1.0
  0
SOLID
  5
6A4
  8
0
  6
CONTINUOUS
 10
-523.46650642715065
 20
204.54189089738031
 30
0.0
 11
-524.57262955058286
 21
204.54189089738031
 31
0.0
 12
-526.56108120492797
 22
200.39140142470481
 32
0.0
 13
-526.56108120492797
 23
200.39140142470481
 33
0.0
210
0.0
220
0.0
230
-1.0
  0
SOLID
  5
6A5
  8
0
  6
CONTINUOUS
 10
417.25059089414719
 20
200.6872540568595
 30
0.0
 11
417.10035549587718
 21
200.29467058892141
 31
0.0
 12
418.17023791826148
 22
200.29467058892141
 32
0.0
 13
418.17023791826148
 23
200.29467058892141
 33
0.0
210
0.0
220
0.0
230
1.0
  0
SOLID
  5
6A6
  8
0
  6
CONTINUOUS
 10
-417.25059089414719
 20
200.6872540568595
 30
0.0
 11
-418.36036683218862
 21
200.6872540568595
 31
0.0
 12
-418.17023791826148
 22
200.29467058892141
 32
0.0
 13
-418.17023791826148
 23
200.29467058892141
 33
0.0
210
0.0
220
0.0
230
-1.0
  0
SOLID
  5
6A7
  8
0
  6
CONTINUOUS
 10
525.45200938858875
 20
200.39140142470481
 30
0.0
 11
525.65490982383847
 21
199.9672589596162
 31
0.0
 12
526.72138806692635
 22
199.9672589596162
 32
0.0
 13
526.72138806692635
 23
199.9672589596162
 33
0.0
210
0.0
220
0.0
230
1.0
  0
SOLID
  5
6A8
  8
0
  6
CONTINUOUS
 10
-525.45200938858875
 20
200.39140142470481
 30
0.0
 11
-526.56108120492797
 21
200.39140142470481
 31
0.0
 12
-526.72138806692635
 22
199.9672589596162
 32
0.0
 13
-526.72138806692635
 23
199.9672589596162
 33
0.0
210
0.0
220
0.0
230
-1.0
  0
SOLID
  5
6A9
  8
0
  6
CONTINUOUS
 10
417.10035549587718
 20
200.29467058892141
 30
0.0
 11
415.40754569941691
 21
195.87115157738211
 31
0.0
 12
416.47700937610301
 22
195.87115157738211
 32
0.0
 13
416.47700937610301
 23
195.87115157738211
 33
0.0
210
0.0
220
0.0
230
1.0
  0
SOLID
  5
6AA
  8
0
  6
CONTINUOUS
 10
-417.10035549587718
 20
200.29467058892141
 30
0.0
 11
-418.17023791826148
 21
200.29467058892141
 31
0.0
 12
-416.47700937610301
 22
195.87115157738211
 32
0.0
 13
-416.47700937610301
 23
195.87115157738211
 33
0.0
210
0.0
220
0.0
230
-1.0
  0
SOLID
  5
6AB
  8
0
  6
CONTINUOUS
 10
525.65490982383847
 20
199.9672589596162
 30
0.0
 11
527.30127211062825
 21
195.60342745240101
 31
0.0
 12
528.3707209981726
 22
195.60342745240101
 32
0.0
 13
528.3707209981726
 23
195.60342745240101
 33
0.0
  0
SOLID
  5
6AC
  8
0
  6
CONTINUOUS
 10
-525.65490982383847
 20
199.9672589596162
 30
0.0
 11
-526.72138806692635
 21
199.9672589596162
 31
0.0
 12
-528.3707209981726
 22
195.60342745240101
 32
0.0
 13
-528.3707209981726
 23
195.60342745240101
 33
0.0
210
0.0
220
0.0
230
-1.0
  0
SOLID
  5
6AD
  8
0
  6
CONTINUOUS
 10
415.40754569941691
 20
195.87115157738211
 30
0.0
 11
415.3176591202548
 21
195.55864449040129
 31
0.0
 12
416.35738834182638
 22
195.55864449040129
 32
0.0
 13
416.35738834182638
 23
195.55864449040129
 33
0.0
210
0.0
220
0.0
230
1.0
  0
SOLID
  5
6AE
  8
0
  6
CONTINUOUS
 10
-415.40754569941691
 20
195.87115157738211
 30
0.0
 11
-416.47700937610301
 21
195.87115157738211
 31
0.0
 12
-416.35738834182638
 22
195.55864449040129
 32
0.0
 13
-416.35738834182638
 23
195.55864449040129
 33
0.0
210
0.0
220
0.0
230
-1.0
  0
SOLID
  5
6AF
  8
0
  6
CONTINUOUS
 10
527.30127211062825
 20
195.60342745240101
 30
0.0
 11
527.43170613997756
 21
195.2577003111422
 31
0.0
 12
528.46766490091318
 22
195.2577003111422
 32
0.0
 13
528.46766490091318
 23
195.2577003111422
 33
0.0
210
0.0
220
0.0
230
1.0
  0
SOLID
  5
6B0
  8
0
  6
CONTINUOUS
 10
-527.30127211062825
 20
195.60342745240101
 30
0.0
 11
-528.3707209981726
 21
195.60342745240101
 31
0.0
 12
-528.46766490091318
 22
195.2577003111422
 32
0.0
 13
-528.46766490091318
 23
195.2577003111422
 33
0.0
210
0.0
220
0.0
230
-1.0
  0
SOLID
  5
6B1
  8
0
  6
CONTINUOUS
 10
415.3176591202548
 20
195.55864449040129
 30
0.0
 11
413.9926609735117
 21
190.95204676520811
 31
0.0
 12
415.03206717828039
 22
190.95204676520811
 32
0.0
 13
415.03206717828039
 23
190.95204676520811
 33
0.0
210
0.0
220
0.0
230
1.0
  0
SOLID
  5
6B2
  8
0
  6
CONTINUOUS
 10
-415.3176591202548
 20
195.55864449040129
 30
0.0
 11
-416.35738834182638
 21
195.55864449040129
 31
0.0
 12
-415.03206717828039
 22
190.95204676520811
 32
0.0
 13
-415.03206717828039
 23
190.95204676520811
 33
0.0
210
0.0
220
0.0
230
-1.0
  0
SOLID
  5
6B3
  8
0
  6
CONTINUOUS
 10
413.9926609735117
 20
190.95204676520811
 30
0.0
 11
413.9495752004641
 21
190.7212811675015
 31
0.0
 12
414.96567576563621
 22
190.7212811675015
 32
0.0
 13
414.96567576563621
 23
190.7212811675015
 33
0.0
  0
SOLID
  5
6B4
  8
0
  6
CONTINUOUS
 10
-413.9926609735117
 20
190.95204676520811
 30
0.0
 11
-415.03206717828039
 21
190.95204676520811
 31
0.0
 12
-414.96567576563621
 22
190.7212811675015
 32
0.0
 13
-414.96567576563621
 23
190.7212811675015
 33
0.0
210
0.0
220
0.0
230
-1.0
  0
SOLID
  5
6B5
  8
0
  6
CONTINUOUS
 10
527.43170613997756
 20
195.2577003111422
 30
0.0
 11
528.71368885917229
 21
190.67497356509969
 31
0.0
 12
529.75268815461925
 22
190.67497356509969
 32
0.0
 13
529.75268815461925
 23
190.67497356509969
 33
0.0
210
0.0
220
0.0
230
1.0
  0
SOLID
  5
6B6
  8
0
  6
CONTINUOUS
 10
-527.43170613997756
 20
195.2577003111422
 30
0.0
 11
-528.46766490091318
 21
195.2577003111422
 31
0.0
 12
-529.75268815461925
 22
190.67497356509969
 32
0.0
 13
-529.75268815461925
 23
190.67497356509969
 33
0.0
210
0.0
220
0.0
230
-1.0
  0
SOLID
  5
6B7
  8
0
  6
CONTINUOUS
 10
528.71368885917229
 20
190.67497356509969
 30
0.0
 11
528.78775225851905
 21
190.4102177957688
 31
0.0
 12
529.80304749248205
 22
190.4102177957688
 32
0.0
 13
529.80304749248205
 23
190.4102177957688
 33
0.0
210
0.0
220
0.0
230
1.0
  0
SOLID
  5
6B8
  8
0
  6
CONTINUOUS
 10
-528.71368885917229
 20
190.67497356509969
 30
0.0
 11
-529.75268815461925
 21
190.67497356509969
 31
0.0
 12
-529.80304749248205
 22
190.4102177957688
 32
0.0
 13
-529.80304749248205
 23
190.4102177957688
 33
0.0
210
0.0
220
0.0
230
-1.0
  0
SOLID
  5
6B9
  8
0
  6
CONTINUOUS
 10
413.9495752004641
 20
190.7212811675015
 30
0.0
 11
413.03397976647437
 21
185.8173903321451
 31
0.0
 12
414.00842460349361
 22
185.8173903321451
 32
0.0
 13
414.00842460349361
 23
185.8173903321451
 33
0.0
210
0.0
220
0.0
230
1.0
  0
SOLID
  5
6BA
  8
0
  6
CONTINUOUS
 10
-413.9495752004641
 20
190.7212811675015
 30
0.0
 11
-414.96567576563621
 21
190.7212811675015
 31
0.0
 12
-414.00842460349361
 22
185.8173903321451
 32
0.0
 13
-414.00842460349361
 23
185.8173903321451
 33
0.0
210
0.0
220
0.0
230
-1.0
  0
SOLID
  5
6BB
  8
0
  6
CONTINUOUS
 10
528.78775225851905
 20
190.4102177957688
 30
0.0
 11
529.69782832358203
 21
185.6090912004058
 31
0.0
 12
530.71627237498126
 22
185.6090912004058
 32
0.0
 13
530.71627237498126
 23
185.6090912004058
 33
0.0
210
0.0
220
0.0
230
1.0
  0
SOLID
  5
6BC
  8
0
  6
CONTINUOUS
 10
-528.78775225851905
 20
190.4102177957688
 30
0.0
 11
-529.80304749248205
 21
190.4102177957688
 31
0.0
 12
-530.71627237498126
 22
185.6090912004058
 32
0.0
 13
-530.71627237498126
 23
185.6090912004058
 33
0.0
210
0.0
220
0.0
230
-1.0
  0
SOLID
  5
6BD
  8
0
  6
CONTINUOUS
 10
413.03397976647437
 20
185.8173903321451
 30
0.0
 11
412.96282913849029
 21
185.43631054565009
 31
0.0
 12
413.9676068289757
 22
185.43631054565009
 32
0.0
 13
413.9676068289757
 23
185.43631054565009
 33
0.0
210
0.0
220
0.0
230
1.0
  0
SOLID
  5
6BE
  8
0
  6
CONTINUOUS
 10
-413.03397976647437
 20
185.8173903321451
 30
0.0
 11
-414.00842460349361
 21
185.8173903321451
 31
0.0
 12
-413.9676068289757
 22
185.43631054565009
 32
0.0
 13
-413.9676068289757
 23
185.43631054565009
 33
0.0
210
0.0
220
0.0
230
-1.0
  0
SOLID
  5
6BF
  8
0
  6
CONTINUOUS
 10
529.69782832358203
 20
185.6090912004058
 30
0.0
 11
529.73219129651204
 21
185.4278085696856
 31
0.0
 12
530.73492749313107
 22
185.4278085696856
 32
0.0
 13
530.73492749313107
 23
185.4278085696856
 33
0.0
210
0.0
220
0.0
230
1.0
  0
SOLID
  5
6C0
  8
0
  6
CONTINUOUS
 10
-529.69782832358203
 20
185.6090912004058
 30
0.0
 11
-530.71627237498126
 21
185.6090912004058
 31
0.0
 12
-530.73492749313107
 22
185.4278085696856
 32
0.0
 13
-530.73492749313107
 23
185.4278085696856
 33
0.0
210
0.0
220
0.0
230
-1.0
  0
SOLID
  5
6C1
  8
0
  6
CONTINUOUS
 10
412.96282913849029
 20
185.43631054565009
 30
0.0
 11
412.47445425817131
 21
180.87559696982029
 31
0.0
 12
413.47910498506792
 22
180.87559696982029
 32
0.0
 13
413.47910498506792
 23
180.87559696982029
 33
0.0
210
0.0
220
0.0
230
1.0
  0
SOLID
  5
6C2
  8
0
  6
CONTINUOUS
 10
-412.96282913849029
 20
185.43631054565009
 30
0.0
 11
-413.9676068289757
 21
185.43631054565009
 31
0.0
 12
-413.47910498506792
 22
180.87559696982029
 32
0.0
 13
-413.47910498506792
 23
180.87559696982029
 33
0.0
210
0.0
220
0.0
230
-1.0
  0
SOLID
  5
6C3
  8
0
  6
CONTINUOUS
 10
412.47445425817131
 20
180.87559696982029
 30
0.0
 11
412.4730266566184
 21
180.8121622724089
 31
0.0
 12
413.47231044159611
 22
180.8121622724089
 32
0.0
 13
413.47231044159611
 23
180.8121622724089
 33
0.0
210
0.0
220
0.0
230
1.0
  0
SOLID
  5
6C4
  8
0
  6
CONTINUOUS
 10
-412.47445425817131
 20
180.87559696982029
 30
0.0
 11
-413.47910498506792
 21
180.87559696982029
 31
0.0
 12
-413.47231044159611
 22
180.8121622724089
 32
0.0
 13
-413.47231044159611
 23
180.8121622724089
 33
0.0
210
0.0
220
0.0
230
-1.0
  0
SOLID
  5
6C5
  8
0
  6
CONTINUOUS
 10
529.73219129651204
 20
185.4278085696856
 30
0.0
 11
530.23426993876285
 21
180.51743592088769
 31
0.0
 12
531.240235594404
 22
180.51743592088769
 32
0.0
 13
531.240235594404
 23
180.51743592088769
 33
0.0
210
0.0
220
0.0
230
1.0
  0
SOLID
  5
6C6
  8
0
  6
CONTINUOUS
 10
-529.73219129651204
 20
185.4278085696856
 30
0.0
 11
-530.73492749313107
 21
185.4278085696856
 31
0.0
 12
-531.240235594404
 22
180.51743592088769
 32
0.0
 13
-531.240235594404
 23
180.51743592088769
 33
0.0
210
0.0
220
0.0
230
-1.0
  0
SOLID
  5
6C7
  8
0
  6
CONTINUOUS
 10
530.23426993876285
 20
180.51743592088769
 30
0.0
 11
530.24419842096995
 21
180.4203345041544
 31
0.0
 12
531.2416505837391
 22
180.4203345041544
 32
0.0
 13
531.2416505837391
 23
180.4203345041544
 33
0.0
  0
SOLID
  5
6C8
  8
0
  6
CONTINUOUS
 10
-530.23426993876285
 20
180.51743592088769
 30
0.0
 11
-531.240235594404
 21
180.51743592088769
 31
0.0
 12
-531.2416505837391
 22
180.4203345041544
 32
0.0
 13
-531.2416505837391
 23
180.4203345041544
 33
0.0
210
0.0
220
0.0
230
-1.0
  0
SOLID
  5
6C9
  8
0
  6
CONTINUOUS
 10
-412.35810310804391
 20
175.70559698829311
 30
0.0
 11
-413.35733327994382
 21
175.70559698829311
 31
0.0
 12
-412.35759160373829
 22
175.68286857308129
 32
0.0
 13
-412.35759160373829
 23
175.68286857308129
 33
0.0
210
0.0
220
0.0
230
-1.0
  0
SOLID
  5
6CA
  8
0
  6
CONTINUOUS
 10
412.4730266566184
 20
180.8121622724089
 30
0.0
 11
412.35810310804391
 21
175.70559698829311
 31
0.0
 12
413.35733327994382
 22
175.70559698829311
 32
0.0
 13
413.35733327994382
 23
175.70559698829311
 33
0.0
210
0.0
220
0.0
230
1.0
  0
SOLID
  5
6CB
  8
0
  6
CONTINUOUS
 10
-412.4730266566184
 20
180.8121622724089
 30
0.0
 11
-413.47231044159611
 21
180.8121622724089
 31
0.0
 12
-413.35733327994382
 22
175.70559698829311
 32
0.0
 13
-413.35733327994382
 23
175.70559698829311
 33
0.0
210
0.0
220
0.0
230
-1.0
  0
SOLID
  5
6CC
  8
0
  6
CONTINUOUS
 10
530.24419842096995
 20
180.4203345041544
 30
0.0
 11
530.31399837205186
 21
175.39943546930289
 31
0.0
 12
531.31481654593892
 22
175.39943546930289
 32
0.0
 13
531.31481654593892
 23
175.39943546930289
 33
0.0
210
0.0
220
0.0
230
1.0
  0
SOLID
  5
6CD
  8
0
  6
CONTINUOUS
 10
-530.24419842096995
 20
180.4203345041544
 30
0.0
 11
-531.2416505837391
 21
180.4203345041544
 31
0.0
 12
-531.31481654593892
 22
175.39943546930289
 32
0.0
 13
-531.31481654593892
 23
175.39943546930289
 33
0.0
210
0.0
220
0.0
230
-1.0
  0
SOLID
  5
6CE
  8
0
  6
CONTINUOUS
 10
530.31399837205186
 20
175.39943546930289
 30
0.0
 11
530.3141679283259
 21
175.3872388284791
 31
0.0
 12
531.31395098246014
 22
175.3872388284791
 32
0.0
 13
531.31395098246014
 23
175.3872388284791
 33
0.0
  0
SOLID
  5
6CF
  8
0
  6
CONTINUOUS
 10
-530.31399837205186
 20
175.39943546930289
 30
0.0
 11
-531.31481654593892
 21
175.39943546930289
 31
0.0
 12
-531.31395098246014
 22
175.3872388284791
 32
0.0
 13
-531.31395098246014
 23
175.3872388284791
 33
0.0
210
0.0
220
0.0
230
-1.0
  0
SOLID
  5
6D0
  8
0
  6
CONTINUOUS
 10
530.3141679283259
 20
175.3872388284791
 30
0.0
 11
529.95170552214688
 21
170.32907831335581
 31
0.0
 12
530.95498665164553
 22
170.32907831335581
 32
0.0
 13
530.95498665164553
 23
170.32907831335581
 33
0.0
210
0.0
220
0.0
230
1.0
  0
SOLID
  5
6D1
  8
0
  6
CONTINUOUS
 10
-530.3141679283259
 20
175.3872388284791
 30
0.0
 11
-531.31395098246014
 21
175.3872388284791
 31
0.0
 12
-530.95498665164553
 22
170.32907831335581
 32
0.0
 13
-530.95498665164553
 23
170.32907831335581
 33
0.0
210
0.0
220
0.0
230
-1.0
  0
SOLID
  5
6D2
  8
0
  6
CONTINUOUS
 10
529.95170552214688
 20
170.32907831335581
 30
0.0
 11
529.94008546355951
 21
170.25566210289389
 31
0.0
 12
530.9497764965347
 22
170.25566210289389
 32
0.0
 13
530.9497764965347
 23
170.25566210289389
 33
0.0
210
0.0
220
0.0
230
1.0
  0
SOLID
  5
6D3
  8
0
  6
CONTINUOUS
 10
-529.95170552214688
 20
170.32907831335581
 30
0.0
 11
-530.95498665164553
 21
170.32907831335581
 31
0.0
 12
-530.9497764965347
 22
170.25566210289389
 32
0.0
 13
-530.9497764965347
 23
170.25566210289389
 33
0.0
210
0.0
220
0.0
230
-1.0
  0
SOLID
  5
6D4
  8
0
  6
CONTINUOUS
 10
529.94008546355951
 20
170.25566210289389
 30
0.0
 11
529.16480348014341
 21
165.35738514213611
 31
0.0
 12
530.17803832418883
 22
165.35738514213611
 32
0.0
 13
530.17803832418883
 23
165.35738514213611
 33
0.0
210
0.0
220
0.0
230
1.0
  0
SOLID
  5
6D5
  8
0
  6
CONTINUOUS
 10
-529.94008546355951
 20
170.25566210289389
 30
0.0
 11
-530.9497764965347
 21
170.25566210289389
 31
0.0
 12
-530.17803832418883
 22
165.35738514213611
 32
0.0
 13
-530.17803832418883
 23
165.35738514213611
 33
0.0
210
0.0
220
0.0
230
-1.0
  0
SOLID
  5
6D6
  8
0
  6
CONTINUOUS
 10
529.16480348014341
 20
165.35738514213611
 30
0.0
 11
529.1253310582141
 21
165.19948815595589
 31
0.0
 12
530.15316118218357
 22
165.19948815595589
 32
0.0
 13
530.15316118218357
 23
165.19948815595589
 33
0.0
  0
SOLID
  5
6D7
  8
0
  6
CONTINUOUS
 10
-529.16480348014341
 20
165.35738514213611
 30
0.0
 11
-530.17803832418883
 21
165.35738514213611
 31
0.0
 12
-530.15316118218357
 22
165.19948815595589
 32
0.0
 13
-530.15316118218357
 23
165.19948815595589
 33
0.0
210
0.0
220
0.0
230
-1.0
  0
SOLID
  5
6D8
  8
0
  6
CONTINUOUS
 10
529.1253310582141
 20
165.19948815595589
 30
0.0
 11
527.94403363294191
 21
160.47408003262001
 31
0.0
 12
528.97550467449423
 22
160.47408003262001
 32
0.0
 13
528.97550467449423
 23
160.47408003262001
 33
0.0
210
0.0
220
0.0
230
1.0
  0
SOLID
  5
6D9
  8
0
  6
CONTINUOUS
 10
-529.1253310582141
 20
165.19948815595589
 30
0.0
 11
-530.15316118218357
 21
165.19948815595589
 31
0.0
 12
-528.97550467449423
 22
160.47408003262001
 32
0.0
 13
-528.97550467449423
 23
160.47408003262001
 33
0.0
210
0.0
220
0.0
230
-1.0
  0
SOLID
  5
6DA
  8
0
  6
CONTINUOUS
 10
527.94403363294191
 20
160.47408003262001
 30
0.0
 11
527.86130002971174
 21
160.2328586705051
 31
0.0
 12
528.91538798203635
 22
160.2328586705051
 32
0.0
 13
528.91538798203635
 23
160.2328586705051
 33
0.0
210
0.0
220
0.0
230
1.0
  0
SOLID
  5
6DB
  8
0
  6
CONTINUOUS
 10
-527.94403363294191
 20
160.47408003262001
 30
0.0
 11
-528.97550467449423
 21
160.47408003262001
 31
0.0
 12
-528.91538798203635
 22
160.2328586705051
 32
0.0
 13
-528.91538798203635
 23
160.2328586705051
 33
0.0
210
0.0
220
0.0
230
-1.0
  0
SOLID
  5
6DC
  8
0
  6
CONTINUOUS
 10
527.86130002971174
 20
160.2328586705051
 30
0.0
 11
526.29882414991619
 21
155.6772422670075
 31
0.0
 12
527.35669472786628
 22
155.6772422670075
 32
0.0
 13
527.35669472786628
 23
155.6772422670075
 33
0.0
210
0.0
220
0.0
230
1.0
  0
SOLID
  5
6DD
  8
0
  6
CONTINUOUS
 10
-527.86130002971174
 20
160.2328586705051
 30
0.0
 11
-528.91538798203635
 21
160.2328586705051
 31
0.0
 12
-527.35669472786628
 22
155.6772422670075
 32
0.0
 13
-527.35669472786628
 23
155.6772422670075
 33
0.0
210
0.0
220
0.0
230
-1.0
  0
SOLID
  5
6DE
  8
0
  6
CONTINUOUS
 10
526.29882414991619
 20
155.6772422670075
 30
0.0
 11
526.15600602511438
 21
155.35382860452509
 31
0.0
 12
527.24603951694235
 22
155.35382860452509
 32
0.0
 13
527.24603951694235
 23
155.35382860452509
 33
0.0
210
0.0
220
0.0
230
1.0
  0
SOLID
  5
6DF
  8
0
  6
CONTINUOUS
 10
-526.29882414991619
 20
155.6772422670075
 30
0.0
 11
-527.35669472786628
 21
155.6772422670075
 31
0.0
 12
-527.24603951694235
 22
155.35382860452509
 32
0.0
 13
-527.24603951694235
 23
155.35382860452509
 33
0.0
210
0.0
220
0.0
230
-1.0
  0
SOLID
  5
6E0
  8
0
  6
CONTINUOUS
 10
526.15600602511438
 20
155.35382860452509
 30
0.0
 11
524.26545181689778
 21
151.07264187524939
 31
0.0
 12
525.35937692673986
 22
151.07264187524939
 32
0.0
 13
525.35937692673986
 23
151.07264187524939
 33
0.0
210
0.0
220
0.0
230
1.0
  0
SOLID
  5
6E1
  8
0
  6
CONTINUOUS
 10
-526.15600602511438
 20
155.35382860452509
 30
0.0
 11
-527.24603951694235
 21
155.35382860452509
 31
0.0
 12
-525.35937692673986
 22
151.07264187524939
 32
0.0
 13
-525.35937692673986
 23
151.07264187524939
 33
0.0
210
0.0
220
0.0
230
-1.0
  0
SOLID
  5
6E2
  8
0
  6
CONTINUOUS
 10
524.26545181689778
 20
151.07264187524939
 30
0.0
 11
524.04344180411852
 21
150.66993516626269
 31
0.0
 12
525.18190938544512
 22
150.66993516626269
 32
0.0
 13
525.18190938544512
 23
150.66993516626269
 33
0.0
210
0.0
220
0.0
230
1.0
  0
SOLID
  5
6E3
  8
0
  6
CONTINUOUS
 10
-524.26545181689778
 20
151.07264187524939
 30
0.0
 11
-525.35937692673986
 21
151.07264187524939
 31
0.0
 12
-525.18190938544512
 22
150.66993516626269
 32
0.0
 13
-525.18190938544512
 23
150.66993516626269
 33
0.0
210
0.0
220
0.0
230
-1.0
  0
SOLID
  5
6E4
  8
0
  6
CONTINUOUS
 10
524.04344180411852
 20
150.66993516626269
 30
0.0
 11
521.83529428859913
 21
146.66454906768351
 31
0.0
 12
522.97783570158037
 22
146.66454906768351
 32
0.0
 13
522.97783570158037
 23
146.66454906768351
 33
0.0
210
0.0
220
0.0
230
1.0
  0
SOLID
  5
6E5
  8
0
  6
CONTINUOUS
 10
-524.04344180411852
 20
150.66993516626269
 30
0.0
 11
-525.18190938544512
 21
150.66993516626269
 31
0.0
 12
-522.97783570158037
 22
146.66454906768351
 32
0.0
 13
-522.97783570158037
 23
146.66454906768351
 33
0.0
210
0.0
220
0.0
230
-1.0
  0
SOLID
  5
6E6
  8
0
  6
CONTINUOUS
 10
521.83529428859913
 20
146.66454906768351
 30
0.0
 11
521.51505504197257
 21
146.1855111348857
 31
0.0
 12
522.71423192524855
 22
146.1855111348857
 32
0.0
 13
522.71423192524855
 23
146.1855111348857
 33
0.0
  0
SOLID
  5
6E7
  8
0
  6
CONTINUOUS
 10
-521.83529428859913
 20
146.66454906768351
 30
0.0
 11
-522.97783570158037
 21
146.66454906768351
 31
0.0
 12
-522.71423192524855
 22
146.1855111348857
 32
0.0
 13
-522.71423192524855
 23
146.1855111348857
 33
0.0
210
0.0
220
0.0
230
-1.0
  0
SOLID
  5
6E8
  8
0
  6
CONTINUOUS
 10
521.51505504197257
 20
146.1855111348857
 30
0.0
 11
519.01697391030802
 21
142.448693633972
 31
0.0
 12
520.2204639975497
 22
142.448693633972
 32
0.0
 13
520.2204639975497
 23
142.448693633972
 33
0.0
210
0.0
220
0.0
230
1.0
  0
SOLID
  5
6E9
  8
0
  6
CONTINUOUS
 10
-521.51505504197257
 20
146.1855111348857
 30
0.0
 11
-522.71423192524855
 21
146.1855111348857
 31
0.0
 12
-520.2204639975497
 22
142.448693633972
 32
0.0
 13
-520.2204639975497
 23
142.448693633972
 33
0.0
210
0.0
220
0.0
230
-1.0
  0
SOLID
  5
6EA
  8
0
  6
CONTINUOUS
 10
519.01697391030802
 20
142.448693633972
 30
0.0
 11
518.57502434510491
 21
141.89622373122631
 31
0.0
 12
519.85177279864865
 22
141.89622373122631
 32
0.0
 13
519.85177279864865
 23
141.89622373122631
 33
0.0
210
0.0
220
0.0
230
1.0
  0
SOLID
  5
6EB
  8
0
  6
CONTINUOUS
 10
-519.01697391030802
 20
142.448693633972
 30
0.0
 11
-520.2204639975497
 21
142.448693633972
 31
0.0
 12
-519.85177279864865
 22
141.89622373122631
 32
0.0
 13
-519.85177279864865
 23
141.89622373122631
 33
0.0
210
0.0
220
0.0
230
-1.0
  0
SOLID
  5
6EC
  8
0
  6
CONTINUOUS
 10
518.57502434510491
 20
141.89622373122631
 30
0.0
 11
515.87263450372348
 21
138.51803497305249
 31
0.0
 12
517.1539004603062
 22
138.51803497305249
 32
0.0
 13
517.1539004603062
 23
138.51803497305249
 33
0.0
210
0.0
220
0.0
230
1.0
  0
SOLID
  5
6ED
  8
0
  6
CONTINUOUS
 10
-518.57502434510491
 20
141.89622373122631
 30
0.0
 11
-519.85177279864865
 21
141.89622373122631
 31
0.0
 12
-517.1539004603062
 22
138.51803497305249
 32
0.0
 13
-517.1539004603062
 23
138.51803497305249
 33
0.0
210
0.0
220
0.0
230
-1.0
  0
SOLID
  5
6EE
  8
0
  6
CONTINUOUS
 10
515.87263450372348
 20
138.51803497305249
 30
0.0
 11
515.27955023192158
 21
137.8966118260268
 31
0.0
 12
516.65762259107532
 22
137.8966118260268
 32
0.0
 13
516.65762259107532
 23
137.8966118260268
 33
0.0
210
0.0
220
0.0
230
1.0
  0
SOLID
  5
6EF
  8
0
  6
CONTINUOUS
 10
-515.87263450372348
 20
138.51803497305249
 30
0.0
 11
-517.1539004603062
 21
138.51803497305249
 31
0.0
 12
-516.65762259107532
 22
137.8966118260268
 32
0.0
 13
-516.65762259107532
 23
137.8966118260268
 33
0.0
210
0.0
220
0.0
230
-1.0
  0
SOLID
  5
6F0
  8
0
  6
CONTINUOUS
 10
515.27955023192158
 20
137.8966118260268
 30
0.0
 11
512.42299067607826
 21
134.90355955123741
 31
0.0
 12
513.80583487307445
 22
134.90355955123741
 32
0.0
 13
513.80583487307445
 23
134.90355955123741
 33
0.0
210
0.0
220
0.0
230
1.0
  0
SOLID
  5
6F1
  8
0
  6
CONTINUOUS
 10
-515.27955023192158
 20
137.8966118260268
 30
0.0
 11
-516.65762259107532
 21
137.8966118260268
 31
0.0
 12
-513.80583487307445
 22
134.90355955123741
 32
0.0
 13
-513.80583487307445
 23
134.90355955123741
 33
0.0
210
0.0
220
0.0
230
-1.0
  0
SOLID
  5
6F2
  8
0
  6
CONTINUOUS
 10
512.42299067607826
 20
134.90355955123741
 30
0.0
 11
511.6457260608521
 21
134.2181883762016
 31
0.0
 12
513.15281149767225
 22
134.2181883762016
 32
0.0
 13
513.15281149767225
 23
134.2181883762016
 33
0.0
210
0.0
220
0.0
230
1.0
  0
SOLID
  5
6F3
  8
0
  6
CONTINUOUS
 10
-512.42299067607826
 20
134.90355955123741
 30
0.0
 11
-513.80583487307445
 21
134.90355955123741
 31
0.0
 12
-513.15281149767225
 22
134.2181883762016
 32
0.0
 13
-513.15281149767225
 23
134.2181883762016
 33
0.0
210
0.0
220
0.0
230
-1.0
  0
SOLID
  5
6F4
  8
0
  6
CONTINUOUS
 10
511.6457260608521
 20
134.2181883762016
 30
0.0
 11
508.64732782013948
 21
131.57428090221441
 31
0.0
 12
510.15956534352398
 22
131.57428090221441
 32
0.0
 13
510.15956534352398
 23
131.57428090221441
 33
0.0
  0
SOLID
  5
6F5
  8
0
  6
CONTINUOUS
 10
-511.6457260608521
 20
134.2181883762016
 30
0.0
 11
-513.15281149767225
 21
134.2181883762016
 31
0.0
 12
-510.15956534352398
 22
131.57428090221441
 32
0.0
 13
-510.15956534352398
 23
131.57428090221441
 33
0.0
210
0.0
220
0.0
230
-1.0
  0
SOLID
  5
6F6
  8
0
  6
CONTINUOUS
 10
508.64732782013948
 20
131.57428090221441
 30
0.0
 11
507.64370872679012
 21
130.82944042483641
 31
0.0
 12
509.31630932329591
 22
130.82944042483641
 32
0.0
 13
509.31630932329591
 23
130.82944042483641
 33
0.0
  0
SOLID
  5
6F7
  8
0
  6
CONTINUOUS
 10
-508.64732782013948
 20
131.57428090221441
 30
0.0
 11
-510.15956534352398
 21
131.57428090221441
 31
0.0
 12
-509.31630932329591
 22
130.82944042483641
 32
0.0
 13
-509.31630932329591
 23
130.82944042483641
 33
0.0
210
0.0
220
0.0
230
-1.0
  0
SOLID
  5
6F8
  8
0
  6
CONTINUOUS
 10
-504.54564593590692
 20
128.53019902598311
 30
0.0
 11
-506.22387355847968
 21
128.53019902598311
 31
0.0
 12
-505.14811606794649
 22
127.7303679719313
 32
0.0
 13
-505.14811606794649
 23
127.7303679719313
 33
0.0
210
0.0
220
0.0
230
-1.0
  0
SOLID
  5
6F9
  8
0
  6
CONTINUOUS
 10
507.64370872679012
 20
130.82944042483641
 30
0.0
 11
504.54564593590692
 21
128.53019902598311
 31
0.0
 12
506.22387355847968
 22
128.53019902598311
 32
0.0
 13
506.22387355847968
 23
128.53019902598311
 33
0.0
  0
SOLID
  5
6FA
  8
0
  6
CONTINUOUS
 10
-507.64370872679012
 20
130.82944042483641
 30
0.0
 11
-509.31630932329591
 21
130.82944042483641
 31
0.0
 12
-506.22387355847968
 22
128.53019902598311
 32
0.0
 13
-506.22387355847968
 23
128.53019902598311
 33
0.0
210
0.0
220
0.0
230
-1.0
  0
LINE
  5
6FB
  8
0
  6
CONTINUOUS
 10
469.42454974728219
 20
236.48607019776981
 30
0.0
 11
469.22286488978108
 21
236.46896046673149
 31
0.0
  0
LINE
  5
6FC
  8
0
  6
CONTINUOUS
 10
474.5430649810055
 20
236.46896046673149
 30
0.0
 11
469.42454974728219
 21
236.48607019776981
 31
0.0
  0
LINE
  5
6FD
  8
0
  6
CONTINUOUS
 10
469.22286488978108
 20
236.46896046673149
 30
0.0
 11
464.32432567625239
 21
236.05339784362579
 31
0.0
  0
LINE
  5
6FE
  8
0
  6
CONTINUOUS
 10
474.5430649810055
 20
236.46896046673149
 30
0.0
 11
479.21249735267469
 21
236.05339784362579
 31
0.0
  0
LINE
  5
6FF
  8
0
  6
CONTINUOUS
 10
464.32432567625239
 20
236.05339784362579
 30
0.0
 11
464.08229342736638
 21
236.0118386021004
 31
0.0
  0
LINE
  5
700
  8
0
  6
CONTINUOUS
 10
479.21249735267469
 20
236.05339784362579
 30
0.0
 11
479.67947406552412
 21
236.0118386021004
 31
0.0
  0
LINE
  5
701
  8
0
  6
CONTINUOUS
 10
464.08229342736638
 20
236.0118386021004
 30
0.0
 11
461.02969245503442
 21
235.4876779513032
 31
0.0
  0
LINE
  5
702
  8
0
  6
CONTINUOUS
 10
479.67947406552412
 20
236.0118386021004
 30
0.0
 11
482.65824254831142
 21
235.4876779513032
 31
0.0
  0
LINE
  5
703
  8
0
  6
CONTINUOUS
 10
469.48448810065003
 20
235.4876779513032
 30
0.0
 11
474.51803597356201
 21
235.4691408651141
 31
0.0
  0
LINE
  5
704
  8
0
  6
CONTINUOUS
 10
482.65824254831142
 20
235.4876779513032
 30
0.0
 11
482.7635875184435
 21
235.4691408651141
 31
0.0
  0
LINE
  5
705
  8
0
  6
CONTINUOUS
 10
461.02969245503442
 20
235.4876779513032
 30
0.0
 11
459.24199545601761
 21
235.180713355889
 31
0.0
  0
LINE
  5
706
  8
0
  6
CONTINUOUS
 10
469.48448810065003
 20
235.4876779513032
 30
0.0
 11
465.8522495237728
 21
235.180713355889
 31
0.0
  0
LINE
  5
707
  8
0
  6
CONTINUOUS
 10
474.51803597356201
 20
235.4691408651141
 30
0.0
 11
478.3718006922486
 21
235.12477988697279
 31
0.0
  0
LINE
  5
708
  8
0
  6
CONTINUOUS
 10
482.7635875184435
 20
235.4691408651141
 30
0.0
 11
484.72056698042542
 21
235.12477988697279
 31
0.0
  0
LINE
  5
709
  8
0
  6
CONTINUOUS
 10
459.24199545601761
 20
235.180713355889
 30
0.0
 11
458.79433845821251
 21
235.06379525555181
 31
0.0
  0
LINE
  5
70A
  8
0
  6
CONTINUOUS
 10
465.8522495237728
 20
235.180713355889
 30
0.0
 11
464.4687856301374
 21
235.06379525555181
 31
0.0
  0
LINE
  5
70B
  8
0
  6
CONTINUOUS
 10
478.3718006922486
 20
235.12477988697279
 30
0.0
 11
479.56904145915013
 21
235.01779800518801
 31
0.0
  0
LINE
  5
70C
  8
0
  6
CONTINUOUS
 10
484.72056698042542
 20
235.12477988697279
 30
0.0
 11
485.11925934388358
 21
235.01779800518801
 31
0.0
  0
LINE
  5
70D
  8
0
  6
CONTINUOUS
 10
458.79433845821251
 20
235.06379525555181
 30
0.0
 11
455.5142425004484
 21
234.20710678606329
 31
0.0
  0
LINE
  5
70E
  8
0
  6
CONTINUOUS
 10
464.4687856301374
 20
235.06379525555181
 30
0.0
 11
459.47054077230098
 21
234.20710678606329
 31
0.0
  0
LINE
  5
70F
  8
0
  6
CONTINUOUS
 10
479.56904145915013
 20
235.01779800518801
 30
0.0
 11
484.52613014210129
 21
234.14360145874261
 31
0.0
  0
LINE
  5
710
  8
0
  6
CONTINUOUS
 10
485.11925934388358
 20
235.01779800518801
 30
0.0
 11
488.37715200210522
 21
234.14360145874261
 31
0.0
  0
LINE
  5
711
  8
0
  6
CONTINUOUS
 10
455.5142425004484
 20
234.20710678606329
 30
0.0
 11
454.28957717129589
 21
233.8872513062307
 31
0.0
  0
LINE
  5
712
  8
0
  6
CONTINUOUS
 10
459.47054077230098
 20
234.20710678606329
 30
0.0
 11
458.24444663737069
 21
233.8872513062307
 31
0.0
  0
LINE
  5
713
  8
0
  6
CONTINUOUS
 10
484.52613014210129
 20
234.14360145874261
 30
0.0
 11
485.81117721749638
 21
233.7982380795633
 31
0.0
  0
LINE
  5
714
  8
0
  6
CONTINUOUS
 10
488.37715200210522
 20
234.14360145874261
 30
0.0
 11
489.66422734233822
 21
233.7982380795633
 31
0.0
  0
LINE
  5
715
  8
0
  6
CONTINUOUS
 10
454.28957717129589
 20
233.8872513062307
 30
0.0
 11
451.66361008238567
 21
232.9365024802307
 31
0.0
  0
LINE
  5
716
  8
0
  6
CONTINUOUS
 10
458.24444663737069
 20
233.8872513062307
 30
0.0
 11
454.59996457328072
 21
232.9365024802307
 31
0.0
  0
LINE
  5
717
  8
0
  6
CONTINUOUS
 10
485.81117721749638
 20
233.7982380795633
 30
0.0
 11
489.38721582817931
 21
232.83715828543879
 31
0.0
  0
LINE
  5
718
  8
0
  6
CONTINUOUS
 10
489.66422734233822
 20
233.7982380795633
 30
0.0
 11
492.31706096328958
 21
232.83715828543879
 31
0.0
  0
LINE
  5
719
  8
0
  6
CONTINUOUS
 10
489.38721582817931
 20
232.83715828543879
 30
0.0
 11
491.52711945235438
 21
232.06090539654619
 31
0.0
  0
LINE
  5
71A
  8
0
  6
CONTINUOUS
 10
492.31706096328958
 20
232.83715828543879
 30
0.0
 11
494.45972359609482
 21
232.06090539654619
 31
0.0
  0
LINE
  5
71B
  8
0
  6
CONTINUOUS
 10
451.66361008238567
 20
232.9365024802307
 30
0.0
 11
449.24521201338717
 21
232.06090539654619
 31
0.0
  0
LINE
  5
71C
  8
0
  6
CONTINUOUS
 10
454.59996457328072
 20
232.9365024802307
 30
0.0
 11
452.14949681799209
 21
232.06090539654619
 31
0.0
  0
LINE
  5
71D
  8
0
  6
CONTINUOUS
 10
449.24521201338717
 20
232.06090539654619
 30
0.0
 11
447.45599124268722
 21
231.24278793611279
 31
0.0
  0
LINE
  5
71E
  8
0
  6
CONTINUOUS
 10
452.14949681799209
 20
232.06090539654619
 30
0.0
 11
449.8598929645911
 21
231.24278793611279
 31
0.0
  0
LINE
  5
71F
  8
0
  6
CONTINUOUS
 10
491.52711945235438
 20
232.06090539654619
 30
0.0
 11
494.15438471162059
 21
231.10786142561571
 31
0.0
  0
LINE
  5
720
  8
0
  6
CONTINUOUS
 10
494.45972359609482
 20
232.06090539654619
 30
0.0
 11
496.52649020228949
 21
231.10786142561571
 31
0.0
  0
LINE
  5
721
  8
0
  6
CONTINUOUS
 10
447.45599124268722
 20
231.24278793611279
 30
0.0
 11
444.78024549166821
 21
230.01930878002599
 31
0.0
  0
LINE
  5
722
  8
0
  6
CONTINUOUS
 10
449.8598929645911
 20
231.24278793611279
 30
0.0
 11
447.18239366444988
 21
230.01930878002599
 31
0.0
  0
LINE
  5
723
  8
0
  6
CONTINUOUS
 10
494.15438471162059
 20
231.10786142561571
 30
0.0
 11
496.77726469080659
 21
229.89405792170791
 31
0.0
  0
LINE
  5
724
  8
0
  6
CONTINUOUS
 10
496.52649020228949
 20
231.10786142561571
 30
0.0
 11
499.15873868701539
 21
229.89405792170791
 31
0.0
  0
LINE
  5
725
  8
0
  6
CONTINUOUS
 10
444.78024549166821
 20
230.01930878002599
 30
0.0
 11
443.21536954734012
 21
229.13515755565089
 31
0.0
  0
LINE
  5
726
  8
0
  6
CONTINUOUS
 10
447.18239366444988
 20
230.01930878002599
 30
0.0
 11
445.24749001471793
 21
229.13515755565089
 31
0.0
  0
LINE
  5
727
  8
0
  6
CONTINUOUS
 10
496.77726469080659
 20
229.89405792170791
 30
0.0
 11
498.72252095982458
 21
228.9938417875081
 31
0.0
  0
LINE
  5
728
  8
0
  6
CONTINUOUS
 10
499.15873868701539
 20
229.89405792170791
 30
0.0
 11
500.72746737447147
 21
228.9938417875081
 31
0.0
  0
LINE
  5
729
  8
0
  6
CONTINUOUS
 10
443.21536954734012
 20
229.13515755565089
 30
0.0
 11
440.32381201492541
 21
227.50143435739881
 31
0.0
  0
LINE
  5
72A
  8
0
  6
CONTINUOUS
 10
445.24749001471793
 20
229.13515755565089
 30
0.0
 11
442.35437968022762
 21
227.50143435739881
 31
0.0
  0
LINE
  5
72B
  8
0
  6
CONTINUOUS
 10
498.72252095982458
 20
228.9938417875081
 30
0.0
 11
501.59030256757188
 21
227.34644693692559
 31
0.0
  0
LINE
  5
72C
  8
0
  6
CONTINUOUS
 10
500.72746737447147
 20
228.9938417875081
 30
0.0
 11
503.59823969624688
 21
227.34644693692559
 31
0.0
  0
LINE
  5
72D
  8
0
  6
CONTINUOUS
 10
440.32381201492541
 20
227.50143435739881
 30
0.0
 11
439.09995557108942
 21
226.66008448206119
 31
0.0
  0
LINE
  5
72E
  8
0
  6
CONTINUOUS
 10
442.35437968022762
 20
227.50143435739881
 30
0.0
 11
440.86445897525999
 21
226.66008448206119
 31
0.0
  0
LINE
  5
72F
  8
0
  6
CONTINUOUS
 10
501.59030256757188
 20
227.34644693692559
 30
0.0
 11
503.08720341784408
 21
226.48655344088351
 31
0.0
  0
LINE
  5
730
  8
0
  6
CONTINUOUS
 10
503.59823969624688
 20
227.34644693692559
 30
0.0
 11
504.83806730697461
 21
226.48655344088351
 31
0.0
  0
LINE
  5
731
  8
0
  6
CONTINUOUS
 10
439.09995557108942
 20
226.66008448206119
 30
0.0
 11
436.1058345613194
 21
224.60175210900931
 31
0.0
  0
LINE
  5
732
  8
0
  6
CONTINUOUS
 10
440.86445897525999
 20
226.66008448206119
 30
0.0
 11
437.86898768211762
 21
224.60175210900931
 31
0.0
  0
LINE
  5
733
  8
0
  6
CONTINUOUS
 10
503.08720341784408
 20
226.48655344088351
 30
0.0
 11
506.08170691263132
 21
224.4076131100997
 31
0.0
  0
LINE
  5
734
  8
0
  6
CONTINUOUS
 10
504.83806730697461
 20
226.48655344088351
 30
0.0
 11
507.83556366556428
 21
224.4076131100997
 31
0.0
  0
LINE
  5
735
  8
0
  6
CONTINUOUS
 10
436.1058345613194
 20
224.60175210900931
 30
0.0
 11
435.14125460384003
 21
223.8094066313781
 31
0.0
  0
LINE
  5
736
  8
0
  6
CONTINUOUS
 10
437.86898768211762
 20
224.60175210900931
 30
0.0
 11
436.71589493404178
 21
223.8094066313781
 31
0.0
  0
LINE
  5
737
  8
0
  6
CONTINUOUS
 10
506.08170691263132
 20
224.4076131100997
 30
0.0
 11
507.25285324062639
 21
223.59454231597419
 31
0.0
  0
LINE
  5
738
  8
0
  6
CONTINUOUS
 10
507.83556366556428
 20
224.4076131100997
 30
0.0
 11
508.8170788373958
 21
223.59454231597419
 31
0.0
  0
LINE
  5
739
  8
0
  6
CONTINUOUS
 10
435.14125460384003
 20
223.8094066313781
 30
0.0
 11
432.12113350302849
 21
221.32855548205549
 31
0.0
  0
LINE
  5
73A
  8
0
  6
CONTINUOUS
 10
436.71589493404178
 20
223.8094066313781
 30
0.0
 11
433.69458725779032
 21
221.32855548205549
 31
0.0
  0
LINE
  5
73B
  8
0
  6
CONTINUOUS
 10
507.25285324062639
 20
223.59454231597419
 30
0.0
 11
510.21016648358562
 21
221.1423303780503
 31
0.0
  0
LINE
  5
73C
  8
0
  6
CONTINUOUS
 10
508.8170788373958
 20
223.59454231597419
 30
0.0
 11
511.77731703437553
 21
221.1423303780503
 31
0.0
  0
LINE
  5
73D
  8
0
  6
CONTINUOUS
 10
432.12113350302849
 20
221.32855548205549
 30
0.0
 11
431.36550096987872
 21
220.5912860875672
 31
0.0
  0
LINE
  5
73E
  8
0
  6
CONTINUOUS
 10
433.69458725779032
 20
221.32855548205549
 30
0.0
 11
432.79670280323882
 21
220.5912860875672
 31
0.0
  0
LINE
  5
73F
  8
0
  6
CONTINUOUS
 10
510.21016648358562
 20
221.1423303780503
 30
0.0
 11
511.12761806041419
 21
220.38157711171229
 31
0.0
  0
LINE
  5
740
  8
0
  6
CONTINUOUS
 10
511.77731703437553
 20
221.1423303780503
 30
0.0
 11
512.54666077673778
 21
220.38157711171229
 31
0.0
  0
LINE
  5
741
  8
0
  6
CONTINUOUS
 10
511.12761806041419
 20
220.38157711171229
 30
0.0
 11
513.59370274319076
 21
217.89968444552699
 31
0.0
  0
LINE
  5
742
  8
0
  6
CONTINUOUS
 10
512.54666077673778
 20
220.38157711171229
 30
0.0
 11
515.05657913849006
 21
217.89968444552699
 31
0.0
  0
LINE
  5
743
  8
0
  6
CONTINUOUS
 10
431.36550096987872
 20
220.5912860875672
 30
0.0
 11
428.45753441638811
 21
217.75398800148909
 31
0.0
  0
LINE
  5
744
  8
0
  6
CONTINUOUS
 10
432.79670280323882
 20
220.5912860875672
 30
0.0
 11
429.88771882749052
 21
217.75398800148909
 31
0.0
  0
LINE
  5
745
  8
0
  6
CONTINUOUS
 10
428.45753441638811
 20
217.75398800148909
 30
0.0
 11
427.87569592019139
 21
217.07668224574189
 31
0.0
  0
LINE
  5
746
  8
0
  6
CONTINUOUS
 10
429.88771882749052
 20
217.75398800148909
 30
0.0
 11
429.19330057097437
 21
217.07668224574189
 31
0.0
  0
LINE
  5
747
  8
0
  6
CONTINUOUS
 10
513.59370274319076
 20
217.89968444552699
 30
0.0
 11
515.05657913849018
 21
216.4274307867673
 31
0.0
  0
LINE
  5
748
  8
0
  6
CONTINUOUS
 10
515.05657913849006
 20
217.89968444552699
 30
0.0
 11
516.33031311523348
 21
216.4274307867673
 31
0.0
  0
LINE
  5
749
  8
0
  6
CONTINUOUS
 10
427.87569592019139
 20
217.07668224574189
 30
0.0
 11
425.122166992784
 21
213.87135808218019
 31
0.0
  0
LINE
  5
74A
  8
0
  6
CONTINUOUS
 10
429.19330057097437
 20
217.07668224574189
 30
0.0
 11
426.43890571546501
 21
213.87135808218019
 31
0.0
  0
LINE
  5
74B
  8
0
  6
CONTINUOUS
 10
515.05657913849018
 20
216.4274307867673
 30
0.0
 11
517.44744906490394
 21
213.61792137077609
 31
0.0
  0
LINE
  5
74C
  8
0
  6
CONTINUOUS
 10
516.33031311523348
 20
216.4274307867673
 30
0.0
 11
518.76098637580685
 21
213.61792137077609
 31
0.0
  0
LINE
  5
74D
  8
0
  6
CONTINUOUS
 10
425.122166992784
 20
213.87135808218019
 30
0.0
 11
424.68101461148967
 21
213.25900925831809
 31
0.0
  0
LINE
  5
74E
  8
0
  6
CONTINUOUS
 10
426.43890571546501
 20
213.87135808218019
 30
0.0
 11
425.91270294652298
 21
213.25900925831809
 31
0.0
  0
LINE
  5
74F
  8
0
  6
CONTINUOUS
 10
517.44744906490394
 20
213.61792137077609
 30
0.0
 11
517.99156970811191
 21
212.97852562045131
 31
0.0
  0
LINE
  5
750
  8
0
  6
CONTINUOUS
 10
518.76098637580685
 20
213.61792137077609
 30
0.0
 11
519.21762354524867
 21
212.97852562045131
 31
0.0
  0
LINE
  5
751
  8
0
  6
CONTINUOUS
 10
424.68101461148967
 20
213.25900925831809
 30
0.0
 11
422.10790154083082
 21
209.6873573092586
 31
0.0
  0
LINE
  5
752
  8
0
  6
CONTINUOUS
 10
425.91270294652298
 20
213.25900925831809
 30
0.0
 11
423.33884319055687
 21
209.6873573092586
 31
0.0
  0
LINE
  5
753
  8
0
  6
CONTINUOUS
 10
517.99156970811191
 20
212.97852562045131
 30
0.0
 11
520.50682815979496
 21
209.45256268738149
 31
0.0
  0
LINE
  5
754
  8
0
  6
CONTINUOUS
 10
519.21762354524867
 20
212.97852562045131
 30
0.0
 11
521.7357599771791
 21
209.45256268738149
 31
0.0
  0
LINE
  5
755
  8
0
  6
CONTINUOUS
 10
422.10790154083082
 20
209.6873573092586
 30
0.0
 11
421.78353071563538
 21
209.14485297287979
 31
0.0
  0
LINE
  5
756
  8
0
  6
CONTINUOUS
 10
423.33884319055687
 20
209.6873573092586
 30
0.0
 11
422.94789522060978
 21
209.14485297287979
 31
0.0
  0
LINE
  5
757
  8
0
  6
CONTINUOUS
 10
520.50682815979496
 20
209.45256268738149
 30
0.0
 11
520.91475013405102
 21
208.8807257217413
 31
0.0
  0
LINE
  5
758
  8
0
  6
CONTINUOUS
 10
521.7357599771791
 20
209.45256268738149
 30
0.0
 11
522.07250009928464
 21
208.8807257217413
 31
0.0
  0
LINE
  5
759
  8
0
  6
CONTINUOUS
 10
421.78353071563538
 20
209.14485297287979
 30
0.0
 11
419.48117456270882
 21
205.29420396306639
 31
0.0
  0
LINE
  5
75A
  8
0
  6
CONTINUOUS
 10
422.94789522060978
 20
209.14485297287979
 30
0.0
 11
420.64491276010438
 21
205.29420396306639
 31
0.0
  0
LINE
  5
75B
  8
0
  6
CONTINUOUS
 10
520.91475013405102
 20
208.8807257217413
 30
0.0
 11
523.17241339220095
 21
205.04194691961609
 31
0.0
  0
LINE
  5
75C
  8
0
  6
CONTINUOUS
 10
522.07250009928464
 20
208.8807257217413
 30
0.0
 11
524.3330584755987
 21
205.04194691961609
 31
0.0
  0
LINE
  5
75D
  8
0
  6
CONTINUOUS
 10
419.48117456270882
 20
205.29420396306639
 30
0.0
 11
419.25396260482898
 21
204.82493032729249
 31
0.0
  0
LINE
  5
75E
  8
0
  6
CONTINUOUS
 10
420.64491276010438
 20
205.29420396306639
 30
0.0
 11
420.3642512535348
 21
204.82493032729249
 31
0.0
  0
LINE
  5
75F
  8
0
  6
CONTINUOUS
 10
523.17241339220095
 20
205.04194691961609
 30
0.0
 11
523.46650642715065
 21
204.54189089738031
 31
0.0
  0
LINE
  5
760
  8
0
  6
CONTINUOUS
 10
524.3330584755987
 20
205.04194691961609
 30
0.0
 11
524.57262955058286
 21
204.54189089738031
 31
0.0
  0
LINE
  5
761
  8
0
  6
CONTINUOUS
 10
419.25396260482898
 20
204.82493032729249
 30
0.0
 11
417.25059089414719
 21
200.6872540568595
 31
0.0
  0
LINE
  5
762
  8
0
  6
CONTINUOUS
 10
420.3642512535348
 20
204.82493032729249
 30
0.0
 11
418.36036683218862
 21
200.6872540568595
 31
0.0
  0
LINE
  5
763
  8
0
  6
CONTINUOUS
 10
523.46650642715065
 20
204.54189089738031
 30
0.0
 11
525.45200938858875
 21
200.39140142470481
 31
0.0
  0
LINE
  5
764
  8
0
  6
CONTINUOUS
 10
524.57262955058286
 20
204.54189089738031
 30
0.0
 11
526.56108120492797
 21
200.39140142470481
 31
0.0
  0
LINE
  5
765
  8
0
  6
CONTINUOUS
 10
417.25059089414719
 20
200.6872540568595
 30
0.0
 11
417.10035549587718
 21
200.29467058892141
 31
0.0
  0
LINE
  5
766
  8
0
  6
CONTINUOUS
 10
418.36036683218862
 20
200.6872540568595
 30
0.0
 11
418.17023791826148
 21
200.29467058892141
 31
0.0
  0
LINE
  5
767
  8
0
  6
CONTINUOUS
 10
525.45200938858875
 20
200.39140142470481
 30
0.0
 11
525.65490982383847
 21
199.9672589596162
 31
0.0
  0
LINE
  5
768
  8
0
  6
CONTINUOUS
 10
526.56108120492797
 20
200.39140142470481
 30
0.0
 11
526.72138806692635
 21
199.9672589596162
 31
0.0
  0
LINE
  5
769
  8
0
  6
CONTINUOUS
 10
417.10035549587718
 20
200.29467058892141
 30
0.0
 11
415.40754569941691
 21
195.87115157738211
 31
0.0
  0
LINE
  5
76A
  8
0
  6
CONTINUOUS
 10
418.17023791826148
 20
200.29467058892141
 30
0.0
 11
416.47700937610301
 21
195.87115157738211
 31
0.0
  0
LINE
  5
76B
  8
0
  6
CONTINUOUS
 10
525.65490982383847
 20
199.9672589596162
 30
0.0
 11
527.30127211062825
 21
195.60342745240101
 31
0.0
  0
LINE
  5
76C
  8
0
  6
CONTINUOUS
 10
526.72138806692635
 20
199.9672589596162
 30
0.0
 11
528.3707209981726
 21
195.60342745240101
 31
0.0
  0
LINE
  5
76D
  8
0
  6
CONTINUOUS
 10
415.40754569941691
 20
195.87115157738211
 30
0.0
 11
415.3176591202548
 21
195.55864449040129
 31
0.0
  0
LINE
  5
76E
  8
0
  6
CONTINUOUS
 10
416.47700937610301
 20
195.87115157738211
 30
0.0
 11
416.35738834182638
 21
195.55864449040129
 31
0.0
  0
LINE
  5
76F
  8
0
  6
CONTINUOUS
 10
527.30127211062825
 20
195.60342745240101
 30
0.0
 11
527.43170613997756
 21
195.2577003111422
 31
0.0
  0
LINE
  5
770
  8
0
  6
CONTINUOUS
 10
528.3707209981726
 20
195.60342745240101
 30
0.0
 11
528.46766490091318
 21
195.2577003111422
 31
0.0
  0
LINE
  5
771
  8
0
  6
CONTINUOUS
 10
415.3176591202548
 20
195.55864449040129
 30
0.0
 11
413.9926609735117
 21
190.95204676520811
 31
0.0
  0
LINE
  5
772
  8
0
  6
CONTINUOUS
 10
416.35738834182638
 20
195.55864449040129
 30
0.0
 11
415.03206717828039
 21
190.95204676520811
 31
0.0
  0
LINE
  5
773
  8
0
  6
CONTINUOUS
 10
413.9926609735117
 20
190.95204676520811
 30
0.0
 11
413.9495752004641
 21
190.7212811675015
 31
0.0
  0
LINE
  5
774
  8
0
  6
CONTINUOUS
 10
415.03206717828039
 20
190.95204676520811
 30
0.0
 11
414.96567576563621
 21
190.7212811675015
 31
0.0
  0
LINE
  5
775
  8
0
  6
CONTINUOUS
 10
527.43170613997756
 20
195.2577003111422
 30
0.0
 11
528.71368885917229
 21
190.67497356509969
 31
0.0
  0
LINE
  5
776
  8
0
  6
CONTINUOUS
 10
528.46766490091318
 20
195.2577003111422
 30
0.0
 11
529.75268815461925
 21
190.67497356509969
 31
0.0
  0
LINE
  5
777
  8
0
  6
CONTINUOUS
 10
528.71368885917229
 20
190.67497356509969
 30
0.0
 11
528.78775225851905
 21
190.4102177957688
 31
0.0
  0
LINE
  5
778
  8
0
  6
CONTINUOUS
 10
529.75268815461925
 20
190.67497356509969
 30
0.0
 11
529.80304749248205
 21
190.4102177957688
 31
0.0
  0
LINE
  5
779
  8
0
  6
CONTINUOUS
 10
413.9495752004641
 20
190.7212811675015
 30
0.0
 11
413.03397976647437
 21
185.8173903321451
 31
0.0
  0
LINE
  5
77A
  8
0
  6
CONTINUOUS
 10
414.96567576563621
 20
190.7212811675015
 30
0.0
 11
414.00842460349361
 21
185.8173903321451
 31
0.0
  0
LINE
  5
77B
  8
0
  6
CONTINUOUS
 10
528.78775225851905
 20
190.4102177957688
 30
0.0
 11
529.69782832358203
 21
185.6090912004058
 31
0.0
  0
LINE
  5
77C
  8
0
  6
CONTINUOUS
 10
529.80304749248205
 20
190.4102177957688
 30
0.0
 11
530.71627237498126
 21
185.6090912004058
 31
0.0
  0
LINE
  5
77D
  8
0
  6
CONTINUOUS
 10
413.03397976647437
 20
185.8173903321451
 30
0.0
 11
412.96282913849029
 21
185.43631054565009
 31
0.0
  0
LINE
  5
77E
  8
0
  6
CONTINUOUS
 10
414.00842460349361
 20
185.8173903321451
 30
0.0
 11
413.9676068289757
 21
185.43631054565009
 31
0.0
  0
LINE
  5
77F
  8
0
  6
CONTINUOUS
 10
529.69782832358203
 20
185.6090912004058
 30
0.0
 11
529.73219129651204
 21
185.4278085696856
 31
0.0
  0
LINE
  5
780
  8
0
  6
CONTINUOUS
 10
530.71627237498126
 20
185.6090912004058
 30
0.0
 11
530.73492749313107
 21
185.4278085696856
 31
0.0
  0
LINE
  5
781
  8
0
  6
CONTINUOUS
 10
412.96282913849029
 20
185.43631054565009
 30
0.0
 11
412.47445425817131
 21
180.87559696982029
 31
0.0
  0
LINE
  5
782
  8
0
  6
CONTINUOUS
 10
413.9676068289757
 20
185.43631054565009
 30
0.0
 11
413.47910498506792
 21
180.87559696982029
 31
0.0
  0
LINE
  5
783
  8
0
  6
CONTINUOUS
 10
412.47445425817131
 20
180.87559696982029
 30
0.0
 11
412.4730266566184
 21
180.8121622724089
 31
0.0
  0
LINE
  5
784
  8
0
  6
CONTINUOUS
 10
413.47910498506792
 20
180.87559696982029
 30
0.0
 11
413.47231044159611
 21
180.8121622724089
 31
0.0
  0
LINE
  5
785
  8
0
  6
CONTINUOUS
 10
529.73219129651204
 20
185.4278085696856
 30
0.0
 11
530.23426993876285
 21
180.51743592088769
 31
0.0
  0
LINE
  5
786
  8
0
  6
CONTINUOUS
 10
530.73492749313107
 20
185.4278085696856
 30
0.0
 11
531.240235594404
 21
180.51743592088769
 31
0.0
  0
LINE
  5
787
  8
0
  6
CONTINUOUS
 10
530.23426993876285
 20
180.51743592088769
 30
0.0
 11
530.24419842096995
 21
180.4203345041544
 31
0.0
  0
LINE
  5
788
  8
0
  6
CONTINUOUS
 10
531.240235594404
 20
180.51743592088769
 30
0.0
 11
531.2416505837391
 21
180.4203345041544
 31
0.0
  0
LINE
  5
789
  8
0
  6
CONTINUOUS
 10
413.35733327994382
 20
175.70559698829311
 30
0.0
 11
412.35759160373829
 21
175.68286857308129
 31
0.0
  0
LINE
  5
78A
  8
0
  6
CONTINUOUS
 10
412.35759160373829
 20
175.68286857308129
 30
0.0
 11
412.35810310804391
 21
175.70559698829311
 31
0.0
  0
LINE
  5
78B
  8
0
  6
CONTINUOUS
 10
412.4730266566184
 20
180.8121622724089
 30
0.0
 11
412.35810310804391
 21
175.70559698829311
 31
0.0
  0
LINE
  5
78C
  8
0
  6
CONTINUOUS
 10
413.47231044159611
 20
180.8121622724089
 30
0.0
 11
413.35733327994382
 21
175.70559698829311
 31
0.0
  0
LINE
  5
78D
  8
0
  6
CONTINUOUS
 10
530.24419842096995
 20
180.4203345041544
 30
0.0
 11
530.31399837205186
 21
175.39943546930289
 31
0.0
  0
LINE
  5
78E
  8
0
  6
CONTINUOUS
 10
531.2416505837391
 20
180.4203345041544
 30
0.0
 11
531.31481654593892
 21
175.39943546930289
 31
0.0
  0
LINE
  5
78F
  8
0
  6
CONTINUOUS
 10
530.31399837205186
 20
175.39943546930289
 30
0.0
 11
530.3141679283259
 21
175.3872388284791
 31
0.0
  0
LINE
  5
790
  8
0
  6
CONTINUOUS
 10
531.31481654593892
 20
175.39943546930289
 30
0.0
 11
531.31395098246014
 21
175.3872388284791
 31
0.0
  0
LINE
  5
791
  8
0
  6
CONTINUOUS
 10
530.3141679283259
 20
175.3872388284791
 30
0.0
 11
529.95170552214688
 21
170.32907831335581
 31
0.0
  0
LINE
  5
792
  8
0
  6
CONTINUOUS
 10
531.31395098246014
 20
175.3872388284791
 30
0.0
 11
530.95498665164553
 21
170.32907831335581
 31
0.0
  0
LINE
  5
793
  8
0
  6
CONTINUOUS
 10
529.95170552214688
 20
170.32907831335581
 30
0.0
 11
529.94008546355951
 21
170.25566210289389
 31
0.0
  0
LINE
  5
794
  8
0
  6
CONTINUOUS
 10
530.95498665164553
 20
170.32907831335581
 30
0.0
 11
530.9497764965347
 21
170.25566210289389
 31
0.0
  0
LINE
  5
795
  8
0
  6
CONTINUOUS
 10
529.94008546355951
 20
170.25566210289389
 30
0.0
 11
529.16480348014341
 21
165.35738514213611
 31
0.0
  0
LINE
  5
796
  8
0
  6
CONTINUOUS
 10
530.9497764965347
 20
170.25566210289389
 30
0.0
 11
530.17803832418883
 21
165.35738514213611
 31
0.0
  0
LINE
  5
797
  8
0
  6
CONTINUOUS
 10
529.16480348014341
 20
165.35738514213611
 30
0.0
 11
529.1253310582141
 21
165.19948815595589
 31
0.0
  0
LINE
  5
798
  8
0
  6
CONTINUOUS
 10
530.17803832418883
 20
165.35738514213611
 30
0.0
 11
530.15316118218357
 21
165.19948815595589
 31
0.0
  0
LINE
  5
799
  8
0
  6
CONTINUOUS
 10
529.1253310582141
 20
165.19948815595589
 30
0.0
 11
527.94403363294191
 21
160.47408003262001
 31
0.0
  0
LINE
  5
79A
  8
0
  6
CONTINUOUS
 10
530.15316118218357
 20
165.19948815595589
 30
0.0
 11
528.97550467449423
 21
160.47408003262001
 31
0.0
  0
LINE
  5
79B
  8
0
  6
CONTINUOUS
 10
527.94403363294191
 20
160.47408003262001
 30
0.0
 11
527.86130002971174
 21
160.2328586705051
 31
0.0
  0
LINE
  5
79C
  8
0
  6
CONTINUOUS
 10
528.97550467449423
 20
160.47408003262001
 30
0.0
 11
528.91538798203635
 21
160.2328586705051
 31
0.0
  0
LINE
  5
79D
  8
0
  6
CONTINUOUS
 10
527.86130002971174
 20
160.2328586705051
 30
0.0
 11
526.29882414991619
 21
155.6772422670075
 31
0.0
  0
LINE
  5
79E
  8
0
  6
CONTINUOUS
 10
528.91538798203635
 20
160.2328586705051
 30
0.0
 11
527.35669472786628
 21
155.6772422670075
 31
0.0
  0
LINE
  5
79F
  8
0
  6
CONTINUOUS
 10
526.29882414991619
 20
155.6772422670075
 30
0.0
 11
526.15600602511438
 21
155.35382860452509
 31
0.0
  0
LINE
  5
7A0
  8
0
  6
CONTINUOUS
 10
527.35669472786628
 20
155.6772422670075
 30
0.0
 11
527.24603951694235
 21
155.35382860452509
 31
0.0
  0
LINE
  5
7A1
  8
0
  6
CONTINUOUS
 10
526.15600602511438
 20
155.35382860452509
 30
0.0
 11
524.26545181689778
 21
151.07264187524939
 31
0.0
  0
LINE
  5
7A2
  8
0
  6
CONTINUOUS
 10
527.24603951694235
 20
155.35382860452509
 30
0.0
 11
525.35937692673986
 21
151.07264187524939
 31
0.0
  0
LINE
  5
7A3
  8
0
  6
CONTINUOUS
 10
524.26545181689778
 20
151.07264187524939
 30
0.0
 11
524.04344180411852
 21
150.66993516626269
 31
0.0
  0
LINE
  5
7A4
  8
0
  6
CONTINUOUS
 10
525.35937692673986
 20
151.07264187524939
 30
0.0
 11
525.18190938544512
 21
150.66993516626269
 31
0.0
  0
LINE
  5
7A5
  8
0
  6
CONTINUOUS
 10
524.04344180411852
 20
150.66993516626269
 30
0.0
 11
521.83529428859913
 21
146.66454906768351
 31
0.0
  0
LINE
  5
7A6
  8
0
  6
CONTINUOUS
 10
525.18190938544512
 20
150.66993516626269
 30
0.0
 11
522.97783570158037
 21
146.66454906768351
 31
0.0
  0
LINE
  5
7A7
  8
0
  6
CONTINUOUS
 10
521.83529428859913
 20
146.66454906768351
 30
0.0
 11
521.51505504197257
 21
146.1855111348857
 31
0.0
  0
LINE
  5
7A8
  8
0
  6
CONTINUOUS
 10
522.97783570158037
 20
146.66454906768351
 30
0.0
 11
522.71423192524855
 21
146.1855111348857
 31
0.0
  0
LINE
  5
7A9
  8
0
  6
CONTINUOUS
 10
521.51505504197257
 20
146.1855111348857
 30
0.0
 11
519.01697391030802
 21
142.448693633972
 31
0.0
  0
LINE
  5
7AA
  8
0
  6
CONTINUOUS
 10
522.71423192524855
 20
146.1855111348857
 30
0.0
 11
520.2204639975497
 21
142.448693633972
 31
0.0
  0
LINE
  5
7AB
  8
0
  6
CONTINUOUS
 10
519.01697391030802
 20
142.448693633972
 30
0.0
 11
518.57502434510491
 21
141.89622373122631
 31
0.0
  0
LINE
  5
7AC
  8
0
  6
CONTINUOUS
 10
520.2204639975497
 20
142.448693633972
 30
0.0
 11
519.85177279864865
 21
141.89622373122631
 31
0.0
  0
LINE
  5
7AD
  8
0
  6
CONTINUOUS
 10
518.57502434510491
 20
141.89622373122631
 30
0.0
 11
515.87263450372348
 21
138.51803497305249
 31
0.0
  0
LINE
  5
7AE
  8
0
  6
CONTINUOUS
 10
519.85177279864865
 20
141.89622373122631
 30
0.0
 11
517.1539004603062
 21
138.51803497305249
 31
0.0
  0
LINE
  5
7AF
  8
0
  6
CONTINUOUS
 10
515.87263450372348
 20
138.51803497305249
 30
0.0
 11
515.27955023192158
 21
137.8966118260268
 31
0.0
  0
LINE
  5
7B0
  8
0
  6
CONTINUOUS
 10
517.1539004603062
 20
138.51803497305249
 30
0.0
 11
516.65762259107532
 21
137.8966118260268
 31
0.0
  0
LINE
  5
7B1
  8
0
  6
CONTINUOUS
 10
515.27955023192158
 20
137.8966118260268
 30
0.0
 11
512.42299067607826
 21
134.90355955123741
 31
0.0
  0
LINE
  5
7B2
  8
0
  6
CONTINUOUS
 10
516.65762259107532
 20
137.8966118260268
 30
0.0
 11
513.80583487307445
 21
134.90355955123741
 31
0.0
  0
LINE
  5
7B3
  8
0
  6
CONTINUOUS
 10
512.42299067607826
 20
134.90355955123741
 30
0.0
 11
511.6457260608521
 21
134.2181883762016
 31
0.0
  0
LINE
  5
7B4
  8
0
  6
CONTINUOUS
 10
513.80583487307445
 20
134.90355955123741
 30
0.0
 11
513.15281149767225
 21
134.2181883762016
 31
0.0
  0
LINE
  5
7B5
  8
0
  6
CONTINUOUS
 10
511.6457260608521
 20
134.2181883762016
 30
0.0
 11
508.64732782013948
 21
131.57428090221441
 31
0.0
  0
LINE
  5
7B6
  8
0
  6
CONTINUOUS
 10
513.15281149767225
 20
134.2181883762016
 30
0.0
 11
510.15956534352398
 21
131.57428090221441
 31
0.0
  0
LINE
  5
7B7
  8
0
  6
CONTINUOUS
 10
508.64732782013948
 20
131.57428090221441
 30
0.0
 11
507.64370872679012
 21
130.82944042483641
 31
0.0
  0
LINE
  5
7B8
  8
0
  6
CONTINUOUS
 10
510.15956534352398
 20
131.57428090221441
 30
0.0
 11
509.31630932329591
 21
130.82944042483641
 31
0.0
  0
LINE
  5
7B9
  8
0
  6
CONTINUOUS
 10
506.22387355847968
 20
128.53019902598311
 30
0.0
 11
505.14811606794649
 21
127.7303679719313
 31
0.0
  0
LINE
  5
7BA
  8
0
  6
CONTINUOUS
 10
505.14811606794649
 20
127.7303679719313
 30
0.0
 11
504.54564593590692
 21
128.53019902598311
 31
0.0
  0
LINE
  5
7BB
  8
0
  6
CONTINUOUS
 10
507.64370872679012
 20
130.82944042483641
 30
0.0
 11
504.54564593590692
 21
128.53019902598311
 31
0.0
  0
LINE
  5
7BC
  8
0
  6
CONTINUOUS
 10
509.31630932329591
 20
130.82944042483641
 30
0.0
 11
506.22387355847968
 21
128.53019902598311
 31
0.0
  0
ENDBLK
  5
7BE
  8
0
  0
BLOCK
  8
0
  2
*X50
 70
     1
 10
0.0
 20
0.0
 30
0.0
  3
*X50
  1

  0
LINE
  5
7C0
  8
0
 62
     0
 10
27.808241135170771
 20
-255.00002815239611
 30
0.0
 11
52.808241135170711
 21
-255.00002815239611
 31
0.0
  0
LINE
  5
7C1
  8
0
 62
     0
 10
27.808241135170721
 20
-240.00002815239611
 30
0.0
 11
52.808241135170647
 21
-240.00002815239611
 31
0.0
  0
LINE
  5
7C2
  8
0
 62
     0
 10
27.808241135170661
 20
-225.00002815239611
 30
0.0
 11
52.808241135170597
 21
-225.00002815239611
 31
0.0
  0
LINE
  5
7C3
  8
0
 62
     0
 10
27.808241135170601
 20
-210.00002815239611
 30
0.0
 11
52.808241135170547
 21
-210.00002815239611
 31
0.0
  0
LINE
  5
7C4
  8
0
 62
     0
 10
27.80824113517054
 20
-195.00002815239611
 30
0.0
 11
52.808241135170491
 21
-195.00002815239611
 31
0.0
  0
LINE
  5
7C5
  8
0
 62
     0
 10
27.808241135170491
 20
-180.00002815239611
 30
0.0
 11
52.808241135170441
 21
-180.00002815239611
 31
0.0
  0
LINE
  5
7C6
  8
0
 62
     0
 10
27.80824113517042
 20
-165.00002815239611
 30
0.0
 11
52.808241135170391
 21
-165.00002815239611
 31
0.0
  0
LINE
  5
7C7
  8
0
 62
     0
 10
27.80824113517037
 20
-150.00002815239611
 30
0.0
 11
52.808241135170327
 21
-150.00002815239611
 31
0.0
  0
LINE
  5
7C8
  8
0
 62
     0
 10
27.808241135170309
 20
-135.00002815239611
 30
0.0
 11
52.808241135170277
 21
-135.00002815239611
 31
0.0
  0
LINE
  5
7C9
  8
0
 62
     0
 10
27.808241135170249
 20
-120.0000281523961
 30
0.0
 11
52.808241135170228
 21
-120.0000281523961
 31
0.0
  0
LINE
  5
7CA
  8
0
 62
     0
 10
27.808241135170189
 20
-105.0000281523961
 30
0.0
 11
52.808241135170171
 21
-105.0000281523961
 31
0.0
  0
LINE
  5
7CB
  8
0
 62
     0
 10
27.808241135170132
 20
-90.000028152396112
 30
0.0
 11
52.808241135170121
 21
-90.000028152396112
 31
0.0
  0
LINE
  5
7CC
  8
0
 62
     0
 10
27.808241135170078
 20
-75.000028152396112
 30
0.0
 11
52.808241135170071
 21
-75.000028152396112
 31
0.0
  0
LINE
  5
7CD
  8
0
 62
     0
 10
27.808241135170022
 20
-60.000028152396112
 30
0.0
 11
52.808241135170007
 21
-60.000028152396112
 31
0.0
  0
ENDBLK
  5
7CF
  8
0
  0
BLOCK
  8
0
  2
*U51
 70
     1
 10
0.0
 20
0.0
 30
0.0
  3
*U51
  1

  0
SOLID
  5
7D1
  8
0
  6
CONTINUOUS
 10
-226.0801556931581
 20
199.2889907214101
 30
0.0
 11
-226.08015569315819
 21
199.23012433499551
 31
0.0
 12
-213.40834379023349
 22
199.23012433499551
 32
0.0
 13
-213.40834379023349
 23
199.23012433499551
 33
0.0
210
0.0
220
0.0
230
1.0
  0
SOLID
  5
7D2
  8
0
  6
CONTINUOUS
 10
-226.08015569315819
 20
199.23012433499551
 30
0.0
 11
-226.08015569315941
 21
198.32208209382469
 31
0.0
 12
-200.88722107757971
 22
198.32208209382469
 32
0.0
 13
-200.88722107757971
 23
198.32208209382469
 33
0.0
210
0.0
220
0.0
230
1.0
  0
SOLID
  5
7D3
  8
0
  6
CONTINUOUS
 10
226.08015569315819
 20
199.23012433499551
 30
0.0
 11
213.40834379023349
 21
199.23012433499551
 31
0.0
 12
200.88722107757971
 22
198.32208209382469
 32
0.0
 13
200.88722107757971
 23
198.32208209382469
 33
0.0
210
0.0
220
0.0
230
-1.0
  0
SOLID
  5
7D4
  8
0
  6
CONTINUOUS
 10
-226.08015569315941
 20
198.32208209382469
 30
0.0
 11
-226.08015569315941
 21
198.28851245268501
 31
0.0
 12
-200.6508980992019
 22
198.28851245268501
 32
0.0
 13
-200.6508980992019
 23
198.28851245268501
 33
0.0
210
0.0
220
0.0
230
1.0
  0
SOLID
  5
7D5
  8
0
  6
CONTINUOUS
 10
226.08015569315941
 20
198.32208209382469
 30
0.0
 11
200.88722107757971
 21
198.32208209382469
 31
0.0
 12
200.6508980992019
 22
198.28851245268501
 32
0.0
 13
200.6508980992019
 23
198.28851245268501
 33
0.0
210
0.0
220
0.0
230
-1.0
  0
SOLID
  5
7D6
  8
0
  6
CONTINUOUS
 10
-226.08015569315941
 20
198.28851245268501
 30
0.0
 11
-213.5207757558384
 21
198.2338912431689
 31
0.0
 12
-200.26637665431309
 22
198.2338912431689
 32
0.0
 13
-200.26637665431309
 23
198.2338912431689
 33
0.0
210
0.0
220
0.0
230
1.0
  0
SOLID
  5
7D7
  8
0
  6
CONTINUOUS
 10
226.08015569315941
 20
198.28851245268501
 30
0.0
 11
200.6508980992019
 21
198.28851245268501
 31
0.0
 12
200.26637665431309
 22
198.2338912431689
 32
0.0
 13
200.26637665431309
 23
198.2338912431689
 33
0.0
210
0.0
220
0.0
230
-1.0
  0
SOLID
  5
7D8
  8
0
  6
CONTINUOUS
 10
259.7615095583547
 20
199.1954691024626
 30
0.0
 11
247.92901746715771
 21
198.19804548334659
 31
0.0
 12
287.17922639653437
 22
198.19804548334659
 32
0.0
 13
287.17922639653437
 23
198.19804548334659
 33
0.0
210
0.0
220
0.0
230
1.0
  0
SOLID
  5
7D9
  8
0
  6
CONTINUOUS
 10
-259.7615095583547
 20
199.1954691024626
 30
0.0
 11
-275.34673430533718
 21
199.1954691024626
 31
0.0
 12
-287.17922639653437
 22
198.19804548334659
 32
0.0
 13
-287.17922639653437
 23
198.19804548334659
 33
0.0
210
0.0
220
0.0
230
-1.0
  0
SOLID
  5
7DA
  8
0
  6
CONTINUOUS
 10
15.761509558354589
 20
199.1954691024626
 30
0.0
 11
3.9290174671575069
 21
198.19804548334659
 31
0.0
 12
43.179226396534133
 22
198.19804548334659
 32
0.0
 13
43.179226396534133
 23
198.19804548334659
 33
0.0
  0
SOLID
  5
7DB
  8
0
  6
CONTINUOUS
 10
-15.761509558354589
 20
199.1954691024626
 30
0.0
 11
-31.346734305337009
 21
199.1954691024626
 31
0.0
 12
-43.179226396534133
 22
198.19804548334659
 32
0.0
 13
-43.179226396534133
 23
198.19804548334659
 33
0.0
210
0.0
220
0.0
230
-1.0
  0
SOLID
  5
7DC
  8
0
  6
CONTINUOUS
 10
275.27214449916318
 20
198.19804548334659
 30
0.0
 11
278.87294133808427
 21
197.89573765037409
 31
0.0
 12
290.76552110040831
 22
197.89573765037409
 32
0.0
 13
290.76552110040831
 23
197.89573765037409
 33
0.0
210
0.0
220
0.0
230
1.0
  0
SOLID
  5
7DD
  8
0
  6
CONTINUOUS
 10
-275.27214449916318
 20
198.19804548334659
 30
0.0
 11
-287.17922639653437
 21
198.19804548334659
 31
0.0
 12
-290.76552110040831
 22
197.89573765037409
 32
0.0
 13
-290.76552110040831
 23
197.89573765037409
 33
0.0
210
0.0
220
0.0
230
-1.0
  0
SOLID
  5
7DE
  8
0
  6
CONTINUOUS
 10
247.92901746715771
 20
198.19804548334659
 30
0.0
 11
244.3427227632838
 21
197.89573765037409
 31
0.0
 12
256.23530252560698
 22
197.89573765037409
 32
0.0
 13
256.23530252560698
 23
197.89573765037409
 33
0.0
210
0.0
220
0.0
230
1.0
  0
SOLID
  5
7DF
  8
0
  6
CONTINUOUS
 10
-247.92901746715771
 20
198.19804548334659
 30
0.0
 11
-259.8360993645278
 21
198.19804548334659
 31
0.0
 12
-256.23530252560698
 22
197.89573765037409
 32
0.0
 13
-256.23530252560698
 23
197.89573765037409
 33
0.0
210
0.0
220
0.0
230
-1.0
  0
SOLID
  5
7E0
  8
0
  6
CONTINUOUS
 10
31.272144499163169
 20
198.19804548334659
 30
0.0
 11
34.87294133808421
 21
197.89573765037409
 31
0.0
 12
46.76552110040808
 22
197.89573765037409
 32
0.0
 13
46.76552110040808
 23
197.89573765037409
 33
0.0
210
0.0
220
0.0
230
1.0
  0
SOLID
  5
7E1
  8
0
  6
CONTINUOUS
 10
-31.272144499163169
 20
198.19804548334659
 30
0.0
 11
-43.179226396534133
 21
198.19804548334659
 31
0.0
 12
-46.76552110040808
 22
197.89573765037409
 32
0.0
 13
-46.76552110040808
 23
197.89573765037409
 33
0.0
210
0.0
220
0.0
230
-1.0
  0
SOLID
  5
7E2
  8
0
  6
CONTINUOUS
 10
3.9290174671575069
 20
198.19804548334659
 30
0.0
 11
0.3427227632835752
 21
197.89573765037409
 31
0.0
 12
12.235302525606921
 22
197.89573765037409
 32
0.0
 13
12.235302525606921
 23
197.89573765037409
 33
0.0
210
0.0
220
0.0
230
1.0
  0
SOLID
  5
7E3
  8
0
  6
CONTINUOUS
 10
-3.9290174671575069
 20
198.19804548334659
 30
0.0
 11
-15.83609936452774
 21
198.19804548334659
 31
0.0
 12
-12.235302525606921
 22
197.89573765037409
 32
0.0
 13
-12.235302525606921
 23
197.89573765037409
 33
0.0
210
0.0
220
0.0
230
-1.0
  0
SOLID
  5
7E4
  8
0
  6
CONTINUOUS
 10
-213.5207757558384
 20
198.2338912431689
 30
0.0
 11
-201.1095292851121
 21
197.34027568504621
 31
0.0
 12
-193.9755173227677
 22
197.34027568504621
 32
0.0
 13
-193.9755173227677
 23
197.34027568504621
 33
0.0
210
0.0
220
0.0
230
1.0
  0
SOLID
  5
7E5
  8
0
  6
CONTINUOUS
 10
213.5207757558384
 20
198.2338912431689
 30
0.0
 11
200.26637665431309
 21
198.2338912431689
 31
0.0
 12
193.9755173227677
 22
197.34027568504621
 32
0.0
 13
193.9755173227677
 23
197.34027568504621
 33
0.0
210
0.0
220
0.0
230
-1.0
  0
SOLID
  5
7E6
  8
0
  6
CONTINUOUS
 10
278.87294133808427
 20
197.89573765037409
 30
0.0
 11
290.5446727083106
 21
196.9158279316608
 31
0.0
 12
296.47331381264462
 22
196.9158279316608
 32
0.0
 13
296.47331381264462
 23
196.9158279316608
 33
0.0
210
0.0
220
0.0
230
1.0
  0
SOLID
  5
7E7
  8
0
  6
CONTINUOUS
 10
-278.87294133808427
 20
197.89573765037409
 30
0.0
 11
-290.76552110040831
 21
197.89573765037409
 31
0.0
 12
-296.47331381264462
 22
196.9158279316608
 32
0.0
 13
-296.47331381264462
 23
196.9158279316608
 33
0.0
210
0.0
220
0.0
230
-1.0
  0
SOLID
  5
7E8
  8
0
  6
CONTINUOUS
 10
244.3427227632838
 20
197.89573765037409
 30
0.0
 11
238.6349300510476
 21
196.9158279316608
 31
0.0
 12
244.5635711553816
 22
196.9158279316608
 32
0.0
 13
244.5635711553816
 23
196.9158279316608
 33
0.0
210
0.0
220
0.0
230
1.0
  0
SOLID
  5
7E9
  8
0
  6
CONTINUOUS
 10
-244.3427227632838
 20
197.89573765037409
 30
0.0
 11
-256.23530252560698
 21
197.89573765037409
 31
0.0
 12
-244.5635711553816
 22
196.9158279316608
 32
0.0
 13
-244.5635711553816
 23
196.9158279316608
 33
0.0
210
0.0
220
0.0
230
-1.0
  0
SOLID
  5
7EA
  8
0
  6
CONTINUOUS
 10
34.87294133808421
 20
197.89573765037409
 30
0.0
 11
46.544672708310472
 21
196.9158279316608
 31
0.0
 12
52.473313812644228
 22
196.9158279316608
 32
0.0
 13
52.473313812644228
 23
196.9158279316608
 33
0.0
210
0.0
220
0.0
230
1.0
  0
SOLID
  5
7EB
  8
0
  6
CONTINUOUS
 10
-34.87294133808421
 20
197.89573765037409
 30
0.0
 11
-46.76552110040808
 21
197.89573765037409
 31
0.0
 12
-52.473313812644228
 22
196.9158279316608
 32
0.0
 13
-52.473313812644228
 23
196.9158279316608
 33
0.0
210
0.0
220
0.0
230
-1.0
  0
SOLID
  5
7EC
  8
0
  6
CONTINUOUS
 10
0.3427227632835752
 20
197.89573765037409
 30
0.0
 11
-5.3650699489525753
 21
196.9158279316608
 31
0.0
 12
0.5635711553813964
 22
196.9158279316608
 32
0.0
 13
0.5635711553813964
 23
196.9158279316608
 33
0.0
210
0.0
220
0.0
230
1.0
  0
SOLID
  5
7ED
  8
0
  6
CONTINUOUS
 10
-0.3427227632835752
 20
197.89573765037409
 30
0.0
 11
-12.235302525606921
 21
197.89573765037409
 31
0.0
 12
-0.5635711553813964
 22
196.9158279316608
 32
0.0
 13
-0.5635711553813964
 23
196.9158279316608
 33
0.0
210
0.0
220
0.0
230
-1.0
  0
SOLID
  5
7EE
  8
0
  6
CONTINUOUS
 10
-201.1095292851121
 20
197.34027568504621
 30
0.0
 11
-195.6212995876495
 21
196.5648639978975
 31
0.0
 12
-188.5167875551964
 22
196.5648639978975
 32
0.0
 13
-188.5167875551964
 23
196.5648639978975
 33
0.0
210
0.0
220
0.0
230
1.0
  0
SOLID
  5
7EF
  8
0
  6
CONTINUOUS
 10
201.1095292851121
 20
197.34027568504621
 30
0.0
 11
193.9755173227677
 21
197.34027568504621
 31
0.0
 12
188.5167875551964
 22
196.5648639978975
 32
0.0
 13
188.5167875551964
 23
196.5648639978975
 33
0.0
210
0.0
220
0.0
230
-1.0
  0
SOLID
  5
7F0
  8
0
  6
CONTINUOUS
 10
-195.6212995876495
 20
196.5648639978975
 30
0.0
 11
-188.84641628098061
 21
195.607665778317
 31
0.0
 12
-184.0290862561049
 22
195.607665778317
 32
0.0
 13
-184.0290862561049
 23
195.607665778317
 33
0.0
210
0.0
220
0.0
230
1.0
  0
SOLID
  5
7F1
  8
0
  6
CONTINUOUS
 10
195.6212995876495
 20
196.5648639978975
 30
0.0
 11
188.5167875551964
 21
196.5648639978975
 31
0.0
 12
184.0290862561049
 22
195.607665778317
 32
0.0
 13
184.0290862561049
 23
195.607665778317
 33
0.0
210
0.0
220
0.0
230
-1.0
  0
SOLID
  5
7F2
  8
0
  6
CONTINUOUS
 10
290.54467270830941
 20
196.9158279316608
 30
0.0
 11
300.01783026648633
 21
195.2962747461971
 31
0.0
 12
305.9069113089605
 22
195.2962747461971
 32
0.0
 13
305.9069113089605
 23
195.2962747461971
 33
0.0
210
0.0
220
0.0
230
1.0
  0
SOLID
  5
7F3
  8
0
  6
CONTINUOUS
 10
-290.54467270830941
 20
196.9158279316608
 30
0.0
 11
-296.47331381264462
 21
196.9158279316608
 31
0.0
 12
-305.9069113089605
 22
195.2962747461971
 32
0.0
 13
-305.9069113089605
 23
195.2962747461971
 33
0.0
210
0.0
220
0.0
230
-1.0
  0
SOLID
  5
7F4
  8
0
  6
CONTINUOUS
 10
238.6349300510476
 20
196.9158279316608
 30
0.0
 11
229.20133255473189
 21
195.2962747461971
 31
0.0
 12
235.0904135972057
 22
195.2962747461971
 32
0.0
 13
235.0904135972057
 23
195.2962747461971
 33
0.0
210
0.0
220
0.0
230
1.0
  0
SOLID
  5
7F5
  8
0
  6
CONTINUOUS
 10
-238.6349300510476
 20
196.9158279316608
 30
0.0
 11
-244.5635711553816
 21
196.9158279316608
 31
0.0
 12
-235.0904135972057
 22
195.2962747461971
 32
0.0
 13
-235.0904135972057
 23
195.2962747461971
 33
0.0
210
0.0
220
0.0
230
-1.0
  0
SOLID
  5
7F6
  8
0
  6
CONTINUOUS
 10
46.544672708309257
 20
196.9158279316608
 30
0.0
 11
56.017830266486037
 21
195.2962747461971
 31
0.0
 12
61.906911308959927
 22
195.2962747461971
 32
0.0
 13
61.906911308959927
 23
195.2962747461971
 33
0.0
  0
SOLID
  5
7F7
  8
0
  6
CONTINUOUS
 10
-46.544672708309257
 20
196.9158279316608
 30
0.0
 11
-52.473313812644228
 21
196.9158279316608
 31
0.0
 12
-61.906911308959927
 22
195.2962747461971
 32
0.0
 13
-61.906911308959927
 23
195.2962747461971
 33
0.0
210
0.0
220
0.0
230
-1.0
  0
SOLID
  5
7F8
  8
0
  6
CONTINUOUS
 10
-5.3650699489525753
 20
196.9158279316608
 30
0.0
 11
-14.798667445268279
 21
195.2962747461971
 31
0.0
 12
-8.9095864027945009
 22
195.2962747461971
 32
0.0
 13
-8.9095864027945009
 23
195.2962747461971
 33
0.0
210
0.0
220
0.0
230
1.0
  0
SOLID
  5
7F9
  8
0
  6
CONTINUOUS
 10
5.3650699489525753
 20
196.9158279316608
 30
0.0
 11
-0.5635711553813964
 21
196.9158279316608
 31
0.0
 12
8.9095864027945009
 22
195.2962747461971
 32
0.0
 13
8.9095864027945009
 23
195.2962747461971
 33
0.0
210
0.0
220
0.0
230
-1.0
  0
SOLID
  5
7FA
  8
0
  6
CONTINUOUS
 10
300.01783026648633
 20
195.2962747461971
 30
0.0
 11
305.54467270831123
 21
194.35139282828931
 31
0.0
 12
309.53575365843108
 22
194.35139282828931
 32
0.0
 13
309.53575365843108
 23
194.35139282828931
 33
0.0
210
0.0
220
0.0
230
1.0
  0
SOLID
  5
7FB
  8
0
  6
CONTINUOUS
 10
-300.01783026648633
 20
195.2962747461971
 30
0.0
 11
-305.90691130896039
 21
195.2962747461971
 31
0.0
 12
-309.53575365843108
 22
194.35139282828931
 32
0.0
 13
-309.53575365843108
 23
194.35139282828931
 33
0.0
210
0.0
220
0.0
230
-1.0
  0
SOLID
  5
7FC
  8
0
  6
CONTINUOUS
 10
229.20133255473189
 20
195.2962747461971
 30
0.0
 11
225.5724902052612
 21
194.35139282828931
 31
0.0
 12
229.5635711553814
 22
194.35139282828931
 32
0.0
 13
229.5635711553814
 23
194.35139282828931
 33
0.0
210
0.0
220
0.0
230
1.0
  0
SOLID
  5
7FD
  8
0
  6
CONTINUOUS
 10
-229.20133255473189
 20
195.2962747461971
 30
0.0
 11
-235.0904135972057
 21
195.2962747461971
 31
0.0
 12
-229.5635711553814
 22
194.35139282828931
 32
0.0
 13
-229.5635711553814
 23
194.35139282828931
 33
0.0
210
0.0
220
0.0
230
-1.0
  0
SOLID
  5
7FE
  8
0
  6
CONTINUOUS
 10
56.017830266486037
 20
195.2962747461971
 30
0.0
 11
61.54467270831082
 21
194.35139282828931
 31
0.0
 12
65.535753658430608
 22
194.35139282828931
 32
0.0
 13
65.535753658430608
 23
194.35139282828931
 33
0.0
210
0.0
220
0.0
230
1.0
  0
SOLID
  5
7FF
  8
0
  6
CONTINUOUS
 10
-56.017830266486037
 20
195.2962747461971
 30
0.0
 11
-61.906911308959927
 21
195.2962747461971
 31
0.0
 12
-65.535753658430608
 22
194.35139282828931
 32
0.0
 13
-65.535753658430608
 23
194.35139282828931
 33
0.0
210
0.0
220
0.0
230
-1.0
  0
SOLID
  5
800
  8
0
  6
CONTINUOUS
 10
-14.798667445268279
 20
195.2962747461971
 30
0.0
 11
-18.427509794738949
 21
194.35139282828931
 31
0.0
 12
-14.436428844618771
 22
194.35139282828931
 32
0.0
 13
-14.436428844618771
 23
194.35139282828931
 33
0.0
210
0.0
220
0.0
230
1.0
  0
SOLID
  5
801
  8
0
  6
CONTINUOUS
 10
14.798667445268279
 20
195.2962747461971
 30
0.0
 11
8.9095864027945009
 21
195.2962747461971
 31
0.0
 12
14.436428844618771
 22
194.35139282828931
 32
0.0
 13
14.436428844618771
 23
194.35139282828931
 33
0.0
210
0.0
220
0.0
230
-1.0
  0
SOLID
  5
802
  8
0
  6
CONTINUOUS
 10
-188.84641628098061
 20
195.607665778317
 30
0.0
 11
-181.0769577827495
 21
193.95847004721401
 31
0.0
 12
-176.2970432230841
 22
193.95847004721401
 32
0.0
 13
-176.2970432230841
 23
193.95847004721401
 33
0.0
210
0.0
220
0.0
230
1.0
  0
SOLID
  5
803
  8
0
  6
CONTINUOUS
 10
188.84641628098061
 20
195.607665778317
 30
0.0
 11
184.0290862561049
 21
195.607665778317
 31
0.0
 12
176.2970432230841
 22
193.95847004721401
 32
0.0
 13
176.2970432230841
 23
193.95847004721401
 33
0.0
210
0.0
220
0.0
230
-1.0
  0
SOLID
  5
804
  8
0
  6
CONTINUOUS
 10
-181.0769577827495
 20
193.95847004721401
 30
0.0
 11
-176.73143674344391
 21
193.03606152298121
 31
0.0
 12
-173.07540396557431
 22
193.03606152298121
 32
0.0
 13
-173.07540396557431
 23
193.03606152298121
 33
0.0
210
0.0
220
0.0
230
1.0
  0
SOLID
  5
805
  8
0
  6
CONTINUOUS
 10
181.0769577827495
 20
193.95847004721401
 30
0.0
 11
176.2970432230841
 21
193.95847004721401
 31
0.0
 12
173.07540396557431
 22
193.03606152298121
 32
0.0
 13
173.07540396557431
 23
193.03606152298121
 33
0.0
210
0.0
220
0.0
230
-1.0
  0
SOLID
  5
806
  8
0
  6
CONTINUOUS
 10
305.5446727083102
 20
194.35139282828931
 30
0.0
 11
316.93941260791871
 21
191.39708038993169
 31
0.0
 12
320.88186356560078
 22
191.39708038993169
 32
0.0
 13
320.88186356560078
 23
191.39708038993169
 33
0.0
210
0.0
220
0.0
230
1.0
  0
SOLID
  5
807
  8
0
  6
CONTINUOUS
 10
-305.5446727083102
 20
194.35139282828931
 30
0.0
 11
-309.53575365843108
 21
194.35139282828931
 31
0.0
 12
-320.88186356560078
 22
191.39708038993169
 32
0.0
 13
-320.88186356560078
 23
191.39708038993169
 33
0.0
210
0.0
220
0.0
230
-1.0
  0
SOLID
  5
808
  8
0
  6
CONTINUOUS
 10
225.5724902052612
 20
194.35139282828931
 30
0.0
 11
214.2263802980915
 21
191.39708038993169
 31
0.0
 12
218.16883125577351
 22
191.39708038993169
 32
0.0
 13
218.16883125577351
 23
191.39708038993169
 33
0.0
210
0.0
220
0.0
230
1.0
  0
SOLID
  5
809
  8
0
  6
CONTINUOUS
 10
-225.5724902052612
 20
194.35139282828931
 30
0.0
 11
-229.5635711553814
 21
194.35139282828931
 31
0.0
 12
-218.16883125577351
 22
191.39708038993169
 32
0.0
 13
-218.16883125577351
 23
191.39708038993169
 33
0.0
210
0.0
220
0.0
230
-1.0
  0
SOLID
  5
80A
  8
0
  6
CONTINUOUS
 10
61.544672708309967
 20
194.35139282828931
 30
0.0
 11
72.939412607918555
 21
191.39708038993169
 31
0.0
 12
76.881863565600327
 22
191.39708038993169
 32
0.0
 13
76.881863565600327
 23
191.39708038993169
 33
0.0
210
0.0
220
0.0
230
1.0
  0
SOLID
  5
80B
  8
0
  6
CONTINUOUS
 10
-61.544672708309967
 20
194.35139282828931
 30
0.0
 11
-65.535753658430608
 21
194.35139282828931
 31
0.0
 12
-76.881863565600327
 22
191.39708038993169
 32
0.0
 13
-76.881863565600327
 23
191.39708038993169
 33
0.0
210
0.0
220
0.0
230
-1.0
  0
SOLID
  5
80C
  8
0
  6
CONTINUOUS
 10
-18.427509794738949
 20
194.35139282828931
 30
0.0
 11
-29.773619701908672
 21
191.39708038993169
 31
0.0
 12
-25.831168744226641
 22
191.39708038993169
 32
0.0
 13
-25.831168744226641
 23
191.39708038993169
 33
0.0
  0
SOLID
  5
80D
  8
0
  6
CONTINUOUS
 10
18.427509794738949
 20
194.35139282828931
 30
0.0
 11
14.436428844618771
 21
194.35139282828931
 31
0.0
 12
25.831168744226641
 22
191.39708038993169
 32
0.0
 13
25.831168744226641
 23
191.39708038993169
 33
0.0
210
0.0
220
0.0
230
-1.0
  0
SOLID
  5
80E
  8
0
  6
CONTINUOUS
 10
316.93941260791871
 20
191.39708038993169
 30
0.0
 11
320.38115578282338
 21
190.50474017323211
 31
0.0
 12
323.4235872506066
 22
190.50474017323211
 32
0.0
 13
323.4235872506066
 23
190.50474017323211
 33
0.0
210
0.0
220
0.0
230
1.0
  0
SOLID
  5
80F
  8
0
  6
CONTINUOUS
 10
-316.93941260791871
 20
191.39708038993169
 30
0.0
 11
-320.88186356560072
 21
191.39708038993169
 31
0.0
 12
-323.4235872506066
 22
190.50474017323211
 32
0.0
 13
-323.4235872506066
 23
190.50474017323211
 33
0.0
210
0.0
220
0.0
230
-1.0
  0
SOLID
  5
810
  8
0
  6
CONTINUOUS
 10
214.2263802980915
 20
191.39708038993169
 30
0.0
 11
211.68465661308551
 21
190.50474017323211
 31
0.0
 12
214.72708808086901
 22
190.50474017323211
 32
0.0
 13
214.72708808086901
 23
190.50474017323211
 33
0.0
210
0.0
220
0.0
230
1.0
  0
SOLID
  5
811
  8
0
  6
CONTINUOUS
 10
-214.2263802980915
 20
191.39708038993169
 30
0.0
 11
-218.16883125577351
 21
191.39708038993169
 31
0.0
 12
-214.72708808086901
 22
190.50474017323211
 32
0.0
 13
-214.72708808086901
 23
190.50474017323211
 33
0.0
210
0.0
220
0.0
230
-1.0
  0
SOLID
  5
812
  8
0
  6
CONTINUOUS
 10
72.939412607918555
 20
191.39708038993169
 30
0.0
 11
76.381155782823242
 21
190.50474017323211
 31
0.0
 12
79.423587250606346
 22
190.50474017323211
 32
0.0
 13
79.423587250606346
 23
190.50474017323211
 33
0.0
210
0.0
220
0.0
230
1.0
  0
SOLID
  5
813
  8
0
  6
CONTINUOUS
 10
-72.939412607918555
 20
191.39708038993169
 30
0.0
 11
-76.881863565600327
 21
191.39708038993169
 31
0.0
 12
-79.423587250606346
 22
190.50474017323211
 32
0.0
 13
-79.423587250606346
 23
190.50474017323211
 33
0.0
210
0.0
220
0.0
230
-1.0
  0
SOLID
  5
814
  8
0
  6
CONTINUOUS
 10
-29.773619701908672
 20
191.39708038993169
 30
0.0
 11
-32.315343386914734
 21
190.50474017323211
 31
0.0
 12
-29.272911919131111
 22
190.50474017323211
 32
0.0
 13
-29.272911919131111
 23
190.50474017323211
 33
0.0
  0
SOLID
  5
815
  8
0
  6
CONTINUOUS
 10
29.773619701908672
 20
191.39708038993169
 30
0.0
 11
25.831168744226641
 21
191.39708038993169
 31
0.0
 12
29.272911919131111
 22
190.50474017323211
 32
0.0
 13
29.272911919131111
 23
190.50474017323211
 33
0.0
210
0.0
220
0.0
230
-1.0
  0
SOLID
  5
816
  8
0
  6
CONTINUOUS
 10
-176.73143674344391
 20
193.03606152298121
 30
0.0
 11
-167.84327526644259
 21
190.5029002417742
 31
0.0
 12
-164.22798808124219
 22
190.5029002417742
 32
0.0
 13
-164.22798808124219
 23
190.5029002417742
 33
0.0
  0
SOLID
  5
817
  8
0
  6
CONTINUOUS
 10
176.73143674344391
 20
193.03606152298121
 30
0.0
 11
173.07540396557431
 21
193.03606152298121
 31
0.0
 12
164.22798808124219
 22
190.5029002417742
 32
0.0
 13
164.22798808124219
 23
190.5029002417742
 33
0.0
210
0.0
220
0.0
230
-1.0
  0
SOLID
  5
818
  8
0
  6
CONTINUOUS
 10
-167.84327526644259
 20
190.5029002417742
 30
0.0
 11
-164.76459067250229
 21
189.62546291903891
 31
0.0
 12
-161.7986647396516
 22
189.62546291903891
 32
0.0
 13
-161.7986647396516
 23
189.62546291903891
 33
0.0
210
0.0
220
0.0
230
1.0
  0
SOLID
  5
819
  8
0
  6
CONTINUOUS
 10
167.84327526644259
 20
190.5029002417742
 30
0.0
 11
164.22798808124219
 21
190.5029002417742
 31
0.0
 12
161.7986647396516
 22
189.62546291903891
 32
0.0
 13
161.7986647396516
 23
189.62546291903891
 33
0.0
210
0.0
220
0.0
230
-1.0
  0
SOLID
  5
81A
  8
0
  6
CONTINUOUS
 10
320.3811557828227
 20
190.50474017323211
 30
0.0
 11
332.70168292760093
 21
186.198154581578
 31
0.0
 12
335.69037787032948
 22
186.198154581578
 32
0.0
 13
335.69037787032948
 23
186.198154581578
 33
0.0
210
0.0
220
0.0
230
1.0
  0
SOLID
  5
81B
  8
0
  6
CONTINUOUS
 10
-320.3811557828227
 20
190.50474017323211
 30
0.0
 11
-323.4235872506066
 21
190.50474017323211
 31
0.0
 12
-335.69037787032948
 22
186.198154581578
 32
0.0
 13
-335.69037787032948
 23
186.198154581578
 33
0.0
210
0.0
220
0.0
230
-1.0
  0
SOLID
  5
81C
  8
0
  6
CONTINUOUS
 10
211.68465661308551
 20
190.50474017323211
 30
0.0
 11
199.41786599336271
 21
186.198154581578
 31
0.0
 12
202.4065609360913
 22
186.198154581578
 32
0.0
 13
202.4065609360913
 23
186.198154581578
 33
0.0
210
0.0
220
0.0
230
1.0
  0
SOLID
  5
81D
  8
0
  6
CONTINUOUS
 10
-211.68465661308551
 20
190.50474017323211
 30
0.0
 11
-214.72708808086901
 21
190.50474017323211
 31
0.0
 12
-202.4065609360913
 22
186.198154581578
 32
0.0
 13
-202.4065609360913
 23
186.198154581578
 33
0.0
210
0.0
220
0.0
230
-1.0
  0
SOLID
  5
81E
  8
0
  6
CONTINUOUS
 10
76.381155782822617
 20
190.50474017323211
 30
0.0
 11
88.7016829276007
 21
186.198154581578
 31
0.0
 12
91.690377870329243
 22
186.198154581578
 32
0.0
 13
91.690377870329243
 23
186.198154581578
 33
0.0
210
0.0
220
0.0
230
1.0
  0
SOLID
  5
81F
  8
0
  6
CONTINUOUS
 10
-76.381155782822617
 20
190.50474017323211
 30
0.0
 11
-79.423587250606346
 21
190.50474017323211
 31
0.0
 12
-91.690377870329243
 22
186.198154581578
 32
0.0
 13
-91.690377870329243
 23
186.198154581578
 33
0.0
210
0.0
220
0.0
230
-1.0
  0
SOLID
  5
820
  8
0
  6
CONTINUOUS
 10
-32.315343386914734
 20
190.50474017323211
 30
0.0
 11
-44.582134006637837
 21
186.198154581578
 31
0.0
 12
-41.59343906390891
 22
186.198154581578
 32
0.0
 13
-41.59343906390891
 23
186.198154581578
 33
0.0
210
0.0
220
0.0
230
1.0
  0
SOLID
  5
821
  8
0
  6
CONTINUOUS
 10
32.315343386914734
 20
190.50474017323211
 30
0.0
 11
29.272911919131111
 21
190.50474017323211
 31
0.0
 12
41.59343906390891
 22
186.198154581578
 32
0.0
 13
41.59343906390891
 23
186.198154581578
 33
0.0
210
0.0
220
0.0
230
-1.0
  0
SOLID
  5
822
  8
0
  6
CONTINUOUS
 10
-164.76459067250229
 20
189.62546291903891
 30
0.0
 11
-155.2327666368289
 21
186.198154581578
 31
0.0
 12
-152.3096221296708
 22
186.198154581578
 32
0.0
 13
-152.3096221296708
 23
186.198154581578
 33
0.0
210
0.0
220
0.0
230
1.0
  0
SOLID
  5
823
  8
0
  6
CONTINUOUS
 10
164.76459067250229
 20
189.62546291903891
 30
0.0
 11
161.7986647396516
 21
189.62546291903891
 31
0.0
 12
152.3096221296708
 22
186.198154581578
 32
0.0
 13
152.3096221296708
 23
186.198154581578
 33
0.0
210
0.0
220
0.0
230
-1.0
  0
SOLID
  5
824
  8
0
  6
CONTINUOUS
 10
332.70168292760093
 20
186.198154581578
 30
0.0
 11
335.05412193184799
 21
185.37586996648909
 31
0.0
 12
336.2962717972369
 22
185.37586996648909
 32
0.0
 13
336.2962717972369
 23
185.37586996648909
 33
0.0
210
0.0
220
0.0
230
1.0
  0
SOLID
  5
825
  8
0
  6
CONTINUOUS
 10
-332.70168292760093
 20
186.198154581578
 30
0.0
 11
-335.69037787032931
 21
186.198154581578
 31
0.0
 12
-336.2962717972369
 22
185.37586996648909
 32
0.0
 13
-336.2962717972369
 23
185.37586996648909
 33
0.0
210
0.0
220
0.0
230
-1.0
  0
SOLID
  5
826
  8
0
  6
CONTINUOUS
 10
199.41786599336271
 20
186.198154581578
 30
0.0
 11
198.81197206645521
 21
185.37586996648909
 31
0.0
 12
200.05412193184429
 22
185.37586996648909
 32
0.0
 13
200.05412193184429
 23
185.37586996648909
 33
0.0
210
0.0
220
0.0
230
1.0
  0
SOLID
  5
827
  8
0
  6
CONTINUOUS
 10
-199.41786599336271
 20
186.198154581578
 30
0.0
 11
-202.4065609360913
 21
186.198154581578
 31
0.0
 12
-200.05412193184429
 22
185.37586996648909
 32
0.0
 13
-200.05412193184429
 23
185.37586996648909
 33
0.0
210
0.0
220
0.0
230
-1.0
  0
SOLID
  5
828
  8
0
  6
CONTINUOUS
 10
88.7016829276007
 20
186.198154581578
 30
0.0
 11
91.054121931847831
 21
185.37586996648909
 31
0.0
 12
92.296271797236855
 22
185.37586996648909
 32
0.0
 13
92.296271797236855
 23
185.37586996648909
 33
0.0
210
0.0
220
0.0
230
1.0
  0
SOLID
  5
829
  8
0
  6
CONTINUOUS
 10
-88.7016829276007
 20
186.198154581578
 30
0.0
 11
-91.690377870329243
 21
186.198154581578
 31
0.0
 12
-92.296271797236855
 22
185.37586996648909
 32
0.0
 13
-92.296271797236855
 23
185.37586996648909
 33
0.0
210
0.0
220
0.0
230
-1.0
  0
SOLID
  5
82A
  8
0
  6
CONTINUOUS
 10
-44.582134006637659
 20
186.198154581578
 30
0.0
 11
-45.188027933545179
 21
185.37586996648909
 31
0.0
 12
-43.945878068155977
 22
185.37586996648909
 32
0.0
 13
-43.945878068155977
 23
185.37586996648909
 33
0.0
210
0.0
220
0.0
230
1.0
  0
SOLID
  5
82B
  8
0
  6
CONTINUOUS
 10
44.582134006637659
 20
186.198154581578
 30
0.0
 11
41.59343906390891
 21
186.198154581578
 31
0.0
 12
43.945878068155977
 22
185.37586996648909
 32
0.0
 13
43.945878068155977
 23
185.37586996648909
 33
0.0
210
0.0
220
0.0
230
-1.0
  0
SOLID
  5
82C
  8
0
  6
CONTINUOUS
 10
-155.2327666368289
 20
186.198154581578
 30
0.0
 11
-152.9458780681525
 21
185.37586996648909
 31
0.0
 12
-151.70372820276339
 22
185.37586996648909
 32
0.0
 13
-151.70372820276339
 23
185.37586996648909
 33
0.0
210
0.0
220
0.0
230
1.0
  0
SOLID
  5
82D
  8
0
  6
CONTINUOUS
 10
155.2327666368289
 20
186.198154581578
 30
0.0
 11
152.309622129671
 21
186.198154581578
 31
0.0
 12
151.70372820276339
 22
185.37586996648909
 32
0.0
 13
151.70372820276339
 23
185.37586996648909
 33
0.0
210
0.0
220
0.0
230
-1.0
  0
SOLID
  5
82E
  8
0
  6
CONTINUOUS
 10
436.9000000000006
 20
185.59412692079559
 30
0.0
 11
436.9000000000006
 21
179.47071883921359
 31
0.0
 12
437.9000000000006
 22
179.47071883921359
 32
0.0
 13
437.9000000000006
 23
179.47071883921359
 33
0.0
210
0.0
220
0.0
230
1.0
  0
SOLID
  5
82F
  8
0
  6
CONTINUOUS
 10
-436.9000000000006
 20
185.59412692079559
 30
0.0
 11
-437.9000000000006
 21
185.59412692079559
 31
0.0
 12
-437.9000000000006
 22
179.47071883921359
 32
0.0
 13
-437.9000000000006
 23
179.47071883921359
 33
0.0
210
0.0
220
0.0
230
-1.0
  0
SOLID
  5
830
  8
0
  6
CONTINUOUS
 10
436.9000000000006
 20
179.47071883921359
 30
0.0
 11
436.81890768938371
 21
178.73257810103769
 31
0.0
 12
437.81890768938359
 22
178.73257810103769
 32
0.0
 13
437.81890768938359
 23
178.73257810103769
 33
0.0
210
0.0
220
0.0
230
1.0
  0
SOLID
  5
831
  8
0
  6
CONTINUOUS
 10
-436.9000000000006
 20
179.47071883921359
 30
0.0
 11
-437.9000000000006
 21
179.47071883921359
 31
0.0
 12
-437.81890768938359
 22
178.73257810103769
 32
0.0
 13
-437.81890768938359
 23
178.73257810103769
 33
0.0
210
0.0
220
0.0
230
-1.0
  0
SOLID
  5
832
  8
0
  6
CONTINUOUS
 10
436.81890768938371
 20
178.73257810103769
 30
0.0
 11
436.74496625344352
 21
178.51547788392719
 31
0.0
 12
437.79505700979041
 22
178.51547788392719
 32
0.0
 13
437.79505700979041
 23
178.51547788392719
 33
0.0
210
0.0
220
0.0
230
1.0
  0
SOLID
  5
833
  8
0
  6
CONTINUOUS
 10
-436.81890768938371
 20
178.73257810103769
 30
0.0
 11
-437.81890768938359
 21
178.73257810103769
 31
0.0
 12
-437.79505700979041
 22
178.51547788392719
 32
0.0
 13
-437.79505700979041
 23
178.51547788392719
 33
0.0
210
0.0
220
0.0
230
-1.0
  0
SOLID
  5
834
  8
0
  6
CONTINUOUS
 10
436.74496625344352
 20
178.51547788392719
 30
0.0
 11
436.57949897096847
 21
178.02964767934381
 31
0.0
 12
437.62958972731531
 22
178.02964767934381
 32
0.0
 13
437.62958972731531
 23
178.02964767934381
 33
0.0
210
0.0
220
0.0
230
1.0
  0
SOLID
  5
835
  8
0
  6
CONTINUOUS
 10
-436.74496625344352
 20
178.51547788392719
 30
0.0
 11
-437.79505700979041
 21
178.51547788392719
 31
0.0
 12
-437.62958972731531
 22
178.02964767934381
 32
0.0
 13
-437.62958972731531
 23
178.02964767934381
 33
0.0
210
0.0
220
0.0
230
-1.0
  0
SOLID
  5
836
  8
0
  6
CONTINUOUS
 10
436.57949897096847
 20
178.02964767934381
 30
0.0
 11
436.32132177054268
 21
177.6058032205585
 31
0.0
 12
437.4852339624295
 22
177.6058032205585
 32
0.0
 13
437.4852339624295
 23
177.6058032205585
 33
0.0
  0
SOLID
  5
837
  8
0
  6
CONTINUOUS
 10
-436.57949897096847
 20
178.02964767934381
 30
0.0
 11
-437.62958972731531
 21
178.02964767934381
 31
0.0
 12
-437.4852339624295
 22
177.6058032205585
 32
0.0
 13
-437.4852339624295
 23
177.6058032205585
 33
0.0
210
0.0
220
0.0
230
-1.0
  0
SOLID
  5
838
  8
0
  6
CONTINUOUS
 10
436.32132177054268
 20
177.6058032205585
 30
0.0
 11
436.19319396602458
 21
177.3954583106601
 31
0.0
 12
437.35710615791129
 22
177.3954583106601
 32
0.0
 13
437.35710615791129
 23
177.3954583106601
 33
0.0
210
0.0
220
0.0
230
1.0
  0
SOLID
  5
839
  8
0
  6
CONTINUOUS
 10
-436.32132177054268
 20
177.6058032205585
 30
0.0
 11
-437.4852339624295
 21
177.6058032205585
 31
0.0
 12
-437.35710615791129
 22
177.3954583106601
 32
0.0
 13
-437.35710615791129
 23
177.3954583106601
 33
0.0
210
0.0
220
0.0
230
-1.0
  0
SOLID
  5
83A
  8
0
  6
CONTINUOUS
 10
436.19319396602458
 20
177.3954583106601
 30
0.0
 11
435.67841994834862
 21
176.86026168985461
 31
0.0
 12
437.03110079822619
 22
176.86026168985461
 32
0.0
 13
437.03110079822619
 23
176.86026168985461
 33
0.0
210
0.0
220
0.0
230
1.0
  0
SOLID
  5
83B
  8
0
  6
CONTINUOUS
 10
-436.19319396602458
 20
177.3954583106601
 30
0.0
 11
-437.35710615791129
 21
177.3954583106601
 31
0.0
 12
-437.03110079822619
 22
176.86026168985461
 32
0.0
 13
-437.03110079822619
 23
176.86026168985461
 33
0.0
210
0.0
220
0.0
230
-1.0
  0
SOLID
  5
83C
  8
0
  6
CONTINUOUS
 10
435.67841994834862
 20
176.86026168985461
 30
0.0
 11
435.5651688824733
 21
176.78508756696789
 31
0.0
 12
436.98530983838458
 22
176.78508756696789
 32
0.0
 13
436.98530983838458
 23
176.78508756696789
 33
0.0
210
0.0
220
0.0
230
1.0
  0
SOLID
  5
83D
  8
0
  6
CONTINUOUS
 10
-435.67841994834862
 20
176.86026168985461
 30
0.0
 11
-437.03110079822619
 21
176.86026168985461
 31
0.0
 12
-436.98530983838458
 22
176.78508756696789
 32
0.0
 13
-436.98530983838458
 23
176.78508756696789
 33
0.0
210
0.0
220
0.0
230
-1.0
  0
SOLID
  5
83E
  8
0
  6
CONTINUOUS
 10
335.05412193184702
 20
185.37586996648909
 30
0.0
 11
341.41226629806602
 21
176.74695975519199
 31
0.0
 12
342.65441616345601
 22
176.74695975519199
 32
0.0
 13
342.65441616345601
 23
176.74695975519199
 33
0.0
210
0.0
220
0.0
230
1.0
  0
SOLID
  5
83F
  8
0
  6
CONTINUOUS
 10
-335.05412193184702
 20
185.37586996648909
 30
0.0
 11
-336.2962717972369
 21
185.37586996648909
 31
0.0
 12
-342.65441616345601
 22
176.74695975519199
 32
0.0
 13
-342.65441616345601
 23
176.74695975519199
 33
0.0
210
0.0
220
0.0
230
-1.0
  0
SOLID
  5
840
  8
0
  6
CONTINUOUS
 10
198.81197206645521
 20
185.37586996648909
 30
0.0
 11
192.45382770023701
 21
176.74695975519199
 31
0.0
 12
193.69597756562609
 22
176.74695975519199
 32
0.0
 13
193.69597756562609
 23
176.74695975519199
 33
0.0
210
0.0
220
0.0
230
1.0
  0
SOLID
  5
841
  8
0
  6
CONTINUOUS
 10
-198.81197206645521
 20
185.37586996648909
 30
0.0
 11
-200.05412193184429
 21
185.37586996648909
 31
0.0
 12
-193.69597756562609
 22
176.74695975519199
 32
0.0
 13
-193.69597756562609
 23
176.74695975519199
 33
0.0
210
0.0
220
0.0
230
-1.0
  0
SOLID
  5
842
  8
0
  6
CONTINUOUS
 10
91.054121931846808
 20
185.37586996648909
 30
0.0
 11
97.412266298065703
 21
176.74695975519199
 31
0.0
 12
98.654416163455764
 22
176.74695975519199
 32
0.0
 13
98.654416163455764
 23
176.74695975519199
 33
0.0
  0
SOLID
  5
843
  8
0
  6
CONTINUOUS
 10
-91.054121931846808
 20
185.37586996648909
 30
0.0
 11
-92.296271797236855
 21
185.37586996648909
 31
0.0
 12
-98.654416163455764
 22
176.74695975519199
 32
0.0
 13
-98.654416163455764
 23
176.74695975519199
 33
0.0
210
0.0
220
0.0
230
-1.0
  0
SOLID
  5
844
  8
0
  6
CONTINUOUS
 10
-45.188027933545179
 20
185.37586996648909
 30
0.0
 11
-51.546172299763271
 21
176.74695975519199
 31
0.0
 12
-50.304022434374112
 22
176.74695975519199
 32
0.0
 13
-50.304022434374112
 23
176.74695975519199
 33
0.0
210
0.0
220
0.0
230
1.0
  0
SOLID
  5
845
  8
0
  6
CONTINUOUS
 10
45.188027933545179
 20
185.37586996648909
 30
0.0
 11
43.945878068155857
 21
185.37586996648909
 31
0.0
 12
50.304022434374112
 22
176.74695975519199
 32
0.0
 13
50.304022434374112
 23
176.74695975519199
 33
0.0
210
0.0
220
0.0
230
-1.0
  0
SOLID
  5
846
  8
0
  6
CONTINUOUS
 10
-152.94587806815349
 20
185.37586996648909
 30
0.0
 11
-146.5877337019347
 21
176.74695975519199
 31
0.0
 12
-145.34558383654451
 22
176.74695975519199
 32
0.0
 13
-145.34558383654451
 23
176.74695975519199
 33
0.0
210
0.0
220
0.0
230
1.0
  0
SOLID
  5
847
  8
0
  6
CONTINUOUS
 10
152.94587806815349
 20
185.37586996648909
 30
0.0
 11
151.70372820276339
 21
185.37586996648909
 31
0.0
 12
145.34558383654451
 22
176.74695975519199
 32
0.0
 13
145.34558383654451
 23
176.74695975519199
 33
0.0
210
0.0
220
0.0
230
-1.0
  0
SOLID
  5
848
  8
0
  6
CONTINUOUS
 10
435.5651688824733
 20
176.78508756696789
 30
0.0
 11
435.05973233825728
 21
176.44958742317161
 31
0.0
 12
436.66261206668918
 22
176.44958742317161
 32
0.0
 13
436.66261206668918
 23
176.44958742317161
 33
0.0
210
0.0
220
0.0
230
1.0
  0
SOLID
  5
849
  8
0
  6
CONTINUOUS
 10
-435.5651688824733
 20
176.78508756696789
 30
0.0
 11
-436.98530983838458
 21
176.78508756696789
 31
0.0
 12
-436.66261206668918
 22
176.44958742317161
 32
0.0
 13
-436.66261206668918
 23
176.44958742317161
 33
0.0
210
0.0
220
0.0
230
-1.0
  0
SOLID
  5
84A
  8
0
  6
CONTINUOUS
 10
435.05973233825728
 20
176.44958742317161
 30
0.0
 11
434.36664337566509
 21
176.1830252313151
 31
0.0
 12
436.40622163908159
 22
176.1830252313151
 32
0.0
 13
436.40622163908159
 23
176.1830252313151
 33
0.0
210
0.0
220
0.0
230
1.0
  0
SOLID
  5
84B
  8
0
  6
CONTINUOUS
 10
-435.05973233825728
 20
176.44958742317161
 30
0.0
 11
-436.66261206668918
 21
176.44958742317161
 31
0.0
 12
-436.40622163908159
 22
176.1830252313151
 32
0.0
 13
-436.40622163908159
 23
176.1830252313151
 33
0.0
210
0.0
220
0.0
230
-1.0
  0
SOLID
  5
84C
  8
0
  6
CONTINUOUS
 10
434.36664337566509
 20
176.1830252313151
 30
0.0
 11
433.94867638350371
 21
176.09248017533719
 31
0.0
 12
436.3191316978627
 22
176.09248017533719
 32
0.0
 13
436.3191316978627
 23
176.09248017533719
 33
0.0
210
0.0
220
0.0
230
1.0
  0
SOLID
  5
84D
  8
0
  6
CONTINUOUS
 10
-434.36664337566509
 20
176.1830252313151
 30
0.0
 11
-436.40622163908159
 21
176.1830252313151
 31
0.0
 12
-436.3191316978627
 22
176.09248017533719
 32
0.0
 13
-436.3191316978627
 23
176.09248017533719
 33
0.0
210
0.0
220
0.0
230
-1.0
  0
SOLID
  5
84E
  8
0
  6
CONTINUOUS
 10
341.41226629806602
 20
176.74695975519199
 30
0.0
 11
342.0541219318464
 21
175.87586996649
 31
0.0
 12
346.44931983277138
 22
175.87586996649
 32
0.0
 13
346.44931983277138
 23
175.87586996649
 33
0.0
210
0.0
220
0.0
230
1.0
  0
SOLID
  5
84F
  8
0
  6
CONTINUOUS
 10
-341.41226629806602
 20
176.74695975519199
 30
0.0
 11
-342.65441616345601
 21
176.74695975519199
 31
0.0
 12
-346.44931983277138
 22
175.87586996649
 32
0.0
 13
-346.44931983277138
 23
175.87586996649
 33
0.0
210
0.0
220
0.0
230
-1.0
  0
SOLID
  5
850
  8
0
  6
CONTINUOUS
 10
192.45382770023471
 20
176.74695975519199
 30
0.0
 11
188.6404807442506
 21
175.87586996649
 31
0.0
 12
193.0541219318458
 22
175.87586996649
 32
0.0
 13
193.0541219318458
 23
175.87586996649
 33
0.0
210
0.0
220
0.0
230
1.0
  0
SOLID
  5
851
  8
0
  6
CONTINUOUS
 10
-192.45382770023471
 20
176.74695975519199
 30
0.0
 11
-193.69597756562609
 21
176.74695975519199
 31
0.0
 12
-193.0541219318458
 22
175.87586996649
 32
0.0
 13
-193.0541219318458
 23
175.87586996649
 33
0.0
210
0.0
220
0.0
230
-1.0
  0
SOLID
  5
852
  8
0
  6
CONTINUOUS
 10
97.412266298065703
 20
176.74695975519199
 30
0.0
 11
98.054121931846083
 21
175.87586996649
 31
0.0
 12
102.4677631194413
 22
175.87586996649
 32
0.0
 13
102.4677631194413
 23
175.87586996649
 33
0.0
210
0.0
220
0.0
230
1.0
  0
SOLID
  5
853
  8
0
  6
CONTINUOUS
 10
-97.412266298065703
 20
176.74695975519199
 30
0.0
 11
-98.654416163456986
 21
176.74695975519199
 31
0.0
 12
-102.4677631194413
 22
175.87586996649
 32
0.0
 13
-102.4677631194413
 23
175.87586996649
 33
0.0
210
0.0
220
0.0
230
-1.0
  0
SOLID
  5
854
  8
0
  6
CONTINUOUS
 10
-51.546172299768664
 20
176.74695975519199
 30
0.0
 11
-55.359519255753
 21
175.87586996649
 31
0.0
 12
-50.945878068154443
 22
175.87586996649
 32
0.0
 13
-50.945878068154443
 23
175.87586996649
 33
0.0
210
0.0
220
0.0
230
1.0
  0
SOLID
  5
855
  8
0
  6
CONTINUOUS
 10
51.546172299768664
 20
176.74695975519199
 30
0.0
 11
50.304022434374112
 21
176.74695975519199
 31
0.0
 12
50.945878068154443
 22
175.87586996649
 32
0.0
 13
50.945878068154443
 23
175.87586996649
 33
0.0
210
0.0
220
0.0
230
-1.0
  0
SOLID
  5
856
  8
0
  6
CONTINUOUS
 10
-146.5877337019347
 20
176.74695975519199
 30
0.0
 11
-145.94587806815429
 21
175.87586996649
 31
0.0
 12
-141.53223688055559
 22
175.87586996649
 32
0.0
 13
-141.53223688055559
 23
175.87586996649
 33
0.0
210
0.0
220
0.0
230
1.0
  0
SOLID
  5
857
  8
0
  6
CONTINUOUS
 10
146.5877337019347
 20
176.74695975519199
 30
0.0
 11
145.3455838365401
 21
176.74695975519199
 31
0.0
 12
141.53223688055559
 22
175.87586996649
 32
0.0
 13
141.53223688055559
 23
175.87586996649
 33
0.0
210
0.0
220
0.0
230
-1.0
  0
SOLID
  5
858
  8
0
  6
CONTINUOUS
 10
433.94867638350371
 20
176.09248017533719
 30
0.0
 11
431.49538861208651
 21
175.5610193596298
 31
0.0
 12
435.51847714362691
 22
175.5610193596298
 32
0.0
 13
435.51847714362691
 23
175.5610193596298
 33
0.0
210
0.0
220
0.0
230
1.0
  0
SOLID
  5
859
  8
0
  6
CONTINUOUS
 10
-433.94867638350371
 20
176.09248017533719
 30
0.0
 11
-436.3191316978627
 21
176.09248017533719
 31
0.0
 12
-435.51847714362691
 22
175.5610193596298
 32
0.0
 13
-435.51847714362691
 23
175.5610193596298
 33
0.0
210
0.0
220
0.0
230
-1.0
  0
SOLID
  5
85A
  8
0
  6
CONTINUOUS
 10
431.49538861208651
 20
175.5610193596298
 30
0.0
 11
429.9029981979362
 21
175.2160565231093
 31
0.0
 12
434.6215384861535
 22
175.2160565231093
 32
0.0
 13
434.6215384861535
 23
175.2160565231093
 33
0.0
210
0.0
220
0.0
230
1.0
  0
SOLID
  5
85B
  8
0
  6
CONTINUOUS
 10
-431.49538861208651
 20
175.5610193596298
 30
0.0
 11
-435.51847714362691
 21
175.5610193596298
 31
0.0
 12
-434.6215384861535
 22
175.2160565231093
 32
0.0
 13
-434.6215384861535
 23
175.2160565231093
 33
0.0
210
0.0
220
0.0
230
-1.0
  0
SOLID
  5
85C
  8
0
  6
CONTINUOUS
 10
342.0541219318464
 20
175.87586996649
 30
0.0
 11
353.292463014975
 21
173.27501336653489
 31
0.0
 12
357.77995461066331
 22
173.27501336653489
 32
0.0
 13
357.77995461066331
 23
173.27501336653489
 33
0.0
210
0.0
220
0.0
230
1.0
  0
SOLID
  5
85D
  8
0
  6
CONTINUOUS
 10
-342.0541219318464
 20
175.87586996649
 30
0.0
 11
-346.44931983277138
 21
175.87586996649
 31
0.0
 12
-357.77995461066331
 22
173.27501336653489
 32
0.0
 13
-357.77995461066331
 23
173.27501336653489
 33
0.0
210
0.0
220
0.0
230
-1.0
  0
SOLID
  5
85E
  8
0
  6
CONTINUOUS
 10
188.6404807442506
 20
175.87586996649
 30
0.0
 11
176.9695734204806
 21
173.20986335550771
 31
0.0
 12
181.46977750092361
 22
173.20986335550771
 32
0.0
 13
181.46977750092361
 23
173.20986335550771
 33
0.0
210
0.0
220
0.0
230
1.0
  0
SOLID
  5
85F
  8
0
  6
CONTINUOUS
 10
-188.6404807442506
 20
175.87586996649
 30
0.0
 11
-193.0541219318448
 21
175.87586996649
 31
0.0
 12
-181.46977750092361
 22
173.20986335550771
 32
0.0
 13
-181.46977750092361
 23
173.20986335550771
 33
0.0
210
0.0
220
0.0
230
-1.0
  0
SOLID
  5
860
  8
0
  6
CONTINUOUS
 10
98.054121931846808
 20
175.87586996649
 30
0.0
 11
109.6384663627683
 21
173.20986335550771
 31
0.0
 12
114.13867044321211
 22
173.20986335550771
 32
0.0
 13
114.13867044321211
 23
173.20986335550771
 33
0.0
210
0.0
220
0.0
230
1.0
  0
SOLID
  5
861
  8
0
  6
CONTINUOUS
 10
-98.054121931846808
 20
175.87586996649
 30
0.0
 11
-102.4677631194413
 21
175.87586996649
 31
0.0
 12
-114.13867044321211
 22
173.20986335550771
 32
0.0
 13
-114.13867044321211
 23
173.20986335550771
 33
0.0
210
0.0
220
0.0
230
-1.0
  0
SOLID
  5
862
  8
0
  6
CONTINUOUS
 10
-55.359519255753
 20
175.87586996649
 30
0.0
 11
-67.030426579523635
 21
173.20986335550771
 31
0.0
 12
-62.530222499080452
 22
173.20986335550771
 32
0.0
 13
-62.530222499080452
 23
173.20986335550771
 33
0.0
210
0.0
220
0.0
230
1.0
  0
SOLID
  5
863
  8
0
  6
CONTINUOUS
 10
55.359519255753
 20
175.87586996649
 30
0.0
 11
50.945878068158542
 21
175.87586996649
 31
0.0
 12
62.530222499080452
 22
173.20986335550771
 32
0.0
 13
62.530222499080452
 23
173.20986335550771
 33
0.0
210
0.0
220
0.0
230
-1.0
  0
SOLID
  5
864
  8
0
  6
CONTINUOUS
 10
-145.94587806815019
 20
175.87586996649
 30
0.0
 11
-134.36153363722849
 21
173.20986335550771
 31
0.0
 12
-129.8613295567846
 22
173.20986335550771
 32
0.0
 13
-129.8613295567846
 23
173.20986335550771
 33
0.0
210
0.0
220
0.0
230
1.0
  0
SOLID
  5
865
  8
0
  6
CONTINUOUS
 10
145.94587806815019
 20
175.87586996649
 30
0.0
 11
141.53223688055559
 21
175.87586996649
 31
0.0
 12
129.8613295567846
 22
173.20986335550771
 32
0.0
 13
129.8613295567846
 23
173.20986335550771
 33
0.0
210
0.0
220
0.0
230
-1.0
  0
SOLID
  5
866
  8
0
  6
CONTINUOUS
 10
429.9029981979362
 20
175.2160565231093
 30
0.0
 11
419.19955258600271
 21
172.89734691143099
 31
0.0
 12
423.90940386455992
 22
172.89734691143099
 32
0.0
 13
423.90940386455992
 23
172.89734691143099
 33
0.0
210
0.0
220
0.0
230
1.0
  0
SOLID
  5
867
  8
0
  6
CONTINUOUS
 10
-429.9029981979362
 20
175.2160565231093
 30
0.0
 11
-434.6215384861535
 21
175.2160565231093
 31
0.0
 12
-423.90940386455992
 22
172.89734691143099
 32
0.0
 13
-423.90940386455992
 23
172.89734691143099
 33
0.0
210
0.0
220
0.0
230
-1.0
  0
SOLID
  5
868
  8
0
  6
CONTINUOUS
 10
353.292463014975
 20
173.27501336653489
 30
0.0
 11
357.31622040500741
 21
172.34380689334861
 31
0.0
 12
364.47618105061531
 22
172.34380689334861
 32
0.0
 13
364.47618105061531
 23
172.34380689334861
 33
0.0
210
0.0
220
0.0
230
1.0
  0
SOLID
  5
869
  8
0
  6
CONTINUOUS
 10
-353.292463014975
 20
173.27501336653489
 30
0.0
 11
-357.77995461066331
 21
173.27501336653489
 31
0.0
 12
-364.47618105061531
 22
172.34380689334861
 32
0.0
 13
-364.47618105061531
 23
172.34380689334861
 33
0.0
210
0.0
220
0.0
230
-1.0
  0
SOLID
  5
86A
  8
0
  6
CONTINUOUS
 10
176.96957342047949
 20
173.20986335550771
 30
0.0
 11
170.03536659351951
 21
172.26724102636081
 31
0.0
 12
177.37389053495269
 22
172.26724102636081
 32
0.0
 13
177.37389053495269
 23
172.26724102636081
 33
0.0
210
0.0
220
0.0
230
1.0
  0
SOLID
  5
86B
  8
0
  6
CONTINUOUS
 10
-176.96957342047949
 20
173.20986335550771
 30
0.0
 11
-181.46977750092361
 21
173.20986335550771
 31
0.0
 12
-177.37389053495269
 22
172.26724102636081
 32
0.0
 13
-177.37389053495269
 23
172.26724102636081
 33
0.0
210
0.0
220
0.0
230
-1.0
  0
SOLID
  5
86C
  8
0
  6
CONTINUOUS
 10
109.6384663627683
 20
173.20986335550771
 30
0.0
 11
113.7343533287393
 21
172.26724102636081
 31
0.0
 12
121.0728772701725
 22
172.26724102636081
 32
0.0
 13
121.0728772701725
 23
172.26724102636081
 33
0.0
210
0.0
220
0.0
230
1.0
  0
SOLID
  5
86D
  8
0
  6
CONTINUOUS
 10
-109.6384663627683
 20
173.20986335550771
 30
0.0
 11
-114.13867044321211
 21
173.20986335550771
 31
0.0
 12
-121.0728772701725
 22
172.26724102636081
 32
0.0
 13
-121.0728772701725
 23
172.26724102636081
 33
0.0
210
0.0
220
0.0
230
-1.0
  0
SOLID
  5
86E
  8
0
  6
CONTINUOUS
 10
-67.030426579527699
 20
173.20986335550771
 30
0.0
 11
-73.964633406487778
 21
172.26724102636081
 31
0.0
 12
-66.626109465051641
 22
172.26724102636081
 32
0.0
 13
-66.626109465051641
 23
172.26724102636081
 33
0.0
  0
SOLID
  5
86F
  8
0
  6
CONTINUOUS
 10
67.030426579527699
 20
173.20986335550771
 30
0.0
 11
62.530222499080452
 21
173.20986335550771
 31
0.0
 12
66.626109465051641
 22
172.26724102636081
 32
0.0
 13
66.626109465051641
 23
172.26724102636081
 33
0.0
210
0.0
220
0.0
230
-1.0
  0
SOLID
  5
870
  8
0
  6
CONTINUOUS
 10
-134.36153363722849
 20
173.20986335550771
 30
0.0
 11
-130.2656466712574
 21
172.26724102636081
 31
0.0
 12
-122.9271227298207
 22
172.26724102636081
 32
0.0
 13
-122.9271227298207
 23
172.26724102636081
 33
0.0
210
0.0
220
0.0
230
1.0
  0
SOLID
  5
871
  8
0
  6
CONTINUOUS
 10
134.36153363722849
 20
173.20986335550771
 30
0.0
 11
129.8613295567817
 21
173.20986335550771
 31
0.0
 12
122.9271227298207
 22
172.26724102636081
 32
0.0
 13
122.9271227298207
 23
172.26724102636081
 33
0.0
210
0.0
220
0.0
230
-1.0
  0
SOLID
  5
872
  8
0
  6
CONTINUOUS
 10
419.19955258600271
 20
172.89734691143099
 30
0.0
 11
411.33361017495969
 21
171.90191542105251
 31
0.0
 12
419.31064079487572
 22
171.90191542105251
 32
0.0
 13
419.31064079487572
 23
171.90191542105251
 33
0.0
210
0.0
220
0.0
230
1.0
  0
SOLID
  5
873
  8
0
  6
CONTINUOUS
 10
-419.19955258600271
 20
172.89734691143099
 30
0.0
 11
-423.90940386455992
 21
172.89734691143099
 31
0.0
 12
-419.31064079487572
 22
171.90191542105251
 32
0.0
 13
-419.31064079487572
 23
171.90191542105251
 33
0.0
210
0.0
220
0.0
230
-1.0
  0
SOLID
  5
874
  8
0
  6
CONTINUOUS
 10
357.31622040500741
 20
172.34380689334861
 30
0.0
 11
365.78183897262869
 21
171.15385901707791
 31
0.0
 12
373.0329948837325
 22
171.15385901707791
 32
0.0
 13
373.0329948837325
 23
171.15385901707791
 33
0.0
210
0.0
220
0.0
230
1.0
  0
SOLID
  5
875
  8
0
  6
CONTINUOUS
 10
-357.31622040500741
 20
172.34380689334861
 30
0.0
 11
-364.47618105061531
 21
172.34380689334861
 31
0.0
 12
-373.0329948837325
 22
171.15385901707791
 32
0.0
 13
-373.0329948837325
 23
171.15385901707791
 33
0.0
210
0.0
220
0.0
230
-1.0
  0
SOLID
  5
876
  8
0
  6
CONTINUOUS
 10
170.03536659351951
 20
172.26724102636081
 30
0.0
 11
161.3576211609755
 21
171.08760551569711
 31
0.0
 12
168.75946387343029
 22
171.08760551569711
 32
0.0
 13
168.75946387343029
 23
171.08760551569711
 33
0.0
210
0.0
220
0.0
230
1.0
  0
SOLID
  5
877
  8
0
  6
CONTINUOUS
 10
-170.03536659351951
 20
172.26724102636081
 30
0.0
 11
-177.37389053495269
 21
172.26724102636081
 31
0.0
 12
-168.75946387343029
 22
171.08760551569711
 32
0.0
 13
-168.75946387343029
 23
171.08760551569711
 33
0.0
210
0.0
220
0.0
230
-1.0
  0
SOLID
  5
878
  8
0
  6
CONTINUOUS
 10
113.7343533287393
 20
172.26724102636081
 30
0.0
 11
122.3487799902617
 21
171.08760551569711
 31
0.0
 12
129.7506227027171
 22
171.08760551569711
 32
0.0
 13
129.7506227027171
 23
171.08760551569711
 33
0.0
210
0.0
220
0.0
230
1.0
  0
SOLID
  5
879
  8
0
  6
CONTINUOUS
 10
-113.7343533287393
 20
172.26724102636081
 30
0.0
 11
-121.0728772701725
 21
172.26724102636081
 31
0.0
 12
-129.7506227027171
 22
171.08760551569711
 32
0.0
 13
-129.7506227027171
 23
171.08760551569711
 33
0.0
210
0.0
220
0.0
230
-1.0
  0
SOLID
  5
87A
  8
0
  6
CONTINUOUS
 10
-73.964633406487778
 20
172.26724102636081
 30
0.0
 11
-82.642378839031863
 21
171.08760551569711
 31
0.0
 12
-75.240536126577183
 22
171.08760551569711
 32
0.0
 13
-75.240536126577183
 23
171.08760551569711
 33
0.0
210
0.0
220
0.0
230
1.0
  0
SOLID
  5
87B
  8
0
  6
CONTINUOUS
 10
73.964633406487778
 20
172.26724102636081
 30
0.0
 11
66.626109465054654
 21
172.26724102636081
 31
0.0
 12
75.240536126577183
 22
171.08760551569711
 32
0.0
 13
75.240536126577183
 23
171.08760551569711
 33
0.0
210
0.0
220
0.0
230
-1.0
  0
SOLID
  5
87C
  8
0
  6
CONTINUOUS
 10
-130.26564667125459
 20
172.26724102636081
 30
0.0
 11
-121.6512200097318
 21
171.08760551569711
 31
0.0
 12
-114.2493772972755
 22
171.08760551569711
 32
0.0
 13
-114.2493772972755
 23
171.08760551569711
 33
0.0
210
0.0
220
0.0
230
1.0
  0
SOLID
  5
87D
  8
0
  6
CONTINUOUS
 10
130.26564667125459
 20
172.26724102636081
 30
0.0
 11
122.9271227298207
 21
172.26724102636081
 31
0.0
 12
114.2493772972755
 22
171.08760551569711
 32
0.0
 13
114.2493772972755
 23
171.08760551569711
 33
0.0
210
0.0
220
0.0
230
-1.0
  0
SOLID
  5
87E
  8
0
  6
CONTINUOUS
 10
411.33361017495969
 20
171.90191542105251
 30
0.0
 11
403.92158090745988
 21
170.96392643576351
 31
0.0
 12
411.8694286454018
 22
170.96392643576351
 32
0.0
 13
411.8694286454018
 23
170.96392643576351
 33
0.0
210
0.0
220
0.0
230
1.0
  0
SOLID
  5
87F
  8
0
  6
CONTINUOUS
 10
-411.33361017495969
 20
171.90191542105251
 30
0.0
 11
-419.31064079487572
 21
171.90191542105251
 31
0.0
 12
-411.8694286454018
 22
170.96392643576351
 32
0.0
 13
-411.8694286454018
 23
170.96392643576351
 33
0.0
210
0.0
220
0.0
230
-1.0
  0
SOLID
  5
880
  8
0
  6
CONTINUOUS
 10
365.78183897262869
 20
171.15385901707791
 30
0.0
 11
367.13307192916051
 21
170.96392643576351
 31
0.0
 12
376.83794595134742
 22
170.96392643576351
 32
0.0
 13
376.83794595134742
 23
170.96392643576351
 33
0.0
210
0.0
220
0.0
230
1.0
  0
SOLID
  5
881
  8
0
  6
CONTINUOUS
 10
-365.78183897262869
 20
171.15385901707791
 30
0.0
 11
-373.0329948837325
 21
171.15385901707791
 31
0.0
 12
-376.83794595134742
 22
170.96392643576351
 32
0.0
 13
-376.83794595134742
 23
170.96392643576351
 33
0.0
210
0.0
220
0.0
230
-1.0
  0
SOLID
  5
882
  8
0
  6
CONTINUOUS
 10
403.92158090745988
 20
170.96392643576351
 30
0.0
 11
388.47313266135052
 21
170.38313025556661
 31
0.0
 12
407.26188243725812
 22
170.38313025556661
 32
0.0
 13
407.26188243725812
 23
170.38313025556661
 33
0.0
210
0.0
220
0.0
230
1.0
  0
SOLID
  5
883
  8
0
  6
CONTINUOUS
 10
-403.92158090745988
 20
170.96392643576351
 30
0.0
 11
-411.8694286454018
 21
170.96392643576351
 31
0.0
 12
-407.26188243725812
 22
170.38313025556661
 32
0.0
 13
-407.26188243725812
 23
170.38313025556661
 33
0.0
210
0.0
220
0.0
230
-1.0
  0
SOLID
  5
884
  8
0
  6
CONTINUOUS
 10
367.13307192916051
 20
170.96392643576351
 30
0.0
 11
371.26501671861439
 21
170.38313025556661
 31
0.0
 12
388.47313266135052
 22
170.38313025556661
 32
0.0
 13
388.47313266135052
 23
170.38313025556661
 33
0.0
210
0.0
220
0.0
230
1.0
  0
SOLID
  5
885
  8
0
  6
CONTINUOUS
 10
-367.13307192916051
 20
170.96392643576351
 30
0.0
 11
-376.83794595134742
 21
170.96392643576351
 31
0.0
 12
-388.47313266135052
 22
170.38313025556661
 32
0.0
 13
-388.47313266135052
 23
170.38313025556661
 33
0.0
210
0.0
220
0.0
230
-1.0
  0
SOLID
  5
886
  8
0
  6
CONTINUOUS
 10
-82.642378839049755
 20
171.08760551569711
 30
0.0
 11
-98.38010969564553
 21
170.38313025556661
 31
0.0
 12
-80.385049332895761
 22
170.38313025556661
 32
0.0
 13
-80.385049332895761
 23
170.38313025556661
 33
0.0
  0
SOLID
  5
887
  8
0
  6
CONTINUOUS
 10
82.642378839049755
 20
171.08760551569711
 30
0.0
 11
75.240536126577183
 21
171.08760551569711
 31
0.0
 12
80.385049332895761
 22
170.38313025556661
 32
0.0
 13
80.385049332895761
 23
170.38313025556661
 33
0.0
210
0.0
220
0.0
230
-1.0
  0
SOLID
  5
888
  8
0
  6
CONTINUOUS
 10
-121.6512200097318
 20
171.08760551569711
 30
0.0
 11
-116.506706803413
 21
170.38313025556661
 31
0.0
 12
-98.511646440660883
 22
170.38313025556661
 32
0.0
 13
-98.511646440660883
 23
170.38313025556661
 33
0.0
  0
SOLID
  5
889
  8
0
  6
CONTINUOUS
 10
121.6512200097318
 20
171.08760551569711
 30
0.0
 11
114.2493772972593
 21
171.08760551569711
 31
0.0
 12
98.511646440660883
 22
170.38313025556661
 32
0.0
 13
98.511646440660883
 23
170.38313025556661
 33
0.0
210
0.0
220
0.0
230
-1.0
  0
SOLID
  5
88A
  8
0
  6
CONTINUOUS
 10
161.3576211609726
 20
171.08760551569711
 30
0.0
 11
145.55412193184711
 21
170.38018623576031
 31
0.0
 12
163.5934516172087
 22
170.38018623576031
 32
0.0
 13
163.5934516172087
 23
170.38018623576031
 33
0.0
210
0.0
220
0.0
230
1.0
  0
SOLID
  5
88B
  8
0
  6
CONTINUOUS
 10
-161.3576211609726
 20
171.08760551569711
 30
0.0
 11
-168.75946387343029
 21
171.08760551569711
 31
0.0
 12
-163.5934516172087
 22
170.38018623576031
 32
0.0
 13
-163.5934516172087
 23
170.38018623576031
 33
0.0
210
0.0
220
0.0
230
-1.0
  0
SOLID
  5
88C
  8
0
  6
CONTINUOUS
 10
122.3487799902617
 20
171.08760551569711
 30
0.0
 11
127.5147922464833
 21
170.38018623576031
 31
0.0
 12
145.55412193184711
 22
170.38018623576031
 32
0.0
 13
145.55412193184711
 23
170.38018623576031
 33
0.0
210
0.0
220
0.0
230
1.0
  0
SOLID
  5
88D
  8
0
  6
CONTINUOUS
 10
-122.3487799902617
 20
171.08760551569711
 30
0.0
 11
-129.7506227027171
 21
171.08760551569711
 31
0.0
 12
-145.55412193184711
 22
170.38018623576031
 32
0.0
 13
-145.55412193184711
 23
170.38018623576031
 33
0.0
210
0.0
220
0.0
230
-1.0
  0
SOLID
  5
88E
  8
0
  6
CONTINUOUS
 10
-98.38010969564553
 20
170.38313025556661
 30
0.0
 11
-98.445878068129076
 21
170.38018623576031
 31
0.0
 12
-80.406548382798888
 22
170.38018623576031
 32
0.0
 13
-80.406548382798888
 23
170.38018623576031
 33
0.0
210
0.0
220
0.0
230
1.0
  0
SOLID
  5
88F
  8
0
  6
CONTINUOUS
 10
98.38010969564553
 20
170.38313025556661
 30
0.0
 11
80.385049332895761
 21
170.38313025556661
 31
0.0
 12
80.406548382798888
 22
170.38018623576031
 32
0.0
 13
80.406548382798888
 23
170.38018623576031
 33
0.0
210
0.0
220
0.0
230
-1.0
  0
SOLID
  5
890
  8
0
  6
CONTINUOUS
 10
-116.506706803413
 20
170.38313025556661
 30
0.0
 11
-116.4852077535099
 21
170.38018623576031
 31
0.0
 12
-98.44587806817735
 22
170.38018623576031
 32
0.0
 13
-98.44587806817735
 23
170.38018623576031
 33
0.0
210
0.0
220
0.0
230
1.0
  0
SOLID
  5
891
  8
0
  6
CONTINUOUS
 10
116.506706803413
 20
170.38313025556661
 30
0.0
 11
98.511646440660883
 21
170.38313025556661
 31
0.0
 12
98.44587806817735
 22
170.38018623576031
 32
0.0
 13
98.44587806817735
 23
170.38018623576031
 33
0.0
210
0.0
220
0.0
230
-1.0
  0
SOLID
  5
892
  8
0
  6
CONTINUOUS
 10
371.26501671861439
 20
170.38313025556661
 30
0.0
 11
372.70928273050492
 21
170.18012072237161
 31
0.0
 12
405.65137631345368
 22
170.18012072237161
 32
0.0
 13
405.65137631345368
 23
170.18012072237161
 33
0.0
210
0.0
220
0.0
230
1.0
  0
SOLID
  5
893
  8
0
  6
CONTINUOUS
 10
-371.26501671861439
 20
170.38313025556661
 30
0.0
 11
-407.26188243725812
 21
170.38313025556661
 31
0.0
 12
-405.65137631345368
 22
170.18012072237161
 32
0.0
 13
-405.65137631345368
 23
170.18012072237161
 33
0.0
210
0.0
220
0.0
230
-1.0
  0
SOLID
  5
894
  8
0
  6
CONTINUOUS
 10
127.5147922464833
 20
170.38018623576031
 30
0.0
 11
129.54581495686691
 21
170.10206366228309
 31
0.0
 12
161.56242890682509
 22
170.10206366228309
 32
0.0
 13
161.56242890682509
 23
170.10206366228309
 33
0.0
210
0.0
220
0.0
230
1.0
  0
SOLID
  5
895
  8
0
  6
CONTINUOUS
 10
-127.5147922464833
 20
170.38018623576031
 30
0.0
 11
-163.5934516172087
 21
170.38018623576031
 31
0.0
 12
-161.56242890682509
 22
170.10206366228309
 32
0.0
 13
-161.56242890682509
 23
170.10206366228309
 33
0.0
210
0.0
220
0.0
230
-1.0
  0
SOLID
  5
896
  8
0
  6
CONTINUOUS
 10
-116.4852077535099
 20
170.38018623576031
 30
0.0
 11
-114.4541850431261
 21
170.10206366228309
 31
0.0
 12
-82.437571093182527
 22
170.10206366228309
 32
0.0
 13
-82.437571093182527
 23
170.10206366228309
 33
0.0
210
0.0
220
0.0
230
1.0
  0
SOLID
  5
897
  8
0
  6
CONTINUOUS
 10
116.4852077535099
 20
170.38018623576031
 30
0.0
 11
80.406548382798888
 21
170.38018623576031
 31
0.0
 12
82.437571093182527
 22
170.10206366228309
 32
0.0
 13
82.437571093182527
 23
170.10206366228309
 33
0.0
210
0.0
220
0.0
230
-1.0
  0
SOLID
  5
898
  8
0
  6
CONTINUOUS
 10
-377.06189524048921
 20
169.95787908691071
 30
0.0
 11
-403.88829893850851
 21
169.95787908691071
 31
0.0
 12
-388.29391091269491
 22
169.38437948712129
 32
0.0
 13
-388.29391091269491
 23
169.38437948712129
 33
0.0
210
0.0
220
0.0
230
-1.0
  0
SOLID
  5
899
  8
0
  6
CONTINUOUS
 10
372.70928273050492
 20
170.18012072237161
 30
0.0
 11
377.06189524048921
 21
169.95787908691071
 31
0.0
 12
403.88829893850851
 22
169.95787908691071
 32
0.0
 13
403.88829893850851
 23
169.95787908691071
 33
0.0
210
0.0
220
0.0
230
1.0
  0
SOLID
  5
89A
  8
0
  6
CONTINUOUS
 10
-372.70928273050492
 20
170.18012072237161
 30
0.0
 11
-405.65137631345368
 21
170.18012072237161
 31
0.0
 12
-403.88829893850851
 22
169.95787908691071
 32
0.0
 13
-403.88829893850851
 23
169.95787908691071
 33
0.0
210
0.0
220
0.0
230
-1.0
  0
SOLID
  5
89B
  8
0
  6
CONTINUOUS
 10
98.535523443807705
 20
169.38437948712129
 30
0.0
 11
98.356232692500754
 21
169.38437948712129
 31
0.0
 12
98.445878068176285
 22
169.38033787425721
 32
0.0
 13
98.445878068176285
 23
169.38033787425721
 33
0.0
210
0.0
220
0.0
230
-1.0
  0
SOLID
  5
89C
  8
0
  6
CONTINUOUS
 10
-145.4644765561703
 20
169.38437948712129
 30
0.0
 11
-145.64376730752139
 21
169.38437948712129
 31
0.0
 12
-145.55412193184591
 22
169.38033787425721
 32
0.0
 13
-145.55412193184591
 23
169.38033787425721
 33
0.0
210
0.0
220
0.0
230
-1.0
  0
SOLID
  5
89D
  8
0
  6
CONTINUOUS
 10
129.54581495686691
 20
170.10206366228309
 30
0.0
 11
145.4644765561703
 21
169.38437948712129
 31
0.0
 12
145.64376730752139
 22
169.38437948712129
 32
0.0
 13
145.64376730752139
 23
169.38437948712129
 33
0.0
210
0.0
220
0.0
230
1.0
  0
SOLID
  5
89E
  8
0
  6
CONTINUOUS
 10
-129.54581495686691
 20
170.10206366228309
 30
0.0
 11
-161.56242890682509
 21
170.10206366228309
 31
0.0
 12
-145.64376730752139
 22
169.38437948712129
 32
0.0
 13
-145.64376730752139
 23
169.38437948712129
 33
0.0
210
0.0
220
0.0
230
-1.0
  0
SOLID
  5
89F
  8
0
  6
CONTINUOUS
 10
-114.4541850431109
 20
170.10206366228309
 30
0.0
 11
-98.535523443807705
 21
169.38437948712129
 31
0.0
 12
-98.356232692500754
 22
169.38437948712129
 32
0.0
 13
-98.356232692500754
 23
169.38437948712129
 33
0.0
210
0.0
220
0.0
230
1.0
  0
SOLID
  5
8A0
  8
0
  6
CONTINUOUS
 10
114.4541850431109
 20
170.10206366228309
 30
0.0
 11
82.437571093197747
 21
170.10206366228309
 31
0.0
 12
98.356232692500754
 22
169.38437948712129
 32
0.0
 13
98.356232692500754
 23
169.38437948712129
 33
0.0
210
0.0
220
0.0
230
-1.0
  0
LINE
  5
8A1
  8
0
  6
CONTINUOUS
 10
-226.0801556931581
 20
199.2889907214101
 30
0.0
 11
-226.08015569315819
 21
199.23012433499551
 31
0.0
  0
LINE
  5
8A2
  8
0
  6
CONTINUOUS
 10
-213.40834379023349
 20
199.23012433499551
 30
0.0
 11
-226.0801556931581
 21
199.2889907214101
 31
0.0
  0
LINE
  5
8A3
  8
0
  6
CONTINUOUS
 10
-226.08015569315819
 20
199.23012433499551
 30
0.0
 11
-226.08015569315941
 21
198.32208209382469
 31
0.0
  0
LINE
  5
8A4
  8
0
  6
CONTINUOUS
 10
-213.40834379023349
 20
199.23012433499551
 30
0.0
 11
-200.88722107757971
 21
198.32208209382469
 31
0.0
  0
LINE
  5
8A5
  8
0
  6
CONTINUOUS
 10
-226.08015569315941
 20
198.32208209382469
 30
0.0
 11
-226.08015569315941
 21
198.28851245268501
 31
0.0
  0
LINE
  5
8A6
  8
0
  6
CONTINUOUS
 10
-200.88722107757971
 20
198.32208209382469
 30
0.0
 11
-200.6508980992019
 21
198.28851245268501
 31
0.0
  0
LINE
  5
8A7
  8
0
  6
CONTINUOUS
 10
-226.08015569315941
 20
198.28851245268501
 30
0.0
 11
-213.5207757558384
 21
198.2338912431689
 31
0.0
  0
LINE
  5
8A8
  8
0
  6
CONTINUOUS
 10
-200.6508980992019
 20
198.28851245268501
 30
0.0
 11
-200.26637665431309
 21
198.2338912431689
 31
0.0
  0
LINE
  5
8A9
  8
0
  6
CONTINUOUS
 10
259.7615095583547
 20
199.1954691024626
 30
0.0
 11
247.92901746715771
 21
198.19804548334659
 31
0.0
  0
LINE
  5
8AA
  8
0
  6
CONTINUOUS
 10
275.34673430533718
 20
199.1954691024626
 30
0.0
 11
287.17922639653437
 21
198.19804548334659
 31
0.0
  0
LINE
  5
8AB
  8
0
  6
CONTINUOUS
 10
15.761509558354589
 20
199.1954691024626
 30
0.0
 11
3.9290174671575069
 21
198.19804548334659
 31
0.0
  0
LINE
  5
8AC
  8
0
  6
CONTINUOUS
 10
31.346734305337009
 20
199.1954691024626
 30
0.0
 11
43.179226396534133
 21
198.19804548334659
 31
0.0
  0
LINE
  5
8AD
  8
0
  6
CONTINUOUS
 10
275.27214449916318
 20
198.19804548334659
 30
0.0
 11
278.87294133808427
 21
197.89573765037409
 31
0.0
  0
LINE
  5
8AE
  8
0
  6
CONTINUOUS
 10
287.17922639653437
 20
198.19804548334659
 30
0.0
 11
290.76552110040831
 21
197.89573765037409
 31
0.0
  0
LINE
  5
8AF
  8
0
  6
CONTINUOUS
 10
247.92901746715771
 20
198.19804548334659
 30
0.0
 11
244.3427227632838
 21
197.89573765037409
 31
0.0
  0
LINE
  5
8B0
  8
0
  6
CONTINUOUS
 10
259.8360993645278
 20
198.19804548334659
 30
0.0
 11
256.23530252560698
 21
197.89573765037409
 31
0.0
  0
LINE
  5
8B1
  8
0
  6
CONTINUOUS
 10
31.272144499163169
 20
198.19804548334659
 30
0.0
 11
34.87294133808421
 21
197.89573765037409
 31
0.0
  0
LINE
  5
8B2
  8
0
  6
CONTINUOUS
 10
43.179226396534133
 20
198.19804548334659
 30
0.0
 11
46.76552110040808
 21
197.89573765037409
 31
0.0
  0
LINE
  5
8B3
  8
0
  6
CONTINUOUS
 10
3.9290174671575069
 20
198.19804548334659
 30
0.0
 11
0.3427227632835752
 21
197.89573765037409
 31
0.0
  0
LINE
  5
8B4
  8
0
  6
CONTINUOUS
 10
15.83609936452774
 20
198.19804548334659
 30
0.0
 11
12.235302525606921
 21
197.89573765037409
 31
0.0
  0
LINE
  5
8B5
  8
0
  6
CONTINUOUS
 10
-213.5207757558384
 20
198.2338912431689
 30
0.0
 11
-201.1095292851121
 21
197.34027568504621
 31
0.0
  0
LINE
  5
8B6
  8
0
  6
CONTINUOUS
 10
-200.26637665431309
 20
198.2338912431689
 30
0.0
 11
-193.9755173227677
 21
197.34027568504621
 31
0.0
  0
LINE
  5
8B7
  8
0
  6
CONTINUOUS
 10
278.87294133808427
 20
197.89573765037409
 30
0.0
 11
290.5446727083106
 21
196.9158279316608
 31
0.0
  0
LINE
  5
8B8
  8
0
  6
CONTINUOUS
 10
290.76552110040831
 20
197.89573765037409
 30
0.0
 11
296.47331381264462
 21
196.9158279316608
 31
0.0
  0
LINE
  5
8B9
  8
0
  6
CONTINUOUS
 10
244.3427227632838
 20
197.89573765037409
 30
0.0
 11
238.6349300510476
 21
196.9158279316608
 31
0.0
  0
LINE
  5
8BA
  8
0
  6
CONTINUOUS
 10
256.23530252560698
 20
197.89573765037409
 30
0.0
 11
244.5635711553816
 21
196.9158279316608
 31
0.0
  0
LINE
  5
8BB
  8
0
  6
CONTINUOUS
 10
34.87294133808421
 20
197.89573765037409
 30
0.0
 11
46.544672708310472
 21
196.9158279316608
 31
0.0
  0
LINE
  5
8BC
  8
0
  6
CONTINUOUS
 10
46.76552110040808
 20
197.89573765037409
 30
0.0
 11
52.473313812644228
 21
196.9158279316608
 31
0.0
  0
LINE
  5
8BD
  8
0
  6
CONTINUOUS
 10
0.3427227632835752
 20
197.89573765037409
 30
0.0
 11
-5.3650699489525753
 21
196.9158279316608
 31
0.0
  0
LINE
  5
8BE
  8
0
  6
CONTINUOUS
 10
12.235302525606921
 20
197.89573765037409
 30
0.0
 11
0.5635711553813964
 21
196.9158279316608
 31
0.0
  0
LINE
  5
8BF
  8
0
  6
CONTINUOUS
 10
-201.1095292851121
 20
197.34027568504621
 30
0.0
 11
-195.6212995876495
 21
196.5648639978975
 31
0.0
  0
LINE
  5
8C0
  8
0
  6
CONTINUOUS
 10
-193.9755173227677
 20
197.34027568504621
 30
0.0
 11
-188.5167875551964
 21
196.5648639978975
 31
0.0
  0
LINE
  5
8C1
  8
0
  6
CONTINUOUS
 10
-195.6212995876495
 20
196.5648639978975
 30
0.0
 11
-188.84641628098061
 21
195.607665778317
 31
0.0
  0
LINE
  5
8C2
  8
0
  6
CONTINUOUS
 10
-188.5167875551964
 20
196.5648639978975
 30
0.0
 11
-184.0290862561049
 21
195.607665778317
 31
0.0
  0
LINE
  5
8C3
  8
0
  6
CONTINUOUS
 10
290.54467270830941
 20
196.9158279316608
 30
0.0
 11
300.01783026648633
 21
195.2962747461971
 31
0.0
  0
LINE
  5
8C4
  8
0
  6
CONTINUOUS
 10
296.47331381264462
 20
196.9158279316608
 30
0.0
 11
305.9069113089605
 21
195.2962747461971
 31
0.0
  0
LINE
  5
8C5
  8
0
  6
CONTINUOUS
 10
238.6349300510476
 20
196.9158279316608
 30
0.0
 11
229.20133255473189
 21
195.2962747461971
 31
0.0
  0
LINE
  5
8C6
  8
0
  6
CONTINUOUS
 10
244.5635711553816
 20
196.9158279316608
 30
0.0
 11
235.0904135972057
 21
195.2962747461971
 31
0.0
  0
LINE
  5
8C7
  8
0
  6
CONTINUOUS
 10
46.544672708309257
 20
196.9158279316608
 30
0.0
 11
56.017830266486037
 21
195.2962747461971
 31
0.0
  0
LINE
  5
8C8
  8
0
  6
CONTINUOUS
 10
52.473313812644228
 20
196.9158279316608
 30
0.0
 11
61.906911308959927
 21
195.2962747461971
 31
0.0
  0
LINE
  5
8C9
  8
0
  6
CONTINUOUS
 10
-5.3650699489525753
 20
196.9158279316608
 30
0.0
 11
-14.798667445268279
 21
195.2962747461971
 31
0.0
  0
LINE
  5
8CA
  8
0
  6
CONTINUOUS
 10
0.5635711553813964
 20
196.9158279316608
 30
0.0
 11
-8.9095864027945009
 21
195.2962747461971
 31
0.0
  0
LINE
  5
8CB
  8
0
  6
CONTINUOUS
 10
300.01783026648633
 20
195.2962747461971
 30
0.0
 11
305.54467270831123
 21
194.35139282828931
 31
0.0
  0
LINE
  5
8CC
  8
0
  6
CONTINUOUS
 10
305.90691130896039
 20
195.2962747461971
 30
0.0
 11
309.53575365843108
 21
194.35139282828931
 31
0.0
  0
LINE
  5
8CD
  8
0
  6
CONTINUOUS
 10
229.20133255473189
 20
195.2962747461971
 30
0.0
 11
225.5724902052612
 21
194.35139282828931
 31
0.0
  0
LINE
  5
8CE
  8
0
  6
CONTINUOUS
 10
235.0904135972057
 20
195.2962747461971
 30
0.0
 11
229.5635711553814
 21
194.35139282828931
 31
0.0
  0
LINE
  5
8CF
  8
0
  6
CONTINUOUS
 10
56.017830266486037
 20
195.2962747461971
 30
0.0
 11
61.54467270831082
 21
194.35139282828931
 31
0.0
  0
LINE
  5
8D0
  8
0
  6
CONTINUOUS
 10
61.906911308959927
 20
195.2962747461971
 30
0.0
 11
65.535753658430608
 21
194.35139282828931
 31
0.0
  0
LINE
  5
8D1
  8
0
  6
CONTINUOUS
 10
-14.798667445268279
 20
195.2962747461971
 30
0.0
 11
-18.427509794738949
 21
194.35139282828931
 31
0.0
  0
LINE
  5
8D2
  8
0
  6
CONTINUOUS
 10
-8.9095864027945009
 20
195.2962747461971
 30
0.0
 11
-14.436428844618771
 21
194.35139282828931
 31
0.0
  0
LINE
  5
8D3
  8
0
  6
CONTINUOUS
 10
-188.84641628098061
 20
195.607665778317
 30
0.0
 11
-181.0769577827495
 21
193.95847004721401
 31
0.0
  0
LINE
  5
8D4
  8
0
  6
CONTINUOUS
 10
-184.0290862561049
 20
195.607665778317
 30
0.0
 11
-176.2970432230841
 21
193.95847004721401
 31
0.0
  0
LINE
  5
8D5
  8
0
  6
CONTINUOUS
 10
-181.0769577827495
 20
193.95847004721401
 30
0.0
 11
-176.73143674344391
 21
193.03606152298121
 31
0.0
  0
LINE
  5
8D6
  8
0
  6
CONTINUOUS
 10
-176.2970432230841
 20
193.95847004721401
 30
0.0
 11
-173.07540396557431
 21
193.03606152298121
 31
0.0
  0
LINE
  5
8D7
  8
0
  6
CONTINUOUS
 10
305.5446727083102
 20
194.35139282828931
 30
0.0
 11
316.93941260791871
 21
191.39708038993169
 31
0.0
  0
LINE
  5
8D8
  8
0
  6
CONTINUOUS
 10
309.53575365843108
 20
194.35139282828931
 30
0.0
 11
320.88186356560078
 21
191.39708038993169
 31
0.0
  0
LINE
  5
8D9
  8
0
  6
CONTINUOUS
 10
225.5724902052612
 20
194.35139282828931
 30
0.0
 11
214.2263802980915
 21
191.39708038993169
 31
0.0
  0
LINE
  5
8DA
  8
0
  6
CONTINUOUS
 10
229.5635711553814
 20
194.35139282828931
 30
0.0
 11
218.16883125577351
 21
191.39708038993169
 31
0.0
  0
LINE
  5
8DB
  8
0
  6
CONTINUOUS
 10
61.544672708309967
 20
194.35139282828931
 30
0.0
 11
72.939412607918555
 21
191.39708038993169
 31
0.0
  0
LINE
  5
8DC
  8
0
  6
CONTINUOUS
 10
65.535753658430608
 20
194.35139282828931
 30
0.0
 11
76.881863565600327
 21
191.39708038993169
 31
0.0
  0
LINE
  5
8DD
  8
0
  6
CONTINUOUS
 10
-18.427509794738949
 20
194.35139282828931
 30
0.0
 11
-29.773619701908672
 21
191.39708038993169
 31
0.0
  0
LINE
  5
8DE
  8
0
  6
CONTINUOUS
 10
-14.436428844618771
 20
194.35139282828931
 30
0.0
 11
-25.831168744226641
 21
191.39708038993169
 31
0.0
  0
LINE
  5
8DF
  8
0
  6
CONTINUOUS
 10
316.93941260791871
 20
191.39708038993169
 30
0.0
 11
320.38115578282338
 21
190.50474017323211
 31
0.0
  0
LINE
  5
8E0
  8
0
  6
CONTINUOUS
 10
320.88186356560072
 20
191.39708038993169
 30
0.0
 11
323.4235872506066
 21
190.50474017323211
 31
0.0
  0
LINE
  5
8E1
  8
0
  6
CONTINUOUS
 10
214.2263802980915
 20
191.39708038993169
 30
0.0
 11
211.68465661308551
 21
190.50474017323211
 31
0.0
  0
LINE
  5
8E2
  8
0
  6
CONTINUOUS
 10
218.16883125577351
 20
191.39708038993169
 30
0.0
 11
214.72708808086901
 21
190.50474017323211
 31
0.0
  0
LINE
  5
8E3
  8
0
  6
CONTINUOUS
 10
72.939412607918555
 20
191.39708038993169
 30
0.0
 11
76.381155782823242
 21
190.50474017323211
 31
0.0
  0
LINE
  5
8E4
  8
0
  6
CONTINUOUS
 10
76.881863565600327
 20
191.39708038993169
 30
0.0
 11
79.423587250606346
 21
190.50474017323211
 31
0.0
  0
LINE
  5
8E5
  8
0
  6
CONTINUOUS
 10
-29.773619701908672
 20
191.39708038993169
 30
0.0
 11
-32.315343386914734
 21
190.50474017323211
 31
0.0
  0
LINE
  5
8E6
  8
0
  6
CONTINUOUS
 10
-25.831168744226641
 20
191.39708038993169
 30
0.0
 11
-29.272911919131111
 21
190.50474017323211
 31
0.0
  0
LINE
  5
8E7
  8
0
  6
CONTINUOUS
 10
-176.73143674344391
 20
193.03606152298121
 30
0.0
 11
-167.84327526644259
 21
190.5029002417742
 31
0.0
  0
LINE
  5
8E8
  8
0
  6
CONTINUOUS
 10
-173.07540396557431
 20
193.03606152298121
 30
0.0
 11
-164.22798808124219
 21
190.5029002417742
 31
0.0
  0
LINE
  5
8E9
  8
0
  6
CONTINUOUS
 10
-167.84327526644259
 20
190.5029002417742
 30
0.0
 11
-164.76459067250229
 21
189.62546291903891
 31
0.0
  0
LINE
  5
8EA
  8
0
  6
CONTINUOUS
 10
-164.22798808124219
 20
190.5029002417742
 30
0.0
 11
-161.7986647396516
 21
189.62546291903891
 31
0.0
  0
LINE
  5
8EB
  8
0
  6
CONTINUOUS
 10
320.3811557828227
 20
190.50474017323211
 30
0.0
 11
332.70168292760093
 21
186.198154581578
 31
0.0
  0
LINE
  5
8EC
  8
0
  6
CONTINUOUS
 10
323.4235872506066
 20
190.50474017323211
 30
0.0
 11
335.69037787032948
 21
186.198154581578
 31
0.0
  0
LINE
  5
8ED
  8
0
  6
CONTINUOUS
 10
211.68465661308551
 20
190.50474017323211
 30
0.0
 11
199.41786599336271
 21
186.198154581578
 31
0.0
  0
LINE
  5
8EE
  8
0
  6
CONTINUOUS
 10
214.72708808086901
 20
190.50474017323211
 30
0.0
 11
202.4065609360913
 21
186.198154581578
 31
0.0
  0
LINE
  5
8EF
  8
0
  6
CONTINUOUS
 10
76.381155782822617
 20
190.50474017323211
 30
0.0
 11
88.7016829276007
 21
186.198154581578
 31
0.0
  0
LINE
  5
8F0
  8
0
  6
CONTINUOUS
 10
79.423587250606346
 20
190.50474017323211
 30
0.0
 11
91.690377870329243
 21
186.198154581578
 31
0.0
  0
LINE
  5
8F1
  8
0
  6
CONTINUOUS
 10
-32.315343386914734
 20
190.50474017323211
 30
0.0
 11
-44.582134006637837
 21
186.198154581578
 31
0.0
  0
LINE
  5
8F2
  8
0
  6
CONTINUOUS
 10
-29.272911919131111
 20
190.50474017323211
 30
0.0
 11
-41.59343906390891
 21
186.198154581578
 31
0.0
  0
LINE
  5
8F3
  8
0
  6
CONTINUOUS
 10
-164.76459067250229
 20
189.62546291903891
 30
0.0
 11
-155.2327666368289
 21
186.198154581578
 31
0.0
  0
LINE
  5
8F4
  8
0
  6
CONTINUOUS
 10
-161.7986647396516
 20
189.62546291903891
 30
0.0
 11
-152.3096221296708
 21
186.198154581578
 31
0.0
  0
LINE
  5
8F5
  8
0
  6
CONTINUOUS
 10
332.70168292760093
 20
186.198154581578
 30
0.0
 11
335.05412193184799
 21
185.37586996648909
 31
0.0
  0
LINE
  5
8F6
  8
0
  6
CONTINUOUS
 10
335.69037787032931
 20
186.198154581578
 30
0.0
 11
336.2962717972369
 21
185.37586996648909
 31
0.0
  0
LINE
  5
8F7
  8
0
  6
CONTINUOUS
 10
199.41786599336271
 20
186.198154581578
 30
0.0
 11
198.81197206645521
 21
185.37586996648909
 31
0.0
  0
LINE
  5
8F8
  8
0
  6
CONTINUOUS
 10
202.4065609360913
 20
186.198154581578
 30
0.0
 11
200.05412193184429
 21
185.37586996648909
 31
0.0
  0
LINE
  5
8F9
  8
0
  6
CONTINUOUS
 10
88.7016829276007
 20
186.198154581578
 30
0.0
 11
91.054121931847831
 21
185.37586996648909
 31
0.0
  0
LINE
  5
8FA
  8
0
  6
CONTINUOUS
 10
91.690377870329243
 20
186.198154581578
 30
0.0
 11
92.296271797236855
 21
185.37586996648909
 31
0.0
  0
LINE
  5
8FB
  8
0
  6
CONTINUOUS
 10
-44.582134006637659
 20
186.198154581578
 30
0.0
 11
-45.188027933545179
 21
185.37586996648909
 31
0.0
  0
LINE
  5
8FC
  8
0
  6
CONTINUOUS
 10
-41.59343906390891
 20
186.198154581578
 30
0.0
 11
-43.945878068155977
 21
185.37586996648909
 31
0.0
  0
LINE
  5
8FD
  8
0
  6
CONTINUOUS
 10
-155.2327666368289
 20
186.198154581578
 30
0.0
 11
-152.9458780681525
 21
185.37586996648909
 31
0.0
  0
LINE
  5
8FE
  8
0
  6
CONTINUOUS
 10
-152.309622129671
 20
186.198154581578
 30
0.0
 11
-151.70372820276339
 21
185.37586996648909
 31
0.0
  0
LINE
  5
8FF
  8
0
  6
CONTINUOUS
 10
436.9000000000006
 20
185.59412692079559
 30
0.0
 11
436.9000000000006
 21
179.47071883921359
 31
0.0
  0
LINE
  5
900
  8
0
  6
CONTINUOUS
 10
437.9000000000006
 20
185.59412692079559
 30
0.0
 11
437.9000000000006
 21
179.47071883921359
 31
0.0
  0
LINE
  5
901
  8
0
  6
CONTINUOUS
 10
436.9000000000006
 20
179.47071883921359
 30
0.0
 11
436.81890768938371
 21
178.73257810103769
 31
0.0
  0
LINE
  5
902
  8
0
  6
CONTINUOUS
 10
437.9000000000006
 20
179.47071883921359
 30
0.0
 11
437.81890768938359
 21
178.73257810103769
 31
0.0
  0
LINE
  5
903
  8
0
  6
CONTINUOUS
 10
436.81890768938371
 20
178.73257810103769
 30
0.0
 11
436.74496625344352
 21
178.51547788392719
 31
0.0
  0
LINE
  5
904
  8
0
  6
CONTINUOUS
 10
437.81890768938359
 20
178.73257810103769
 30
0.0
 11
437.79505700979041
 21
178.51547788392719
 31
0.0
  0
LINE
  5
905
  8
0
  6
CONTINUOUS
 10
436.74496625344352
 20
178.51547788392719
 30
0.0
 11
436.57949897096847
 21
178.02964767934381
 31
0.0
  0
LINE
  5
906
  8
0
  6
CONTINUOUS
 10
437.79505700979041
 20
178.51547788392719
 30
0.0
 11
437.62958972731531
 21
178.02964767934381
 31
0.0
  0
LINE
  5
907
  8
0
  6
CONTINUOUS
 10
436.57949897096847
 20
178.02964767934381
 30
0.0
 11
436.32132177054268
 21
177.6058032205585
 31
0.0
  0
LINE
  5
908
  8
0
  6
CONTINUOUS
 10
437.62958972731531
 20
178.02964767934381
 30
0.0
 11
437.4852339624295
 21
177.6058032205585
 31
0.0
  0
LINE
  5
909
  8
0
  6
CONTINUOUS
 10
436.32132177054268
 20
177.6058032205585
 30
0.0
 11
436.19319396602458
 21
177.3954583106601
 31
0.0
  0
LINE
  5
90A
  8
0
  6
CONTINUOUS
 10
437.4852339624295
 20
177.6058032205585
 30
0.0
 11
437.35710615791129
 21
177.3954583106601
 31
0.0
  0
LINE
  5
90B
  8
0
  6
CONTINUOUS
 10
436.19319396602458
 20
177.3954583106601
 30
0.0
 11
435.67841994834862
 21
176.86026168985461
 31
0.0
  0
LINE
  5
90C
  8
0
  6
CONTINUOUS
 10
437.35710615791129
 20
177.3954583106601
 30
0.0
 11
437.03110079822619
 21
176.86026168985461
 31
0.0
  0
LINE
  5
90D
  8
0
  6
CONTINUOUS
 10
435.67841994834862
 20
176.86026168985461
 30
0.0
 11
435.5651688824733
 21
176.78508756696789
 31
0.0
  0
LINE
  5
90E
  8
0
  6
CONTINUOUS
 10
437.03110079822619
 20
176.86026168985461
 30
0.0
 11
436.98530983838458
 21
176.78508756696789
 31
0.0
  0
LINE
  5
90F
  8
0
  6
CONTINUOUS
 10
335.05412193184702
 20
185.37586996648909
 30
0.0
 11
341.41226629806602
 21
176.74695975519199
 31
0.0
  0
LINE
  5
910
  8
0
  6
CONTINUOUS
 10
336.2962717972369
 20
185.37586996648909
 30
0.0
 11
342.65441616345601
 21
176.74695975519199
 31
0.0
  0
LINE
  5
911
  8
0
  6
CONTINUOUS
 10
198.81197206645521
 20
185.37586996648909
 30
0.0
 11
192.45382770023701
 21
176.74695975519199
 31
0.0
  0
LINE
  5
912
  8
0
  6
CONTINUOUS
 10
200.05412193184429
 20
185.37586996648909
 30
0.0
 11
193.69597756562609
 21
176.74695975519199
 31
0.0
  0
LINE
  5
913
  8
0
  6
CONTINUOUS
 10
91.054121931846808
 20
185.37586996648909
 30
0.0
 11
97.412266298065703
 21
176.74695975519199
 31
0.0
  0
LINE
  5
914
  8
0
  6
CONTINUOUS
 10
92.296271797236855
 20
185.37586996648909
 30
0.0
 11
98.654416163455764
 21
176.74695975519199
 31
0.0
  0
LINE
  5
915
  8
0
  6
CONTINUOUS
 10
-45.188027933545179
 20
185.37586996648909
 30
0.0
 11
-51.546172299763271
 21
176.74695975519199
 31
0.0
  0
LINE
  5
916
  8
0
  6
CONTINUOUS
 10
-43.945878068155857
 20
185.37586996648909
 30
0.0
 11
-50.304022434374112
 21
176.74695975519199
 31
0.0
  0
LINE
  5
917
  8
0
  6
CONTINUOUS
 10
-152.94587806815349
 20
185.37586996648909
 30
0.0
 11
-146.5877337019347
 21
176.74695975519199
 31
0.0
  0
LINE
  5
918
  8
0
  6
CONTINUOUS
 10
-151.70372820276339
 20
185.37586996648909
 30
0.0
 11
-145.34558383654451
 21
176.74695975519199
 31
0.0
  0
LINE
  5
919
  8
0
  6
CONTINUOUS
 10
435.5651688824733
 20
176.78508756696789
 30
0.0
 11
435.05973233825728
 21
176.44958742317161
 31
0.0
  0
LINE
  5
91A
  8
0
  6
CONTINUOUS
 10
436.98530983838458
 20
176.78508756696789
 30
0.0
 11
436.66261206668918
 21
176.44958742317161
 31
0.0
  0
LINE
  5
91B
  8
0
  6
CONTINUOUS
 10
435.05973233825728
 20
176.44958742317161
 30
0.0
 11
434.36664337566509
 21
176.1830252313151
 31
0.0
  0
LINE
  5
91C
  8
0
  6
CONTINUOUS
 10
436.66261206668918
 20
176.44958742317161
 30
0.0
 11
436.40622163908159
 21
176.1830252313151
 31
0.0
  0
LINE
  5
91D
  8
0
  6
CONTINUOUS
 10
434.36664337566509
 20
176.1830252313151
 30
0.0
 11
433.94867638350371
 21
176.09248017533719
 31
0.0
  0
LINE
  5
91E
  8
0
  6
CONTINUOUS
 10
436.40622163908159
 20
176.1830252313151
 30
0.0
 11
436.3191316978627
 21
176.09248017533719
 31
0.0
  0
LINE
  5
91F
  8
0
  6
CONTINUOUS
 10
341.41226629806602
 20
176.74695975519199
 30
0.0
 11
342.0541219318464
 21
175.87586996649
 31
0.0
  0
LINE
  5
920
  8
0
  6
CONTINUOUS
 10
342.65441616345601
 20
176.74695975519199
 30
0.0
 11
346.44931983277138
 21
175.87586996649
 31
0.0
  0
LINE
  5
921
  8
0
  6
CONTINUOUS
 10
192.45382770023471
 20
176.74695975519199
 30
0.0
 11
188.6404807442506
 21
175.87586996649
 31
0.0
  0
LINE
  5
922
  8
0
  6
CONTINUOUS
 10
193.69597756562609
 20
176.74695975519199
 30
0.0
 11
193.0541219318458
 21
175.87586996649
 31
0.0
  0
LINE
  5
923
  8
0
  6
CONTINUOUS
 10
97.412266298065703
 20
176.74695975519199
 30
0.0
 11
98.054121931846083
 21
175.87586996649
 31
0.0
  0
LINE
  5
924
  8
0
  6
CONTINUOUS
 10
98.654416163456986
 20
176.74695975519199
 30
0.0
 11
102.4677631194413
 21
175.87586996649
 31
0.0
  0
LINE
  5
925
  8
0
  6
CONTINUOUS
 10
-51.546172299768664
 20
176.74695975519199
 30
0.0
 11
-55.359519255753
 21
175.87586996649
 31
0.0
  0
LINE
  5
926
  8
0
  6
CONTINUOUS
 10
-50.304022434374112
 20
176.74695975519199
 30
0.0
 11
-50.945878068154443
 21
175.87586996649
 31
0.0
  0
LINE
  5
927
  8
0
  6
CONTINUOUS
 10
-146.5877337019347
 20
176.74695975519199
 30
0.0
 11
-145.94587806815429
 21
175.87586996649
 31
0.0
  0
LINE
  5
928
  8
0
  6
CONTINUOUS
 10
-145.3455838365401
 20
176.74695975519199
 30
0.0
 11
-141.53223688055559
 21
175.87586996649
 31
0.0
  0
LINE
  5
929
  8
0
  6
CONTINUOUS
 10
433.94867638350371
 20
176.09248017533719
 30
0.0
 11
431.49538861208651
 21
175.5610193596298
 31
0.0
  0
LINE
  5
92A
  8
0
  6
CONTINUOUS
 10
436.3191316978627
 20
176.09248017533719
 30
0.0
 11
435.51847714362691
 21
175.5610193596298
 31
0.0
  0
LINE
  5
92B
  8
0
  6
CONTINUOUS
 10
431.49538861208651
 20
175.5610193596298
 30
0.0
 11
429.9029981979362
 21
175.2160565231093
 31
0.0
  0
LINE
  5
92C
  8
0
  6
CONTINUOUS
 10
435.51847714362691
 20
175.5610193596298
 30
0.0
 11
434.6215384861535
 21
175.2160565231093
 31
0.0
  0
LINE
  5
92D
  8
0
  6
CONTINUOUS
 10
342.0541219318464
 20
175.87586996649
 30
0.0
 11
353.292463014975
 21
173.27501336653489
 31
0.0
  0
LINE
  5
92E
  8
0
  6
CONTINUOUS
 10
346.44931983277138
 20
175.87586996649
 30
0.0
 11
357.77995461066331
 21
173.27501336653489
 31
0.0
  0
LINE
  5
92F
  8
0
  6
CONTINUOUS
 10
188.6404807442506
 20
175.87586996649
 30
0.0
 11
176.9695734204806
 21
173.20986335550771
 31
0.0
  0
LINE
  5
930
  8
0
  6
CONTINUOUS
 10
193.0541219318448
 20
175.87586996649
 30
0.0
 11
181.46977750092361
 21
173.20986335550771
 31
0.0
  0
LINE
  5
931
  8
0
  6
CONTINUOUS
 10
98.054121931846808
 20
175.87586996649
 30
0.0
 11
109.6384663627683
 21
173.20986335550771
 31
0.0
  0
LINE
  5
932
  8
0
  6
CONTINUOUS
 10
102.4677631194413
 20
175.87586996649
 30
0.0
 11
114.13867044321211
 21
173.20986335550771
 31
0.0
  0
LINE
  5
933
  8
0
  6
CONTINUOUS
 10
-55.359519255753
 20
175.87586996649
 30
0.0
 11
-67.030426579523635
 21
173.20986335550771
 31
0.0
  0
LINE
  5
934
  8
0
  6
CONTINUOUS
 10
-50.945878068158542
 20
175.87586996649
 30
0.0
 11
-62.530222499080452
 21
173.20986335550771
 31
0.0
  0
LINE
  5
935
  8
0
  6
CONTINUOUS
 10
-145.94587806815019
 20
175.87586996649
 30
0.0
 11
-134.36153363722849
 21
173.20986335550771
 31
0.0
  0
LINE
  5
936
  8
0
  6
CONTINUOUS
 10
-141.53223688055559
 20
175.87586996649
 30
0.0
 11
-129.8613295567846
 21
173.20986335550771
 31
0.0
  0
LINE
  5
937
  8
0
  6
CONTINUOUS
 10
429.9029981979362
 20
175.2160565231093
 30
0.0
 11
419.19955258600271
 21
172.89734691143099
 31
0.0
  0
LINE
  5
938
  8
0
  6
CONTINUOUS
 10
434.6215384861535
 20
175.2160565231093
 30
0.0
 11
423.90940386455992
 21
172.89734691143099
 31
0.0
  0
LINE
  5
939
  8
0
  6
CONTINUOUS
 10
353.292463014975
 20
173.27501336653489
 30
0.0
 11
357.31622040500741
 21
172.34380689334861
 31
0.0
  0
LINE
  5
93A
  8
0
  6
CONTINUOUS
 10
357.77995461066331
 20
173.27501336653489
 30
0.0
 11
364.47618105061531
 21
172.34380689334861
 31
0.0
  0
LINE
  5
93B
  8
0
  6
CONTINUOUS
 10
176.96957342047949
 20
173.20986335550771
 30
0.0
 11
170.03536659351951
 21
172.26724102636081
 31
0.0
  0
LINE
  5
93C
  8
0
  6
CONTINUOUS
 10
181.46977750092361
 20
173.20986335550771
 30
0.0
 11
177.37389053495269
 21
172.26724102636081
 31
0.0
  0
LINE
  5
93D
  8
0
  6
CONTINUOUS
 10
109.6384663627683
 20
173.20986335550771
 30
0.0
 11
113.7343533287393
 21
172.26724102636081
 31
0.0
  0
LINE
  5
93E
  8
0
  6
CONTINUOUS
 10
114.13867044321211
 20
173.20986335550771
 30
0.0
 11
121.0728772701725
 21
172.26724102636081
 31
0.0
  0
LINE
  5
93F
  8
0
  6
CONTINUOUS
 10
-67.030426579527699
 20
173.20986335550771
 30
0.0
 11
-73.964633406487778
 21
172.26724102636081
 31
0.0
  0
LINE
  5
940
  8
0
  6
CONTINUOUS
 10
-62.530222499080452
 20
173.20986335550771
 30
0.0
 11
-66.626109465051641
 21
172.26724102636081
 31
0.0
  0
LINE
  5
941
  8
0
  6
CONTINUOUS
 10
-134.36153363722849
 20
173.20986335550771
 30
0.0
 11
-130.2656466712574
 21
172.26724102636081
 31
0.0
  0
LINE
  5
942
  8
0
  6
CONTINUOUS
 10
-129.8613295567817
 20
173.20986335550771
 30
0.0
 11
-122.9271227298207
 21
172.26724102636081
 31
0.0
  0
LINE
  5
943
  8
0
  6
CONTINUOUS
 10
419.19955258600271
 20
172.89734691143099
 30
0.0
 11
411.33361017495969
 21
171.90191542105251
 31
0.0
  0
LINE
  5
944
  8
0
  6
CONTINUOUS
 10
423.90940386455992
 20
172.89734691143099
 30
0.0
 11
419.31064079487572
 21
171.90191542105251
 31
0.0
  0
LINE
  5
945
  8
0
  6
CONTINUOUS
 10
357.31622040500741
 20
172.34380689334861
 30
0.0
 11
365.78183897262869
 21
171.15385901707791
 31
0.0
  0
LINE
  5
946
  8
0
  6
CONTINUOUS
 10
364.47618105061531
 20
172.34380689334861
 30
0.0
 11
373.0329948837325
 21
171.15385901707791
 31
0.0
  0
LINE
  5
947
  8
0
  6
CONTINUOUS
 10
170.03536659351951
 20
172.26724102636081
 30
0.0
 11
161.3576211609755
 21
171.08760551569711
 31
0.0
  0
LINE
  5
948
  8
0
  6
CONTINUOUS
 10
177.37389053495269
 20
172.26724102636081
 30
0.0
 11
168.75946387343029
 21
171.08760551569711
 31
0.0
  0
LINE
  5
949
  8
0
  6
CONTINUOUS
 10
113.7343533287393
 20
172.26724102636081
 30
0.0
 11
122.3487799902617
 21
171.08760551569711
 31
0.0
  0
LINE
  5
94A
  8
0
  6
CONTINUOUS
 10
121.0728772701725
 20
172.26724102636081
 30
0.0
 11
129.7506227027171
 21
171.08760551569711
 31
0.0
  0
LINE
  5
94B
  8
0
  6
CONTINUOUS
 10
-73.964633406487778
 20
172.26724102636081
 30
0.0
 11
-82.642378839031863
 21
171.08760551569711
 31
0.0
  0
LINE
  5
94C
  8
0
  6
CONTINUOUS
 10
-66.626109465054654
 20
172.26724102636081
 30
0.0
 11
-75.240536126577183
 21
171.08760551569711
 31
0.0
  0
LINE
  5
94D
  8
0
  6
CONTINUOUS
 10
-130.26564667125459
 20
172.26724102636081
 30
0.0
 11
-121.6512200097318
 21
171.08760551569711
 31
0.0
  0
LINE
  5
94E
  8
0
  6
CONTINUOUS
 10
-122.9271227298207
 20
172.26724102636081
 30
0.0
 11
-114.2493772972755
 21
171.08760551569711
 31
0.0
  0
LINE
  5
94F
  8
0
  6
CONTINUOUS
 10
411.33361017495969
 20
171.90191542105251
 30
0.0
 11
403.92158090745988
 21
170.96392643576351
 31
0.0
  0
LINE
  5
950
  8
0
  6
CONTINUOUS
 10
419.31064079487572
 20
171.90191542105251
 30
0.0
 11
411.8694286454018
 21
170.96392643576351
 31
0.0
  0
LINE
  5
951
  8
0
  6
CONTINUOUS
 10
365.78183897262869
 20
171.15385901707791
 30
0.0
 11
367.13307192916051
 21
170.96392643576351
 31
0.0
  0
LINE
  5
952
  8
0
  6
CONTINUOUS
 10
373.0329948837325
 20
171.15385901707791
 30
0.0
 11
376.83794595134742
 21
170.96392643576351
 31
0.0
  0
LINE
  5
953
  8
0
  6
CONTINUOUS
 10
411.8694286454018
 20
170.96392643576351
 30
0.0
 11
407.26188243725812
 21
170.38313025556661
 31
0.0
  0
LINE
  5
954
  8
0
  6
CONTINUOUS
 10
367.13307192916051
 20
170.96392643576351
 30
0.0
 11
371.26501671861439
 21
170.38313025556661
 31
0.0
  0
LINE
  5
955
  8
0
  6
CONTINUOUS
 10
-82.642378839049755
 20
171.08760551569711
 30
0.0
 11
-98.38010969564553
 21
170.38313025556661
 31
0.0
  0
LINE
  5
956
  8
0
  6
CONTINUOUS
 10
-75.240536126577183
 20
171.08760551569711
 30
0.0
 11
-80.385049332895761
 21
170.38313025556661
 31
0.0
  0
LINE
  5
957
  8
0
  6
CONTINUOUS
 10
-121.6512200097318
 20
171.08760551569711
 30
0.0
 11
-116.506706803413
 21
170.38313025556661
 31
0.0
  0
LINE
  5
958
  8
0
  6
CONTINUOUS
 10
-114.2493772972593
 20
171.08760551569711
 30
0.0
 11
-98.511646440660883
 21
170.38313025556661
 31
0.0
  0
LINE
  5
959
  8
0
  6
CONTINUOUS
 10
161.3576211609726
 20
171.08760551569711
 30
0.0
 11
145.55412193184711
 21
170.38018623576031
 31
0.0
  0
LINE
  5
95A
  8
0
  6
CONTINUOUS
 10
168.75946387343029
 20
171.08760551569711
 30
0.0
 11
163.5934516172087
 21
170.38018623576031
 31
0.0
  0
LINE
  5
95B
  8
0
  6
CONTINUOUS
 10
122.3487799902617
 20
171.08760551569711
 30
0.0
 11
127.5147922464833
 21
170.38018623576031
 31
0.0
  0
LINE
  5
95C
  8
0
  6
CONTINUOUS
 10
129.7506227027171
 20
171.08760551569711
 30
0.0
 11
145.55412193184711
 21
170.38018623576031
 31
0.0
  0
LINE
  5
95D
  8
0
  6
CONTINUOUS
 10
-80.385049332895761
 20
170.38313025556661
 30
0.0
 11
-80.406548382798888
 21
170.38018623576031
 31
0.0
  0
LINE
  5
95E
  8
0
  6
CONTINUOUS
 10
-116.506706803413
 20
170.38313025556661
 30
0.0
 11
-116.4852077535099
 21
170.38018623576031
 31
0.0
  0
LINE
  5
95F
  8
0
  6
CONTINUOUS
 10
371.26501671861439
 20
170.38313025556661
 30
0.0
 11
372.70928273050492
 21
170.18012072237161
 31
0.0
  0
LINE
  5
960
  8
0
  6
CONTINUOUS
 10
407.26188243725812
 20
170.38313025556661
 30
0.0
 11
405.65137631345368
 21
170.18012072237161
 31
0.0
  0
LINE
  5
961
  8
0
  6
CONTINUOUS
 10
127.5147922464833
 20
170.38018623576031
 30
0.0
 11
129.54581495686691
 21
170.10206366228309
 31
0.0
  0
LINE
  5
962
  8
0
  6
CONTINUOUS
 10
163.5934516172087
 20
170.38018623576031
 30
0.0
 11
161.56242890682509
 21
170.10206366228309
 31
0.0
  0
LINE
  5
963
  8
0
  6
CONTINUOUS
 10
-116.4852077535099
 20
170.38018623576031
 30
0.0
 11
-114.4541850431261
 21
170.10206366228309
 31
0.0
  0
LINE
  5
964
  8
0
  6
CONTINUOUS
 10
-80.406548382798888
 20
170.38018623576031
 30
0.0
 11
-82.437571093182527
 21
170.10206366228309
 31
0.0
  0
LINE
  5
965
  8
0
  6
CONTINUOUS
 10
403.88829893850851
 20
169.95787908691071
 30
0.0
 11
388.29391091269491
 21
169.38437948712129
 31
0.0
  0
LINE
  5
966
  8
0
  6
CONTINUOUS
 10
388.29391091269491
 20
169.38437948712129
 30
0.0
 11
377.06189524048921
 21
169.95787908691071
 31
0.0
  0
LINE
  5
967
  8
0
  6
CONTINUOUS
 10
372.70928273050492
 20
170.18012072237161
 30
0.0
 11
377.06189524048921
 21
169.95787908691071
 31
0.0
  0
LINE
  5
968
  8
0
  6
CONTINUOUS
 10
405.65137631345368
 20
170.18012072237161
 30
0.0
 11
403.88829893850851
 21
169.95787908691071
 31
0.0
  0
LINE
  5
969
  8
0
  6
CONTINUOUS
 10
-98.356232692500754
 20
169.38437948712129
 30
0.0
 11
-98.445878068176285
 21
169.38033787425721
 31
0.0
  0
LINE
  5
96A
  8
0
  6
CONTINUOUS
 10
-98.445878068176285
 20
169.38033787425721
 30
0.0
 11
-98.535523443807705
 21
169.38437948712129
 31
0.0
  0
LINE
  5
96B
  8
0
  6
CONTINUOUS
 10
145.64376730752139
 20
169.38437948712129
 30
0.0
 11
145.55412193184591
 21
169.38033787425721
 31
0.0
  0
LINE
  5
96C
  8
0
  6
CONTINUOUS
 10
145.55412193184591
 20
169.38033787425721
 30
0.0
 11
145.4644765561703
 21
169.38437948712129
 31
0.0
  0
LINE
  5
96D
  8
0
  6
CONTINUOUS
 10
129.54581495686691
 20
170.10206366228309
 30
0.0
 11
145.4644765561703
 21
169.38437948712129
 31
0.0
  0
LINE
  5
96E
  8
0
  6
CONTINUOUS
 10
161.56242890682509
 20
170.10206366228309
 30
0.0
 11
145.64376730752139
 21
169.38437948712129
 31
0.0
  0
LINE
  5
96F
  8
0
  6
CONTINUOUS
 10
-114.4541850431109
 20
170.10206366228309
 30
0.0
 11
-98.535523443807705
 21
169.38437948712129
 31
0.0
  0
LINE
  5
970
  8
0
  6
CONTINUOUS
 10
-82.437571093197747
 20
170.10206366228309
 30
0.0
 11
-98.356232692500754
 21
169.38437948712129
 31
0.0
  0
ENDBLK
  5
972
  8
0
  0
ENDSEC
  0
SECTION
  2
ENTITIES
  0
CIRCLE
  5
262
  8
0
 10
-156.41654338549449
 20
187.46056199610021
 30
0.0
 40
2.5
1001
REVIT
1002
{
1070
     1
1000
686945
1002
}
1002
{
1070
     5
1000
515860
1002
}
1002
{
1070
     2
1000
-2005028
1002
}
  0
INSERT
  5
263
  8
0
  6
CONTINUOUS
  2
*U24
 10
0.0
 20
0.0
 30
0.0
1001
REVIT
1002
{
1070
     1
1000
686945
1002
}
1002
{
1070
     5
1000
515860
1002
}
1002
{
1070
     2
1000
-2005028
1002
}
1001
ACAD
1002
{
1000
R14_HATCH_DATA
1000
263
1011
1.0
1021
0.0
1031
0.0
1021
0.0
1031
0.0
1011
0.0
1021
0.0
1031
0.0
1021
1.0
1031
0.0
1011
0.0
1021
0.0
1031
0.0
1021
0.0
1031
1.0
1040
0.0
1010
0.0
1020
0.0
1030
1.0
1000
SOLID
1070
     1
1070
     0
1071
        1
1071
        0
1071
        1
1070
     2
1040
-156.41654338549449
1040
187.46056199610021
1040
2.5
1040
0.0
1040
6.2831853071795862
1070
     1
1071
        0
1070
     0
1070
     1
1071
        1
1040
0.0
1040
0.0
1040
0.0
1002
}
  0
LINE
  5
264
  8
0
 10
-156.41654338549449
 20
267.66040521256718
 30
0.0
 11
-239.82704577405889
 21
267.66040521256718
 31
0.0
1001
REVIT
1002
{
1070
     1
1000
686945
1002
}
1002
{
1070
     5
1000
515860
1002
}
1002
{
1070
     2
1000
-2005028
1002
}
  0
LINE
  5
265
  8
0
 10
-156.41654338549449
 20
187.46056199610021
 30
0.0
 11
-156.41654338549449
 21
267.66040521256718
 31
0.0
1001
REVIT
1002
{
1070
     1
1000
686945
1002
}
1002
{
1070
     5
1000
515860
1002
}
1002
{
1070
     2
1000
-2005028
1002
}
  0
INSERT
  5
267
  8
0
  2
*U25
 10
0.0
 20
0.0
 30
0.0
  0
INSERT
  5
269
  8
0
  2
*U26
 10
0.0
 20
0.0
 30
0.0
  0
CIRCLE
  5
26A
  8
0
 10
414.54427973252899
 20
190.52842306383079
 30
0.0
 40
2.5
1001
REVIT
1002
{
1070
     1
1000
686950
1002
}
1002
{
1070
     5
1000
233011
1002
}
1002
{
1070
     2
1000
-2005028
1002
}
  0
INSERT
  5
26B
  8
0
  6
CONTINUOUS
  2
*U27
 10
0.0
 20
0.0
 30
0.0
1001
REVIT
1002
{
1070
     1
1000
686950
1002
}
1002
{
1070
     5
1000
233011
1002
}
1002
{
1070
     2
1000
-2005028
1002
}
1001
ACAD
1002
{
1000
R14_HATCH_DATA
1000
26B
1011
1.0
1021
0.0
1031
0.0
1021
0.0
1031
0.0
1011
0.0
1021
0.0
1031
0.0
1021
1.0
1031
0.0
1011
0.0
1021
0.0
1031
0.0
1021
0.0
1031
1.0
1040
0.0
1010
0.0
1020
0.0
1030
1.0
1000
SOLID
1070
     1
1070
     0
1071
        1
1071
        0
1071
        1
1070
     2
1040
414.54427973252899
1040
190.52842306383079
1040
2.5
1040
0.0
1040
6.2831853071795862
1070
     1
1071
        0
1070
     0
1070
     1
1071
        1
1040
0.0
1040
0.0
1040
0.0
1002
}
  0
LINE
  5
26C
  8
0
 10
414.54427973252899
 20
293.46088693558818
 30
0.0
 11
606.8828562433099
 21
293.46088693558818
 31
0.0
1001
REVIT
1002
{
1070
     1
1000
686950
1002
}
1002
{
1070
     5
1000
233011
1002
}
1002
{
1070
     2
1000
-2005028
1002
}
  0
LINE
  5
26D
  8
0
 10
414.54427973252899
 20
190.52842306383079
 30
0.0
 11
414.54427973252899
 21
293.46088693558818
 31
0.0
1001
REVIT
1002
{
1070
     1
1000
686950
1002
}
1002
{
1070
     5
1000
233011
1002
}
1002
{
1070
     2
1000
-2005028
1002
}
  0
INSERT
  5
26E
  8
0
  2
*U28
 10
0.0
 20
0.0
 30
0.0
  0
CIRCLE
  5
26F
  8
0
 10
-146.9809986356874
 20
95.512896747618385
 30
0.0
 40
2.500000000000028
1001
REVIT
1002
{
1070
     1
1000
686952
1002
}
1002
{
1070
     5
1000
233013
1002
}
1002
{
1070
     2
1000
-2005028
1002
}
  0
INSERT
  5
270
  8
0
  6
CONTINUOUS
  2
*U29
 10
0.0
 20
0.0
 30
0.0
1001
REVIT
1002
{
1070
     1
1000
686952
1002
}
1002
{
1070
     5
1000
233013
1002
}
1002
{
1070
     2
1000
-2005028
1002
}
1001
ACAD
1002
{
1000
R14_HATCH_DATA
1000
270
1011
1.0
1021
0.0
1031
0.0
1021
0.0
1031
0.0
1011
0.0
1021
0.0
1031
0.0
1021
1.0
1031
0.0
1011
0.0
1021
0.0
1031
0.0
1021
0.0
1031
1.0
1040
0.0
1010
0.0
1020
0.0
1030
1.0
1000
SOLID
1070
     1
1070
     0
1071
        1
1071
        0
1071
        1
1070
     2
1040
-146.9809986356874
1040
95.512896747618385
1040
2.500000000000028
1040
0.0
1040
6.2831853071795862
1070
     1
1071
        0
1070
     0
1070
     1
1071
        1
1040
0.0
1040
0.0
1040
0.0
1002
}
  0
LINE
  5
271
  8
0
 10
-146.9809986356874
 20
42.593188026409933
 30
0.0
 11
-297.82704577405889
 21
42.593188026409933
 31
0.0
1001
REVIT
1002
{
1070
     1
1000
686952
1002
}
1002
{
1070
     5
1000
233013
1002
}
1002
{
1070
     2
1000
-2005028
1002
}
  0
LINE
  5
272
  8
0
 10
-146.9809986356874
 20
95.512896747618385
 30
0.0
 11
-146.9809986356874
 21
42.593188026409933
 31
0.0
1001
REVIT
1002
{
1070
     1
1000
686952
1002
}
1002
{
1070
     5
1000
233013
1002
}
1002
{
1070
     2
1000
-2005028
1002
}
  0
INSERT
  5
273
  8
0
  2
*U30
 10
0.0
 20
0.0
 30
0.0
  0
CIRCLE
  5
274
  8
0
 10
-94.996620456609307
 20
146.11250000000251
 30
0.0
 40
2.5
1001
REVIT
1002
{
1070
     1
1000
686953
1002
}
1002
{
1070
     5
1000
233013
1002
}
1002
{
1070
     2
1000
-2005028
1002
}
  0
INSERT
  5
275
  8
0
  6
CONTINUOUS
  2
*U31
 10
0.0
 20
0.0
 30
0.0
1001
REVIT
1002
{
1070
     1
1000
686953
1002
}
1002
{
1070
     5
1000
233013
1002
}
1002
{
1070
     2
1000
-2005028
1002
}
1001
ACAD
1002
{
1000
R14_HATCH_DATA
1000
275
1011
1.0
1021
0.0
1031
0.0
1021
0.0
1031
0.0
1011
0.0
1021
0.0
1031
0.0
1021
1.0
1031
0.0
1011
0.0
1021
0.0
1031
0.0
1021
0.0
1031
1.0
1040
0.0
1010
0.0
1020
0.0
1030
1.0
1000
SOLID
1070
     1
1070
     0
1071
        1
1071
        0
1071
        1
1070
     2
1040
-94.996620456609307
1040
146.11250000000251
1040
2.5
1040
0.0
1040
6.2831853071795862
1070
     1
1071
        0
1070
     0
1070
     1
1071
        1
1040
0.0
1040
0.0
1040
0.0
1002
}
  0
LINE
  5
276
  8
0
 10
-94.996620456609307
 20
146.11250000000251
 30
0.0
 11
-316.20204577405889
 21
146.11250000000251
 31
0.0
1001
REVIT
1002
{
1070
     1
1000
686953
1002
}
1002
{
1070
     5
1000
233013
1002
}
1002
{
1070
     2
1000
-2005028
1002
}
  0
INSERT
  5
277
  8
0
  2
*U32
 10
0.0
 20
0.0
 30
0.0
  0
CIRCLE
  5
278
  8
0
 10
394.68212937990307
 20
-43.286727847887398
 30
0.0
 40
2.5
1001
REVIT
1002
{
1070
     1
1000
686954
1002
}
1002
{
1070
     5
1000
233013
1002
}
1002
{
1070
     2
1000
-2005028
1002
}
  0
INSERT
  5
279
  8
0
  6
CONTINUOUS
  2
*U33
 10
0.0
 20
0.0
 30
0.0
1001
REVIT
1002
{
1070
     1
1000
686954
1002
}
1002
{
1070
     5
1000
233013
1002
}
1002
{
1070
     2
1000
-2005028
1002
}
1001
ACAD
1002
{
1000
R14_HATCH_DATA
1000
279
1011
1.0
1021
0.0
1031
0.0
1021
0.0
1031
0.0
1011
0.0
1021
0.0
1031
0.0
1021
1.0
1031
0.0
1011
0.0
1021
0.0
1031
0.0
1021
0.0
1031
1.0
1040
0.0
1010
0.0
1020
0.0
1030
1.0
1000
SOLID
1070
     1
1070
     0
1071
        1
1071
        0
1071
        1
1070
     2
1040
394.68212937990307
1040
-43.286727847887398
1040
2.5
1040
0.0
1040
6.2831853071795862
1070
     1
1071
        0
1070
     0
1070
     1
1071
        1
1040
0.0
1040
0.0
1040
0.0
1002
}
  0
LINE
  5
27A
  8
0
 10
394.68212937990307
 20
-199.57808721749231
 30
0.0
 11
606.8828562433099
 21
-199.57808721749231
 31
0.0
1001
REVIT
1002
{
1070
     1
1000
686954
1002
}
1002
{
1070
     5
1000
233013
1002
}
1002
{
1070
     2
1000
-2005028
1002
}
  0
LINE
  5
27B
  8
0
 10
394.68212937990307
 20
-43.286727847887398
 30
0.0
 11
394.68212937990307
 21
-199.57808721749231
 31
0.0
1001
REVIT
1002
{
1070
     1
1000
686954
1002
}
1002
{
1070
     5
1000
233013
1002
}
1002
{
1070
     2
1000
-2005028
1002
}
  0
INSERT
  5
27C
  8
0
  2
*U34
 10
0.0
 20
0.0
 30
0.0
  0
CIRCLE
  5
27D
  8
0
 10
471.7544009220203
 20
226.6757516792353
 30
0.0
 40
2.4999999999999432
1001
REVIT
1002
{
1070
     1
1000
686955
1002
}
1002
{
1070
     5
1000
233013
1002
}
1002
{
1070
     2
1000
-2005028
1002
}
  0
INSERT
  5
27E
  8
0
  6
CONTINUOUS
  2
*U35
 10
0.0
 20
0.0
 30
0.0
1001
REVIT
1002
{
1070
     1
1000
686955
1002
}
1002
{
1070
     5
1000
233013
1002
}
1002
{
1070
     2
1000
-2005028
1002
}
1001
ACAD
1002
{
1000
R14_HATCH_DATA
1000
27E
1011
1.0
1021
0.0
1031
0.0
1021
0.0
1031
0.0
1011
0.0
1021
0.0
1031
0.0
1021
1.0
1031
0.0
1011
0.0
1021
0.0
1031
0.0
1021
0.0
1031
1.0
1040
0.0
1010
0.0
1020
0.0
1030
1.0
1000
SOLID
1070
     1
1070
     0
1071
        1
1071
        0
1071
        1
1070
     2
1040
471.7544009220203
1040
226.6757516792353
1040
2.4999999999999432
1040
0.0
1040
6.2831853071795862
1070
     1
1071
        0
1070
     0
1070
     1
1071
        1
1040
0.0
1040
0.0
1040
0.0
1002
}
  0
LINE
  5
27F
  8
0
 10
471.7544009220203
 20
226.6757516792353
 30
0.0
 11
601.22760734086933
 21
226.6757516792353
 31
0.0
1001
REVIT
1002
{
1070
     1
1000
686955
1002
}
1002
{
1070
     5
1000
233013
1002
}
1002
{
1070
     2
1000
-2005028
1002
}
  0
INSERT
  5
280
  8
0
  2
*U36
 10
0.0
 20
0.0
 30
0.0
  0
CIRCLE
  5
281
  8
0
 10
-138.3228457504575
 20
-3.8853390501340579
 30
0.0
 40
2.5
1001
REVIT
1002
{
1070
     1
1000
686956
1002
}
1002
{
1070
     5
1000
233013
1002
}
1002
{
1070
     2
1000
-2005028
1002
}
  0
INSERT
  5
282
  8
0
  6
CONTINUOUS
  2
*U37
 10
0.0
 20
0.0
 30
0.0
1001
REVIT
1002
{
1070
     1
1000
686956
1002
}
1002
{
1070
     5
1000
233013
1002
}
1002
{
1070
     2
1000
-2005028
1002
}
1001
ACAD
1002
{
1000
R14_HATCH_DATA
1000
282
1011
1.0
1021
0.0
1031
0.0
1021
0.0
1031
0.0
1011
0.0
1021
0.0
1031
0.0
1021
1.0
1031
0.0
1011
0.0
1021
0.0
1031
0.0
1021
0.0
1031
1.0
1040
0.0
1010
0.0
1020
0.0
1030
1.0
1000
SOLID
1070
     1
1070
     0
1071
        1
1071
        0
1071
        1
1070
     2
1040
-138.3228457504575
1040
-3.8853390501340579
1040
2.5
1040
0.0
1040
6.2831853071795862
1070
     1
1071
        0
1070
     0
1070
     1
1071
        1
1040
0.0
1040
0.0
1040
0.0
1002
}
  0
LINE
  5
283
  8
0
 10
-138.3228457504575
 20
-3.8853390501340579
 30
0.0
 11
-322.07704577405889
 21
-3.8853390501340499
 31
0.0
1001
REVIT
1002
{
1070
     1
1000
686956
1002
}
1002
{
1070
     5
1000
233013
1002
}
1002
{
1070
     2
1000
-2005028
1002
}
  0
INSERT
  5
284
  8
0
  2
*U38
 10
0.0
 20
0.0
 30
0.0
  0
CIRCLE
  5
285
  8
0
 10
486.92870474013603
 20
-46.28645535792235
 30
0.0
 40
2.4999999999999432
1001
REVIT
1002
{
1070
     1
1000
686957
1002
}
1002
{
1070
     5
1000
233013
1002
}
1002
{
1070
     2
1000
-2005028
1002
}
  0
INSERT
  5
286
  8
0
  6
CONTINUOUS
  2
*U39
 10
0.0
 20
0.0
 30
0.0
1001
REVIT
1002
{
1070
     1
1000
686957
1002
}
1002
{
1070
     5
1000
233013
1002
}
1002
{
1070
     2
1000
-2005028
1002
}
1001
ACAD
1002
{
1000
R14_HATCH_DATA
1000
286
1011
1.0
1021
0.0
1031
0.0
1021
0.0
1031
0.0
1011
0.0
1021
0.0
1031
0.0
1021
1.0
1031
0.0
1011
0.0
1021
0.0
1031
0.0
1021
0.0
1031
1.0
1040
0.0
1010
0.0
1020
0.0
1030
1.0
1000
SOLID
1070
     1
1070
     0
1071
        1
1071
        0
1071
        1
1070
     2
1040
486.92870474013603
1040
-46.28645535792235
1040
2.4999999999999432
1040
0.0
1040
6.2831853071795862
1070
     1
1071
        0
1070
     0
1070
     1
1071
        1
1040
0.0
1040
0.0
1040
0.0
1002
}
  0
LINE
  5
287
  8
0
 10
486.92870474013603
 20
-157.64249257529099
 30
0.0
 11
606.8828562433099
 21
-157.64249257529099
 31
0.0
1001
REVIT
1002
{
1070
     1
1000
686957
1002
}
1002
{
1070
     5
1000
233013
1002
}
1002
{
1070
     2
1000
-2005028
1002
}
  0
LINE
  5
288
  8
0
 10
486.92870474013603
 20
-46.28645535792235
 30
0.0
 11
486.92870474013603
 21
-157.64249257529099
 31
0.0
1001
REVIT
1002
{
1070
     1
1000
686957
1002
}
1002
{
1070
     5
1000
233013
1002
}
1002
{
1070
     2
1000
-2005028
1002
}
  0
INSERT
  5
289
  8
0
  2
*U40
 10
0.0
 20
0.0
 30
0.0
  0
CIRCLE
  5
28A
  8
0
 10
-110.88824945980789
 20
76.991204437401422
 30
0.0
 40
2.5
1001
REVIT
1002
{
1070
     1
1000
686958
1002
}
1002
{
1070
     5
1000
233013
1002
}
1002
{
1070
     2
1000
-2005028
1002
}
  0
INSERT
  5
28B
  8
0
  6
CONTINUOUS
  2
*U41
 10
0.0
 20
0.0
 30
0.0
1001
REVIT
1002
{
1070
     1
1000
686958
1002
}
1002
{
1070
     5
1000
233013
1002
}
1002
{
1070
     2
1000
-2005028
1002
}
1001
ACAD
1002
{
1000
R14_HATCH_DATA
1000
28B
1011
1.0
1021
0.0
1031
0.0
1021
0.0
1031
0.0
1011
0.0
1021
0.0
1031
0.0
1021
1.0
1031
0.0
1011
0.0
1021
0.0
1031
0.0
1021
0.0
1031
1.0
1040
0.0
1010
0.0
1020
0.0
1030
1.0
1000
SOLID
1070
     1
1070
     0
1071
        1
1071
        0
1071
        1
1070
     2
1040
-110.88824945980789
1040
76.991204437401422
1040
2.5
1040
0.0
1040
6.2831853071795862
1070
     1
1071
        0
1070
     0
1070
     1
1071
        1
1040
0.0
1040
0.0
1040
0.0
1002
}
  0
LINE
  5
28C
  8
0
 10
-110.88824945980789
 20
-120.9833003169569
 30
0.0
 11
-253.70204577405889
 21
-120.9833003169569
 31
0.0
1001
REVIT
1002
{
1070
     1
1000
686958
1002
}
1002
{
1070
     5
1000
233013
1002
}
1002
{
1070
     2
1000
-2005028
1002
}
  0
LINE
  5
28D
  8
0
 10
-110.88824945980789
 20
76.991204437401422
 30
0.0
 11
-110.88824945980789
 21
-120.9833003169569
 31
0.0
1001
REVIT
1002
{
1070
     1
1000
686958
1002
}
1002
{
1070
     5
1000
233013
1002
}
1002
{
1070
     2
1000
-2005028
1002
}
  0
INSERT
  5
28E
  8
0
  2
*U42
 10
0.0
 20
0.0
 30
0.0
  0
CIRCLE
  5
28F
  8
0
 10
363.21931145152541
 20
102.7947467518343
 30
0.0
 40
2.4999999999999432
1001
REVIT
1002
{
1070
     1
1000
686960
1002
}
1002
{
1070
     5
1000
233013
1002
}
1002
{
1070
     2
1000
-2005028
1002
}
  0
INSERT
  5
290
  8
0
  6
CONTINUOUS
  2
*U43
 10
0.0
 20
0.0
 30
0.0
1001
REVIT
1002
{
1070
     1
1000
686960
1002
}
1002
{
1070
     5
1000
233013
1002
}
1002
{
1070
     2
1000
-2005028
1002
}
1001
ACAD
1002
{
1000
R14_HATCH_DATA
1000
290
1011
1.0
1021
0.0
1031
0.0
1021
0.0
1031
0.0
1011
0.0
1021
0.0
1031
0.0
1021
1.0
1031
0.0
1011
0.0
1021
0.0
1031
0.0
1021
0.0
1031
1.0
1040
0.0
1010
0.0
1020
0.0
1030
1.0
1000
SOLID
1070
     1
1070
     0
1071
        1
1071
        0
1071
        1
1070
     2
1040
363.21931145152541
1040
102.7947467518343
1040
2.4999999999999432
1040
0.0
1040
6.2831853071795862
1070
     1
1071
        0
1070
     0
1070
     1
1071
        1
1040
0.0
1040
0.0
1040
0.0
1002
}
  0
LINE
  5
291
  8
0
 10
363.21931145152541
 20
-244.59763830618499
 30
0.0
 11
606.8828562433099
 21
-244.59763830618499
 31
0.0
1001
REVIT
1002
{
1070
     1
1000
686960
1002
}
1002
{
1070
     5
1000
233013
1002
}
1002
{
1070
     2
1000
-2005028
1002
}
  0
LINE
  5
292
  8
0
 10
363.21931145152541
 20
102.7947467518343
 30
0.0
 11
363.21931145152541
 21
-244.59763830618499
 31
0.0
1001
REVIT
1002
{
1070
     1
1000
686960
1002
}
1002
{
1070
     5
1000
233013
1002
}
1002
{
1070
     2
1000
-2005028
1002
}
  0
INSERT
  5
293
  8
0
  2
*U44
 10
0.0
 20
0.0
 30
0.0
  0
CIRCLE
  5
294
  8
0
 10
530.68408769445523
 20
175.7097860842135
 30
0.0
 40
2.5
1001
REVIT
1002
{
1070
     1
1000
686963
1002
}
1002
{
1070
     5
1000
233013
1002
}
1002
{
1070
     2
1000
-2005028
1002
}
  0
INSERT
  5
295
  8
0
  6
CONTINUOUS
  2
*U45
 10
0.0
 20
0.0
 30
0.0
1001
REVIT
1002
{
1070
     1
1000
686963
1002
}
1002
{
1070
     5
1000
233013
1002
}
1002
{
1070
     2
1000
-2005028
1002
}
1001
ACAD
1002
{
1000
R14_HATCH_DATA
1000
295
1011
1.0
1021
0.0
1031
0.0
1021
0.0
1031
0.0
1011
0.0
1021
0.0
1031
0.0
1021
1.0
1031
0.0
1011
0.0
1021
0.0
1031
0.0
1021
0.0
1031
1.0
1040
0.0
1010
0.0
1020
0.0
1030
1.0
1000
SOLID
1070
     1
1070
     0
1071
        1
1071
        0
1071
        1
1070
     2
1040
530.68408769445523
1040
175.7097860842135
1040
2.5
1040
0.0
1040
6.2831853071795862
1070
     1
1071
        0
1070
     0
1070
     1
1071
        1
1040
0.0
1040
0.0
1040
0.0
1002
}
  0
LINE
  5
296
  8
0
 10
530.68408769445523
 20
175.7097860842135
 30
0.0
 11
601.22760734086921
 21
175.7097860842135
 31
0.0
1001
REVIT
1002
{
1070
     1
1000
686963
1002
}
1002
{
1070
     5
1000
233013
1002
}
1002
{
1070
     2
1000
-2005028
1002
}
  0
INSERT
  5
297
  8
0
  2
*U46
 10
0.0
 20
0.0
 30
0.0
  0
CIRCLE
  5
298
  8
0
 10
-45.833286125270391
 20
111.44669743943859
 30
0.0
 40
2.5
1001
REVIT
1002
{
1070
     1
1000
697305
1002
}
1002
{
1070
     5
1000
233013
1002
}
1002
{
1070
     2
1000
-2005028
1002
}
  0
INSERT
  5
299
  8
0
  6
CONTINUOUS
  2
*U47
 10
0.0
 20
0.0
 30
0.0
1001
REVIT
1002
{
1070
     1
1000
697305
1002
}
1002
{
1070
     5
1000
233013
1002
}
1002
{
1070
     2
1000
-2005028
1002
}
1001
ACAD
1002
{
1000
R14_HATCH_DATA
1000
299
1011
1.0
1021
0.0
1031
0.0
1021
0.0
1031
0.0
1011
0.0
1021
0.0
1031
0.0
1021
1.0
1031
0.0
1011
0.0
1021
0.0
1031
0.0
1021
0.0
1031
1.0
1040
0.0
1010
0.0
1020
0.0
1030
1.0
1000
SOLID
1070
     1
1070
     0
1071
        1
1071
        0
1071
        1
1070
     2
1040
-45.833286125270391
1040
111.44669743943859
1040
2.5
1040
0.0
1040
6.2831853071795862
1070
     1
1071
        0
1070
     0
1070
     1
1071
        1
1040
0.0
1040
0.0
1040
0.0
1002
}
  0
LINE
  5
29A
  8
0
 10
-45.833286125270391
 20
111.44669743943859
 30
0.0
 11
-224.20204577405889
 21
111.44669743943859
 31
0.0
1001
REVIT
1002
{
1070
     1
1000
697305
1002
}
1002
{
1070
     5
1000
233013
1002
}
1002
{
1070
     2
1000
-2005028
1002
}
  0
INSERT
  5
29B
  8
0
  2
*U48
 10
0.0
 20
0.0
 30
0.0
  0
LINE
  5
300
  8
0
 10
-220.171629530247
 20
-59.999999999999851
 30
0.0
 11
-220.17162953024669
 21
76.446006858400025
 31
0.0
  0
LINE
  5
301
  8
0
 10
-220.17162953024641
 20
220.00000000000011
 30
0.0
 11
-220.17162953024669
 21
83.553993141600245
 31
0.0
  0
LINE
  5
302
  8
0
 10
-220.171629530247
 20
-59.999999999999851
 30
0.0
 11
-220.17162953024669
 21
76.446006858400025
 31
0.0
  0
LINE
  5
303
  8
0
 10
-220.17162953024669
 20
76.446006858400025
 30
0.0
 11
-209.8640103693659
 21
78.263518223330806
 31
0.0
  0
LINE
  5
304
  8
0
 10
-209.86401036936579
 20
78.263518223330806
 30
0.0
 11
-230.47924869112759
 21
81.736481776669464
 31
0.0
  0
LINE
  5
305
  8
0
 10
-230.47924869112759
 20
81.736481776669464
 30
0.0
 11
-220.17162953024669
 21
83.553993141600245
 31
0.0
  0
LINE
  5
306
  8
0
 10
-220.17162953024669
 20
83.553993141600245
 30
0.0
 11
-220.17162953024641
 21
220.00000000000011
 31
0.0
  0
LINE
  5
307
  8
0
 10
70.000000000000142
 20
-257.71902815239611
 30
0.0
 11
-26.44600685839977
 21
-257.71902815239611
 31
0.0
  0
LINE
  5
308
  8
0
 10
-129.9999999999998
 20
-257.71902815239611
 30
0.0
 11
-33.553993141599967
 21
-257.71902815239611
 31
0.0
  0
LINE
  5
309
  8
0
 10
70.000000000000142
 20
-257.71902815239611
 30
0.0
 11
-26.44600685839977
 21
-257.71902815239611
 31
0.0
  0
LINE
  5
30A
  8
0
 10
-26.44600685839977
 20
-257.71902815239611
 30
0.0
 11
-28.263518223330561
 21
-247.4114089915152
 31
0.0
  0
LINE
  5
30B
  8
0
 10
-28.263518223330561
 20
-247.4114089915152
 30
0.0
 11
-31.73648177666918
 21
-268.0266473132769
 31
0.0
  0
LINE
  5
30C
  8
0
 10
-31.73648177666918
 20
-268.0266473132769
 30
0.0
 11
-33.553993141599967
 21
-257.71902815239611
 31
0.0
  0
LINE
  5
30D
  8
0
 10
-33.553993141599967
 20
-257.71902815239611
 30
0.0
 11
-129.9999999999998
 21
-257.71902815239611
 31
0.0
  0
ARC
  5
30E
  8
0
 10
40.35602130370512
 20
123.9606704296382
 30
0.0
 40
1.99999999999999
 50
0.0
 51
89.999999999999915
1001
REVIT
1002
{
1070
     3
1000
224526
1002
}
  0
ARC
  5
30F
  8
0
 10
-57.243978696294811
 20
123.9606704296383
 30
0.0
 40
1.9999999999999969
 50
89.999999999999915
 51
180.0
1001
REVIT
1002
{
1070
     3
1000
224526
1002
}
  0
ARC
  5
310
  8
0
 10
-57.243978696294811
 20
102.56067042963829
 30
0.0
 40
1.9999999999999949
 50
180.0
 51
269.99999999999972
1001
REVIT
1002
{
1070
     3
1000
224526
1002
}
  0
ARC
  5
311
  8
0
 10
40.35602130370517
 20
102.56067042963829
 30
0.0
 40
2.0
 50
269.9999999999996
 51
359.9999999999992
1001
REVIT
1002
{
1070
     3
1000
224526
1002
}
  0
LINE
  5
312
  8
0
 10
40.35602130370512
 20
125.9606704296383
 30
0.0
 11
-57.243978696294811
 21
125.9606704296383
 31
0.0
1001
REVIT
1002
{
1070
     3
1000
224526
1002
}
  0
LINE
  5
313
  8
0
 10
-59.243978696294811
 20
123.9606704296383
 30
0.0
 11
-59.243978696294811
 21
102.56067042963829
 31
0.0
1001
REVIT
1002
{
1070
     3
1000
224526
1002
}
  0
LINE
  5
314
  8
0
 10
-57.243978696294811
 20
100.56067042963829
 30
0.0
 11
40.356021303705177
 21
100.56067042963829
 31
0.0
1001
REVIT
1002
{
1070
     3
1000
224526
1002
}
  0
LINE
  5
315
  8
0
 10
42.356021303705177
 20
102.56067042963829
 30
0.0
 11
42.356021303705177
 21
123.9606704296382
 31
0.0
1001
REVIT
1002
{
1070
     3
1000
224526
1002
}
  0
LINE
  5
316
  8
0
 10
-57.243978696294967
 20
123.9606704296385
 30
0.0
 11
40.356021303705212
 21
102.56067042963841
 31
0.0
  0
LINE
  5
317
  8
0
 10
40.356021303705212
 20
123.9606704296385
 30
0.0
 11
-57.243978696294768
 21
102.56067042963829
 31
0.0
  0
ARC
  5
318
  8
0
 10
208.8959377485028
 20
123.9606704296377
 30
0.0
 40
1.99999999999999
 50
0.0
 51
90.0
1001
REVIT
1002
{
1070
     3
1000
224526
1002
}
  0
ARC
  5
319
  8
0
 10
111.29593774850279
 20
123.9606704296378
 30
0.0
 40
1.9999999999999969
 50
90.0
 51
180.0
1001
REVIT
1002
{
1070
     3
1000
224526
1002
}
  0
ARC
  5
31A
  8
0
 10
111.29593774850289
 20
102.5606704296378
 30
0.0
 40
1.9999999999999949
 50
180.0
 51
270.0
1001
REVIT
1002
{
1070
     3
1000
224526
1002
}
  0
ARC
  5
31B
  8
0
 10
208.89593774850289
 20
102.5606704296378
 30
0.0
 40
2.0
 50
270.0
 51
359.9999999999992
1001
REVIT
1002
{
1070
     3
1000
224526
1002
}
  0
LINE
  5
31C
  8
0
 10
208.8959377485028
 20
125.9606704296378
 30
0.0
 11
111.29593774850279
 21
125.9606704296378
 31
0.0
1001
REVIT
1002
{
1070
     3
1000
224526
1002
}
  0
LINE
  5
31D
  8
0
 10
109.29593774850279
 20
123.9606704296378
 30
0.0
 11
109.29593774850279
 21
102.5606704296378
 31
0.0
1001
REVIT
1002
{
1070
     3
1000
224526
1002
}
  0
LINE
  5
31E
  8
0
 10
111.29593774850279
 20
100.5606704296378
 30
0.0
 11
208.89593774850289
 21
100.5606704296378
 31
0.0
1001
REVIT
1002
{
1070
     3
1000
224526
1002
}
  0
LINE
  5
31F
  8
0
 10
210.89593774850289
 20
102.5606704296378
 30
0.0
 11
210.89593774850289
 21
123.9606704296377
 31
0.0
1001
REVIT
1002
{
1070
     3
1000
224526
1002
}
  0
LINE
  5
320
  8
0
 10
111.29593774850269
 20
123.960670429638
 30
0.0
 11
208.89593774850289
 21
102.5606704296379
 31
0.0
  0
LINE
  5
321
  8
0
 10
208.89593774850289
 20
123.960670429638
 30
0.0
 11
111.29593774850289
 21
102.5606704296378
 31
0.0
  0
ARC
  5
322
  8
0
 10
310.4959377485028
 20
123.9606704296374
 30
0.0
 40
1.99999999999999
 50
0.0
 51
90.0
1001
REVIT
1002
{
1070
     3
1000
224526
1002
}
  0
ARC
  5
323
  8
0
 10
212.89593774850289
 20
123.9606704296375
 30
0.0
 40
1.9999999999999969
 50
90.0
 51
180.0
1001
REVIT
1002
{
1070
     3
1000
224526
1002
}
  0
ARC
  5
324
  8
0
 10
212.89593774850289
 20
102.5606704296375
 30
0.0
 40
1.9999999999999949
 50
180.0
 51
270.0
1001
REVIT
1002
{
1070
     3
1000
224526
1002
}
  0
ARC
  5
325
  8
0
 10
310.49593774850291
 20
102.5606704296375
 30
0.0
 40
2.0
 50
270.0
 51
359.9999999999992
1001
REVIT
1002
{
1070
     3
1000
224526
1002
}
  0
LINE
  5
326
  8
0
 10
310.4959377485028
 20
125.9606704296375
 30
0.0
 11
212.89593774850289
 21
125.9606704296375
 31
0.0
1001
REVIT
1002
{
1070
     3
1000
224526
1002
}
  0
LINE
  5
327
  8
0
 10
212.89593774850289
 20
100.5606704296374
 30
0.0
 11
310.49593774850291
 21
100.5606704296374
 31
0.0
1001
REVIT
1002
{
1070
     3
1000
224526
1002
}
  0
LINE
  5
328
  8
0
 10
312.49593774850291
 20
102.5606704296375
 30
0.0
 11
312.49593774850291
 21
123.9606704296374
 31
0.0
1001
REVIT
1002
{
1070
     3
1000
224526
1002
}
  0
LINE
  5
329
  8
0
 10
212.89593774850269
 20
123.9606704296376
 30
0.0
 11
310.49593774850291
 21
102.5606704296375
 31
0.0
  0
LINE
  5
32A
  8
0
 10
310.49593774850291
 20
123.9606704296376
 30
0.0
 11
212.89593774850289
 21
102.5606704296375
 31
0.0
  0
LINE
  5
32B
  8
0
 10
432.53138219878582
 20
-46.300000000000431
 30
0.0
 11
432.53138219878582
 21
-40.30000000000026
 31
0.0
1001
REVIT
1002
{
1070
     3
1000
211597
1002
}
  0
LINE
  5
32C
  8
0
 10
432.53138219878582
 20
-40.30000000000026
 30
0.0
 11
5.3082411351715217
 21
-40.30000000000026
 31
0.0
1001
REVIT
1002
{
1070
     3
1000
211597
1002
}
  0
LINE
  5
32D
  8
0
 10
5.3082411351715217
 20
-40.30000000000026
 30
0.0
 11
5.3082411351715217
 21
-46.300000000000431
 31
0.0
1001
REVIT
1002
{
1070
     3
1000
211597
1002
}
  0
LINE
  5
32E
  8
0
 10
5.3082411351715217
 20
-46.300000000000431
 30
0.0
 11
432.53138219878582
 21
-46.300000000000431
 31
0.0
1001
REVIT
1002
{
1070
     3
1000
211597
1002
}
  0
ARC
  5
32F
  8
0
 10
471.99999999999909
 20
58.69999999999802
 30
0.0
 40
2.0000000000000031
 50
0.0000000000002036
 51
90.0
1001
REVIT
1002
{
1070
     3
1000
224526
1002
}
  0
ARC
  5
330
  8
0
 10
425.9999999999992
 20
58.699999999998099
 30
0.0
 40
2.0000000000000031
 50
90.0
 51
179.99999999999989
1001
REVIT
1002
{
1070
     3
1000
224526
1002
}
  0
ARC
  5
331
  8
0
 10
425.99999999999932
 20
-87.300000000001944
 30
0.0
 40
2.0000000000000031
 50
179.9999999999998
 51
270.0
1001
REVIT
1002
{
1070
     3
1000
224526
1002
}
  0
ARC
  5
332
  8
0
 10
471.9999999999992
 20
-87.300000000001944
 30
0.0
 40
1.9999999999999969
 50
270.0
 51
0.0000000000001018
1001
REVIT
1002
{
1070
     3
1000
224526
1002
}
  0
LINE
  5
333
  8
0
 10
471.99999999999909
 20
60.699999999998099
 30
0.0
 11
425.99999999999932
 21
60.699999999998099
 31
0.0
1001
REVIT
1002
{
1070
     3
1000
224526
1002
}
  0
LINE
  5
334
  8
0
 10
423.99999999999932
 20
58.699999999998099
 30
0.0
 11
423.99999999999932
 21
-40.300000000000182
 31
0.0
1001
REVIT
1002
{
1070
     3
1000
224526
1002
}
  0
LINE
  5
335
  8
0
 10
423.99999999999932
 20
-46.300000000000303
 30
0.0
 11
423.99999999999932
 21
-87.300000000001944
 31
0.0
1001
REVIT
1002
{
1070
     3
1000
224526
1002
}
  0
LINE
  5
336
  8
0
 10
425.9999999999992
 20
-89.300000000001958
 30
0.0
 11
471.99999999999932
 21
-89.300000000001958
 31
0.0
1001
REVIT
1002
{
1070
     3
1000
224526
1002
}
  0
LINE
  5
337
  8
0
 10
473.99999999999932
 20
-87.300000000001944
 30
0.0
 11
473.99999999999932
 21
58.69999999999802
 31
0.0
1001
REVIT
1002
{
1070
     3
1000
224526
1002
}
  0
LINE
  5
338
  8
0
 10
425.99999999999898
 20
58.699999999998262
 30
0.0
 11
471.99999999999932
 21
-87.300000000001873
 31
0.0
  0
LINE
  5
339
  8
0
 10
471.99999999999932
 20
58.699999999998262
 30
0.0
 11
425.99999999999932
 21
-87.300000000001944
 31
0.0
  0
LINE
  5
33A
  8
0
 10
473.60700602530028
 20
238.3706759250955
 30
0.0
 11
469.60700602529892
 21
238.3706759250955
 31
0.0
1001
REVIT
1002
{
1070
     3
1000
211597
1002
}
  0
LINE
  5
33B
  8
0
 10
472.10700602530079
 20
209.6206759250955
 30
0.0
 11
472.10700602530079
 21
237.62067592509541
 31
0.0
1001
REVIT
1002
{
1070
     3
1000
211597
1002
}
  0
LINE
  5
33C
  8
0
 10
471.6070060252996
 20
207.62067592509541
 30
0.0
 11
472.10700602530079
 21
209.6206759250955
 31
0.0
1001
REVIT
1002
{
1070
     3
1000
211597
1002
}
  0
LINE
  5
33D
  8
0
 10
471.10700602530079
 20
209.6206759250955
 30
0.0
 11
471.6070060252996
 21
207.62067592509541
 31
0.0
1001
REVIT
1002
{
1070
     3
1000
211597
1002
}
  0
LINE
  5
33E
  8
0
 10
471.10700602530079
 20
237.62067592509541
 30
0.0
 11
471.10700602530079
 21
209.6206759250955
 31
0.0
1001
REVIT
1002
{
1070
     3
1000
211597
1002
}
  0
LINE
  5
33F
  8
0
 10
469.90714248418942
 20
237.62067592509541
 30
0.0
 11
471.10700602530079
 21
237.62067592509541
 31
0.0
1001
REVIT
1002
{
1070
     3
1000
211597
1002
}
  0
LINE
  5
340
  8
0
 10
472.10700602530079
 20
237.62067592509541
 30
0.0
 11
473.30686956641171
 21
237.62067592509541
 31
0.0
1001
REVIT
1002
{
1070
     3
1000
211597
1002
}
  0
LINE
  5
341
  8
0
 10
473.60700602530028
 20
238.3706759250955
 30
0.0
 11
473.30686956641171
 21
237.62067592509541
 31
0.0
1001
REVIT
1002
{
1070
     3
1000
211597
1002
}
  0
LINE
  5
342
  8
0
 10
469.60700602529892
 20
238.3706759250955
 30
0.0
 11
469.90714248418942
 21
237.62067592509541
 31
0.0
1001
REVIT
1002
{
1070
     3
1000
211597
1002
}
  0
INSERT
  5
343
  8
0
  6
CONTINUOUS
  2
*U49
 10
0.0
 20
0.0
 30
0.0
1001
ACAD
1002
{
1000
R14_HATCH_DATA
1000
343
1011
1.0
1021
0.0
1031
0.0
1021
0.0
1031
0.0
1011
0.0
1021
0.0
1031
0.0
1021
1.0
1031
0.0
1011
0.0
1021
0.0
1031
0.0
1021
0.0
1031
1.0
1040
0.0
1010
0.0
1020
0.0
1030
1.0
1000
SOLID
1070
     1
1070
     0
1071
        1
1071
        0
1071
       98
1070
     1
1040
505.14811606794649
1040
127.7303679719313
1040
509.31630932329591
1040
130.82944042483641
1070
     1
1040
509.31630932329591
1040
130.82944042483641
1040
513.15281149767225
1040
134.2181883762016
1070
     1
1040
513.15281149767225
1040
134.2181883762016
1040
516.65762259107521
1040
137.8966118260268
1070
     1
1040
516.65762259107532
1040
137.8966118260268
1040
519.85177279864865
1040
141.89622373122631
1070
     1
1040
519.85177279864865
1040
141.89622373122631
1040
522.71423192524855
1040
146.18551113488579
1070
     1
1040
522.71423192524855
1040
146.1855111348857
1040
525.18190938544512
1040
150.66993516626269
1070
     1
1040
525.18190938544512
1040
150.66993516626269
1040
527.24603951694235
1040
155.35382860452509
1070
     1
1040
527.24603951694235
1040
155.35382860452509
1040
528.91538798203635
1040
160.2328586705051
1070
     1
1040
528.91538798203635
1040
160.2328586705051
1040
530.15316118218345
1040
165.19948815595589
1070
     1
1040
530.15316118218357
1040
165.19948815595589
1040
530.9497764965347
1040
170.25566210289389
1070
     1
1040
530.9497764965347
1040
170.25566210289389
1040
531.31481654593892
1040
175.39943546930289
1070
     1
1040
531.31481654593892
1040
175.39943546930289
1040
531.240235594404
1040
180.51743592088761
1070
     1
1040
531.240235594404
1040
180.51743592088769
1040
530.71627237498114
1040
185.6090912004058
1070
     1
1040
530.71627237498126
1040
185.6090912004058
1040
529.75268815461925
1040
190.67497356509969
1070
     1
1040
529.75268815461925
1040
190.67497356509969
1040
528.3707209981726
1040
195.60342745240101
1070
     1
1040
528.3707209981726
1040
195.60342745240101
1040
526.56108120492797
1040
200.39140142470481
1070
     1
1040
526.56108120492797
1040
200.39140142470481
1040
524.3330584755987
1040
205.04194691961609
1070
     1
1040
524.3330584755987
1040
205.04194691961609
1040
521.7357599771791
1040
209.45256268738149
1070
     1
1040
521.7357599771791
1040
209.45256268738149
1040
518.76098637580674
1040
213.61792137077609
1070
     1
1040
518.76098637580685
1040
213.61792137077609
1040
515.05657913849006
1040
217.89968444552699
1070
     1
1040
515.05657913849006
1040
217.89968444552699
1040
511.77731703437553
1040
221.1423303780503
1070
     1
1040
511.77731703437553
1040
221.1423303780503
1040
507.83556366556428
1040
224.4076131100997
1070
     1
1040
507.83556366556428
1040
224.4076131100997
1040
503.59823969624688
1040
227.34644693692559
1070
     1
1040
503.59823969624688
1040
227.34644693692559
1040
499.15873868701527
1040
229.89405792170791
1070
     1
1040
499.15873868701539
1040
229.89405792170791
1040
494.45972359609482
1040
232.06090539654619
1070
     1
1040
494.45972359609482
1040
232.06090539654619
1040
489.66422734233828
1040
233.7982380795633
1070
     1
1040
489.66422734233822
1040
233.7982380795633
1040
484.72056698042542
1040
235.12477988697279
1070
     1
1040
484.72056698042542
1040
235.12477988697279
1040
479.679474065524
1040
236.0118386021004
1070
     1
1040
479.67947406552412
1040
236.0118386021004
1040
474.54306498100561
1040
236.46896046673149
1070
     1
1040
474.5430649810055
1040
236.46896046673149
1040
469.42454974728219
1040
236.48607019776981
1070
     1
1040
469.42454974728219
1040
236.48607019776981
1040
464.32432567625239
1040
236.05339784362579
1070
     1
1040
464.32432567625239
1040
236.05339784362579
1040
459.24199545601749
1040
235.180713355889
1070
     1
1040
459.24199545601761
1040
235.180713355889
1040
454.28957717129589
1040
233.8872513062307
1070
     1
1040
454.28957717129589
1040
233.8872513062307
1040
449.24521201338729
1040
232.06090539654619
1070
     1
1040
449.24521201338717
1040
232.06090539654619
1040
444.78024549166821
1040
230.01930878002599
1070
     1
1040
444.78024549166821
1040
230.01930878002599
1040
440.32381201492541
1040
227.50143435739881
1070
     1
1040
440.32381201492541
1040
227.50143435739881
1040
436.1058345613194
1040
224.60175210900931
1070
     1
1040
436.1058345613194
1040
224.60175210900931
1040
432.12113350302849
1040
221.32855548205549
1070
     1
1040
432.12113350302849
1040
221.32855548205549
1040
428.45753441638811
1040
217.75398800148909
1070
     1
1040
428.45753441638811
1040
217.75398800148909
1040
425.122166992784
1040
213.87135808218011
1070
     1
1040
425.122166992784
1040
213.87135808218019
1040
422.10790154083088
1040
209.6873573092586
1070
     1
1040
422.10790154083082
1040
209.6873573092586
1040
419.48117456270882
1040
205.29420396306639
1070
     1
1040
419.48117456270882
1040
205.29420396306639
1040
417.25059089414719
1040
200.6872540568595
1070
     1
1040
417.25059089414719
1040
200.6872540568595
1040
415.40754569941691
1040
195.87115157738211
1070
     1
1040
415.40754569941691
1040
195.87115157738211
1040
413.9926609735117
1040
190.95204676520811
1070
     1
1040
413.9926609735117
1040
190.95204676520811
1040
412.96282913849029
1040
185.43631054565009
1070
     1
1040
412.96282913849029
1040
185.43631054565009
1040
412.47445425817131
1040
180.87559696982029
1070
     1
1040
412.47445425817131
1040
180.87559696982029
1040
412.35759160373829
1040
175.68286857308129
1070
     1
1040
412.35759160373829
1040
175.68286857308129
1040
413.35733327994382
1040
175.70559698829311
1070
     1
1040
413.35733327994382
1040
175.70559698829311
1040
413.47231044159611
1040
180.8121622724089
1070
     1
1040
413.47231044159611
1040
180.8121622724089
1040
414.00842460349361
1040
185.8173903321451
1070
     1
1040
414.00842460349361
1040
185.8173903321451
1040
414.96567576563621
1040
190.7212811675015
1070
     1
1040
414.96567576563621
1040
190.7212811675015
1040
416.35738834182638
1040
195.55864449040129
1070
     1
1040
416.35738834182638
1040
195.55864449040129
1040
418.17023791826148
1040
200.29467058892141
1070
     1
1040
418.17023791826148
1040
200.29467058892141
1040
420.3642512535348
1040
204.82493032729249
1070
     1
1040
420.3642512535348
1040
204.82493032729249
1040
422.94789522060978
1040
209.14485297287979
1070
     1
1040
422.94789522060978
1040
209.14485297287979
1040
425.91270294652293
1040
213.25900925831809
1070
     1
1040
425.91270294652298
1040
213.25900925831809
1040
429.19330057097437
1040
217.07668224574189
1070
     1
1040
429.19330057097437
1040
217.07668224574189
1040
432.79670280323882
1040
220.5912860875672
1070
     1
1040
432.79670280323882
1040
220.5912860875672
1040
436.71589493404173
1040
223.8094066313781
1070
     1
1040
436.71589493404178
1040
223.8094066313781
1040
440.86445897525999
1040
226.66008448206119
1070
     1
1040
440.86445897525999
1040
226.66008448206119
1040
445.24749001471793
1040
229.13515755565089
1070
     1
1040
445.24749001471793
1040
229.13515755565089
1040
449.8598929645911
1040
231.24278793611279
1070
     1
1040
449.8598929645911
1040
231.24278793611279
1040
454.59996457328072
1040
232.9365024802307
1070
     1
1040
454.59996457328072
1040
232.9365024802307
1040
459.47054077230098
1040
234.20710678606329
1070
     1
1040
459.47054077230098
1040
234.20710678606329
1040
464.4687856301374
1040
235.0637952555517
1070
     1
1040
464.4687856301374
1040
235.06379525555181
1040
469.48448810065003
1040
235.4876779513032
1070
     1
1040
469.48448810065003
1040
235.4876779513032
1040
474.51803597356201
1040
235.4691408651141
1070
     1
1040
474.51803597356201
1040
235.4691408651141
1040
479.56904145915013
1040
235.01779800518801
1070
     1
1040
479.56904145915013
1040
235.01779800518801
1040
484.52613014210129
1040
234.14360145874261
1070
     1
1040
484.52613014210129
1040
234.14360145874261
1040
489.38721582817931
1040
232.83715828543879
1070
     1
1040
489.38721582817931
1040
232.83715828543879
1040
494.15438471162048
1040
231.10786142561571
1070
     1
1040
494.15438471162059
1040
231.10786142561571
1040
498.72252095982458
1040
228.9938417875081
1070
     1
1040
498.72252095982458
1040
228.9938417875081
1040
503.08720341784408
1040
226.48655344088351
1070
     1
1040
503.08720341784408
1040
226.48655344088351
1040
507.25285324062639
1040
223.59454231597431
1070
     1
1040
507.25285324062639
1040
223.59454231597419
1040
511.12761806041419
1040
220.38157711171229
1070
     1
1040
511.12761806041419
1040
220.38157711171229
1040
515.05657913849018
1040
216.42743078676739
1070
     1
1040
515.05657913849018
1040
216.4274307867673
1040
517.99156970811202
1040
212.97852562045131
1070
     1
1040
517.99156970811191
1040
212.97852562045131
1040
520.91475013405102
1040
208.8807257217413
1070
     1
1040
520.91475013405102
1040
208.8807257217413
1040
523.46650642715065
1040
204.54189089738031
1070
     1
1040
523.46650642715065
1040
204.54189089738031
1040
525.65490982383847
1040
199.9672589596162
1070
     1
1040
525.65490982383847
1040
199.9672589596162
1040
527.43170613997756
1040
195.25770031114209
1070
     1
1040
527.43170613997756
1040
195.2577003111422
1040
528.78775225851905
1040
190.4102177957688
1070
     1
1040
528.78775225851905
1040
190.4102177957688
1040
529.73219129651204
1040
185.4278085696856
1070
     1
1040
529.73219129651204
1040
185.4278085696856
1040
530.24419842096995
1040
180.4203345041544
1070
     1
1040
530.24419842096995
1040
180.4203345041544
1040
530.31416792832613
1040
175.3872388284791
1070
     1
1040
530.3141679283259
1040
175.3872388284791
1040
529.95170552214688
1040
170.32907831335581
1070
     1
1040
529.95170552214688
1040
170.32907831335581
1040
529.16480348014341
1040
165.35738514213611
1070
     1
1040
529.16480348014341
1040
165.35738514213611
1040
527.94403363294191
1040
160.47408003262001
1070
     1
1040
527.94403363294191
1040
160.47408003262001
1040
526.29882414991619
1040
155.6772422670075
1070
     1
1040
526.29882414991619
1040
155.6772422670075
1040
524.26545181689778
1040
151.07264187524939
1070
     1
1040
524.26545181689778
1040
151.07264187524939
1040
521.83529428859913
1040
146.6645490676834
1070
     1
1040
521.83529428859913
1040
146.66454906768351
1040
519.01697391030814
1040
142.448693633972
1070
     1
1040
519.01697391030802
1040
142.448693633972
1040
515.87263450372348
1040
138.51803497305249
1070
     1
1040
515.87263450372348
1040
138.51803497305249
1040
512.42299067607826
1040
134.90355955123741
1070
     1
1040
512.42299067607826
1040
134.90355955123741
1040
508.64732782013948
1040
131.57428090221441
1070
     1
1040
508.64732782013948
1040
131.57428090221441
1040
504.54564593590692
1040
128.53019902598311
1070
     1
1040
504.54564593590692
1040
128.53019902598311
1040
505.14811606794649
1040
127.7303679719313
1071
        0
1070
     0
1070
     1
1071
        1
1040
471.84222133795851
1040
177.0352092781861
1040
0.0
1002
}
  0
LINE
  5
344
  8
0
 10
412.35759160373789
 20
175.68286857308101
 30
0.0
 11
413.35733327994342
 21
175.7055969882928
 31
0.0
1001
REVIT
1002
{
1070
     3
1000
476644
1002
}
  0
ARC
  5
345
  8
0
 10
471.84222133795851
 20
177.0352092781861
 30
0.0
 40
58.500000000000007
 50
303.98894262662918
 51
181.30235441163549
1001
REVIT
1002
{
1070
     3
1000
476644
1002
}
  0
LINE
  5
346
  8
0
 10
504.54564593590629
 20
128.53019902598291
 30
0.0
 11
505.14811606794592
 21
127.7303679719311
 31
0.0
1001
REVIT
1002
{
1070
     3
1000
476644
1002
}
  0
ARC
  5
347
  8
0
 10
471.84222133795851
 20
177.0352092781861
 30
0.0
 40
59.500000000000043
 50
304.03940481774151
 51
181.30235441163549
1001
REVIT
1002
{
1070
     3
1000
476644
1002
}
  0
ARC
  5
348
  8
0
 10
496.99999999999972
 20
212.61250000000041
 30
0.0
 40
2.0
 50
0.0
 51
90.0
1001
REVIT
1002
{
1070
     3
1000
224526
1002
}
  0
ARC
  5
349
  8
0
 10
450.99999999999977
 20
212.61250000000041
 30
0.0
 40
2.0
 50
90.0
 51
180.0
1001
REVIT
1002
{
1070
     3
1000
224526
1002
}
  0
ARC
  5
34A
  8
0
 10
450.99999999999977
 20
159.61250000000041
 30
0.0
 40
1.999999999999996
 50
180.0
 51
270.0
1001
REVIT
1002
{
1070
     3
1000
224526
1002
}
  0
ARC
  5
34B
  8
0
 10
496.99999999999977
 20
159.61250000000041
 30
0.0
 40
1.9999999999999989
 50
270.0
 51
0.0
1001
REVIT
1002
{
1070
     3
1000
224526
1002
}
  0
LINE
  5
34C
  8
0
 10
496.99999999999972
 20
214.61250000000041
 30
0.0
 11
450.99999999999977
 21
214.61250000000041
 31
0.0
1001
REVIT
1002
{
1070
     3
1000
224526
1002
}
  0
LINE
  5
34D
  8
0
 10
448.99999999999989
 20
212.61250000000041
 30
0.0
 11
448.99999999999989
 21
159.61250000000041
 31
0.0
1001
REVIT
1002
{
1070
     3
1000
224526
1002
}
  0
LINE
  5
34E
  8
0
 10
450.99999999999977
 20
157.61250000000041
 30
0.0
 11
496.99999999999989
 21
157.61250000000041
 31
0.0
1001
REVIT
1002
{
1070
     3
1000
224526
1002
}
  0
LINE
  5
34F
  8
0
 10
498.99999999999989
 20
159.61250000000041
 30
0.0
 11
498.99999999999989
 21
212.61250000000041
 31
0.0
1001
REVIT
1002
{
1070
     3
1000
224526
1002
}
  0
LINE
  5
350
  8
0
 10
450.99999999999977
 20
212.61250000000061
 30
0.0
 11
496.99999999999989
 21
159.61250000000049
 31
0.0
  0
LINE
  5
351
  8
0
 10
496.99999999999989
 20
212.61250000000061
 30
0.0
 11
450.99999999999989
 21
159.61250000000041
 31
0.0
  0
LINE
  5
352
  8
0
 10
443.9560213037052
 20
192.57566537373799
 30
0.0
 11
443.9560213037052
 21
100.4238358033748
 31
0.0
1001
REVIT
1002
{
1070
     3
1000
3443
1002
}
  0
LINE
  5
353
  8
0
 10
443.95602130370497
 20
100.4238358033747
 30
0.0
 11
409.28935463703812
 21
100.4238358033748
 31
0.0
1001
REVIT
1002
{
1070
     3
1000
3443
1002
}
  0
LINE
  5
354
  8
0
 10
342.46488824437262
 20
100.4238358033747
 30
0.0
 11
313.95602130370509
 21
100.4238358033748
 31
0.0
1001
REVIT
1002
{
1070
     3
1000
3443
1002
}
  0
LINE
  5
355
  8
0
 10
388.15414337100231
 20
100.4238358033747
 30
0.0
 11
397.79720331051863
 21
111.9159871298945
 31
0.0
1001
REVIT
1002
{
1070
     3
1000
3443
1002
}
  0
LINE
  5
356
  8
0
 10
409.28935463703812
 20
100.4238358033748
 30
0.0
 11
397.79720331051863
 21
111.9159871298945
 31
0.0
1001
REVIT
1002
{
1070
     3
1000
3443
1002
}
  0
LINE
  5
357
  8
0
 10
388.15414337100231
 20
100.4238358033747
 30
0.0
 11
364.13155491103902
 21
100.4238358033748
 31
0.0
1001
REVIT
1002
{
1070
     3
1000
3443
1002
}
  0
LINE
  5
358
  8
0
 10
342.46488824437262
 20
100.4238358033747
 30
0.0
 11
352.35042772284157
 21
112.2049629915721
 31
0.0
1001
REVIT
1002
{
1070
     3
1000
3443
1002
}
  0
LINE
  5
359
  8
0
 10
364.13155491103902
 20
100.4238358033748
 30
0.0
 11
352.35042772284157
 21
112.2049629915721
 31
0.0
1001
REVIT
1002
{
1070
     3
1000
3443
1002
}
  0
LINE
  5
35A
  8
0
 10
313.95602130370509
 20
100.4238358033748
 30
0.0
 11
323.8415607821741
 21
112.2049629915722
 31
0.0
1001
REVIT
1002
{
1070
     3
1000
3443
1002
}
  0
LINE
  5
35B
  8
0
 10
501.00000000000028
 20
65.699999999999704
 30
0.0
 11
501.00000000000028
 21
90.699999999999875
 31
0.0
  0
LINE
  5
35C
  8
0
 10
501.00000000000028
 20
90.699999999999875
 30
0.0
 11
-222.4999999999996
 21
90.699999999999875
 31
0.0
  0
LINE
  5
35D
  8
0
 10
-222.4999999999996
 20
90.699999999999875
 30
0.0
 11
-222.4999999999996
 21
65.699999999999704
 31
0.0
  0
LINE
  5
35E
  8
0
 10
-222.4999999999996
 20
65.699999999999704
 30
0.0
 11
501.00000000000028
 21
65.699999999999704
 31
0.0
  0
LINE
  5
35F
  8
0
 10
-222.4999999999996
 20
65.699999999999704
 30
0.0
 11
501.00000000000028
 21
65.699999999999704
 31
0.0
  0
LINE
  5
360
  8
0
 10
-222.4999999999996
 20
90.699999999999875
 30
0.0
 11
-222.4999999999996
 21
65.699999999999704
 31
0.0
  0
LINE
  5
361
  8
0
 10
501.00000000000028
 20
90.699999999999875
 30
0.0
 11
-222.4999999999996
 21
90.699999999999875
 31
0.0
  0
LINE
  5
362
  8
0
 10
501.00000000000028
 20
65.699999999999704
 30
0.0
 11
501.00000000000028
 21
90.699999999999875
 31
0.0
  0
ARC
  5
363
  8
0
 10
48.000000000001101
 20
33.70000000000045
 30
0.0
 40
1.9999999999999969
 50
0.0000000000001527
 51
90.000000000000185
1001
REVIT
1002
{
1070
     3
1000
224526
1002
}
  0
ARC
  5
364
  8
0
 10
2.0000000000011648
 20
33.700000000000522
 30
0.0
 40
2.0
 50
89.999999999999801
 51
179.9999999999998
1001
REVIT
1002
{
1070
     3
1000
224526
1002
}
  0
ARC
  5
365
  8
0
 10
2.0000000000011751
 20
-37.299999999999521
 30
0.0
 40
1.999999999999994
 50
180.00000000000011
 51
269.99999999999977
1001
REVIT
1002
{
1070
     3
1000
224526
1002
}
  0
ARC
  5
366
  8
0
 10
48.000000000001172
 20
-37.299999999999521
 30
0.0
 40
1.9999999999999949
 50
269.9999999999996
 51
0.0000000000000509
1001
REVIT
1002
{
1070
     3
1000
224526
1002
}
  0
LINE
  5
367
  8
0
 10
48.000000000001101
 20
35.700000000000522
 30
0.0
 11
2.0000000000011751
 21
35.700000000000522
 31
0.0
1001
REVIT
1002
{
1070
     3
1000
224526
1002
}
  0
LINE
  5
368
  8
0
 10
0.0000000000011653
 20
33.700000000000529
 30
0.0
 11
0.0000000000011653
 21
-37.299999999999507
 31
0.0
1001
REVIT
1002
{
1070
     3
1000
224526
1002
}
  0
LINE
  5
369
  8
0
 10
2.0000000000011608
 20
-39.299999999999521
 30
0.0
 11
48.000000000001172
 21
-39.299999999999521
 31
0.0
1001
REVIT
1002
{
1070
     3
1000
224526
1002
}
  0
LINE
  5
36A
  8
0
 10
50.00000000000118
 20
-37.299999999999521
 30
0.0
 11
50.00000000000118
 21
33.700000000000443
 31
0.0
1001
REVIT
1002
{
1070
     3
1000
224526
1002
}
  0
LINE
  5
36B
  8
0
 10
2.000000000001005
 20
33.700000000000699
 30
0.0
 11
48.000000000001208
 21
-37.29999999999945
 31
0.0
  0
LINE
  5
36C
  8
0
 10
48.000000000001201
 20
33.700000000000699
 30
0.0
 11
2.000000000001207
 21
-37.299999999999521
 31
0.0
  0
LINE
  5
36D
  8
0
  6
DASH
 10
498.37499999999989
 20
95.604848731850296
 30
0.0
 11
-220.17162953024669
 21
95.604848731850367
 31
0.0
1001
REVIT
1002
{
1070
     3
1000
217411
1002
}
  0
LINE
  5
36E
  8
0
  6
DASH
 10
2.50000000000004
 20
-41.372339171135437
 30
0.0
 11
2.4999999999996159
 21
-257.71902815239611
 31
0.0
1001
REVIT
1002
{
1070
     3
1000
217411
1002
}
  0
INSERT
  5
36F
  8
0
  6
CONTINUOUS
  2
*X50
 10
0.0
 20
0.0
 30
0.0
1001
ACAD
1000
HATCH
1002
{
1070
    19
1000
FP_1
1040
1.0
1040
0.0
1000
R14_HATCH_DATA
1000
36F
1011
1.0
1021
0.0
1031
0.0
1021
0.0
1031
0.0
1011
0.0
1021
0.0
1031
0.0
1021
1.0
1031
0.0
1011
0.0
1021
0.0
1031
0.0
1021
0.0
1031
1.0
1040
0.0
1010
0.0
1020
0.0
1030
1.0
1000
FP_1
1070
     0
1070
     0
1071
        1
1071
        0
1071
        4
1070
     1
1040
27.808241135170778
1040
-257.71902815239667
1040
52.808241135170718
1040
-257.71902815239667
1070
     1
1040
52.808241135170718
1040
-257.71902815239667
1040
52.808241135169972
1040
-48.300000000000239
1070
     1
1040
52.808241135169972
1040
-48.30000000000021
1040
27.808241135169968
1040
-48.30000000000021
1070
     1
1040
27.808241135169968
1040
-48.30000000000021
1040
27.808241135170778
1040
-257.71902815239662
1071
        0
1070
     0
1070
     2
1040
0.0
1040
1.0
1070
     0
1070
     1
1040
0.0
1040
0.0002411351715281
1040
-0.0000281523961121
1040
0.0
1040
15.0
1070
     0
1071
        1
1040
40.308241135171521
1040
-257.71902815239611
1040
0.0
1002
}
  0
LINE
  5
370
  8
0
 10
52.808241135169951
 20
-48.30000000000021
 30
0.0
 11
27.808241135169961
 21
-48.30000000000026
 31
0.0
1001
REVIT
1002
{
1070
     3
1000
224526
1002
}
  0
LINE
  5
371
  8
0
 10
27.808241135169961
 20
-48.30000000000026
 30
0.0
 11
27.80824113517065
 21
-257.71902815239639
 31
0.0
1001
REVIT
1002
{
1070
     3
1000
224526
1002
}
  0
LINE
  5
372
  8
0
 10
52.808241135170647
 20
-257.71902815239639
 30
0.0
 11
52.808241135169951
 21
-48.30000000000021
 31
0.0
1001
REVIT
1002
{
1070
     3
1000
224526
1002
}
  0
LINE
  5
373
  8
0
 10
312.50000000000108
 20
126.1125000000027
 30
0.0
 11
312.50000000000108
 21
166.11250000000291
 31
0.0
1001
REVIT
1002
{
1070
     3
1000
211597
1002
}
  0
LINE
  5
374
  8
0
 10
312.50000000000108
 20
166.11250000000291
 30
0.0
 11
-220.17162953024669
 21
166.11250000000291
 31
0.0
1001
REVIT
1002
{
1070
     3
1000
211597
1002
}
  0
LINE
  5
375
  8
0
 10
-220.17162953024669
 20
126.1125000000027
 30
0.0
 11
312.50000000000108
 21
126.1125000000027
 31
0.0
1001
REVIT
1002
{
1070
     3
1000
211597
1002
}
  0
ARC
  5
376
  8
0
 10
496.99999999999937
 20
-87.300000000001901
 30
0.0
 40
2.0000000000000022
 50
270.0
 51
0.0
1001
REVIT
1002
{
1070
     3
1000
224526
1002
}
  0
ARC
  5
377
  8
0
 10
496.99999999999972
 20
58.69999999999802
 30
0.0
 40
1.999999999999998
 50
359.99999999999977
 51
90.0
1001
REVIT
1002
{
1070
     3
1000
224526
1002
}
  0
ARC
  5
378
  8
0
 10
475.99999999999977
 20
58.699999999998042
 30
0.0
 40
2.0
 50
90.0
 51
179.9999999999992
1001
REVIT
1002
{
1070
     3
1000
224526
1002
}
  0
ARC
  5
379
  8
0
 10
475.99999999999949
 20
-87.300000000001944
 30
0.0
 40
2.0
 50
179.99999999999949
 51
270.0
1001
REVIT
1002
{
1070
     3
1000
224526
1002
}
  0
LINE
  5
37A
  8
0
 10
498.99999999999937
 20
-87.300000000001944
 30
0.0
 11
498.99999999999972
 21
58.69999999999802
 31
0.0
1001
REVIT
1002
{
1070
     3
1000
224526
1002
}
  0
LINE
  5
37B
  8
0
 10
496.99999999999972
 20
60.699999999997978
 30
0.0
 11
475.99999999999977
 21
60.699999999998013
 31
0.0
1001
REVIT
1002
{
1070
     3
1000
224526
1002
}
  0
LINE
  5
37C
  8
0
 10
475.99999999999949
 20
-89.30000000000193
 30
0.0
 11
496.99999999999937
 21
-89.300000000001958
 31
0.0
1001
REVIT
1002
{
1070
     3
1000
224526
1002
}
  0
LINE
  5
37D
  8
0
 10
497.0
 20
58.699999999998177
 30
0.0
 11
475.9999999999996
 21
-87.300000000001987
 31
0.0
  0
LINE
  5
37E
  8
0
 10
496.99999999999972
 20
-87.300000000002015
 30
0.0
 11
475.99999999999977
 21
58.69999999999802
 31
0.0
  0
ARC
  5
37F
  8
0
 10
496.99999999999972
 20
155.6125000000003
 30
0.0
 40
2.0
 50
0.0
 51
90.0
1001
REVIT
1002
{
1070
     3
1000
224526
1002
}
  0
ARC
  5
380
  8
0
 10
450.99999999999977
 20
155.61250000000041
 30
0.0
 40
2.0
 50
90.0
 51
180.0
1001
REVIT
1002
{
1070
     3
1000
224526
1002
}
  0
ARC
  5
381
  8
0
 10
450.99999999999977
 20
102.6125000000003
 30
0.0
 40
1.999999999999996
 50
180.0
 51
270.0
1001
REVIT
1002
{
1070
     3
1000
224526
1002
}
  0
ARC
  5
382
  8
0
 10
496.99999999999972
 20
102.6125000000003
 30
0.0
 40
1.9999999999999989
 50
270.0
 51
0.0
1001
REVIT
1002
{
1070
     3
1000
224526
1002
}
  0
LINE
  5
383
  8
0
 10
448.99999999999972
 20
155.61250000000041
 30
0.0
 11
448.99999999999972
 21
102.6125000000003
 31
0.0
1001
REVIT
1002
{
1070
     3
1000
224526
1002
}
  0
LINE
  5
384
  8
0
 10
450.99999999999977
 20
100.6125000000004
 30
0.0
 11
496.99999999999972
 21
100.6125000000004
 31
0.0
1001
REVIT
1002
{
1070
     3
1000
224526
1002
}
  0
LINE
  5
385
  8
0
 10
498.99999999999972
 20
102.6125000000003
 30
0.0
 11
498.99999999999972
 21
155.6125000000003
 31
0.0
1001
REVIT
1002
{
1070
     3
1000
224526
1002
}
  0
LINE
  5
386
  8
0
 10
450.99999999999972
 20
155.61250000000049
 30
0.0
 11
496.99999999999972
 21
102.6125000000004
 31
0.0
  0
LINE
  5
387
  8
0
 10
496.99999999999972
 20
155.61250000000049
 30
0.0
 11
450.99999999999977
 21
102.6125000000003
 31
0.0
  0
ARC
  5
388
  8
0
 10
-2.0000000000000422
 20
-42.300000000000033
 30
0.0
 40
1.9999999999999969
 50
0.0
 51
90.0
1001
REVIT
1002
{
1070
     3
1000
224526
1002
}
  0
ARC
  5
389
  8
0
 10
-97.999999999999972
 20
-42.299999999999969
 30
0.0
 40
1.999999999999996
 50
90.0
 51
180.0
1001
REVIT
1002
{
1070
     3
1000
224526
1002
}
  0
ARC
  5
38A
  8
0
 10
-97.999999999999972
 20
-88.299999999999997
 30
0.0
 40
1.999999999999992
 50
180.0
 51
269.9999999999996
1001
REVIT
1002
{
1070
     3
1000
224526
1002
}
  0
ARC
  5
38B
  8
0
 10
-1.999999999999978
 20
-88.300000000000011
 30
0.0
 40
2.0000000000000071
 50
269.9999999999996
 51
0.0
1001
REVIT
1002
{
1070
     3
1000
224526
1002
}
  0
LINE
  5
38C
  8
0
 10
-2.0000000000000422
 20
-40.299999999999962
 30
0.0
 11
-97.999999999999972
 21
-40.299999999999962
 31
0.0
1001
REVIT
1002
{
1070
     3
1000
224526
1002
}
  0
LINE
  5
38D
  8
0
 10
-99.999999999999986
 20
-42.299999999999962
 30
0.0
 11
-99.999999999999986
 21
-88.299999999999983
 31
0.0
1001
REVIT
1002
{
1070
     3
1000
224526
1002
}
  0
LINE
  5
38E
  8
0
 10
-97.999999999999972
 20
-90.300000000000011
 30
0.0
 11
-1.999999999999978
 21
-90.300000000000011
 31
0.0
1001
REVIT
1002
{
1070
     3
1000
224526
1002
}
  0
LINE
  5
38F
  8
0
 10
0.0000000000000284
 20
-88.300000000000011
 30
0.0
 11
0.0000000000000284
 21
-42.300000000000033
 31
0.0
1001
REVIT
1002
{
1070
     3
1000
224526
1002
}
  0
LINE
  5
390
  8
0
 10
-98.000000000000142
 20
-42.299999999999791
 30
0.0
 11
-1.99999999999995
 21
-88.299999999999926
 31
0.0
  0
LINE
  5
391
  8
0
 10
-1.99999999999995
 20
-42.299999999999791
 30
0.0
 11
-97.999999999999943
 21
-88.299999999999997
 31
0.0
  0
LINE
  5
392
  8
0
 10
423.99999999999932
 20
60.700000000000458
 30
0.0
 11
-220.17162953024669
 21
60.700000000000458
 31
0.0
1001
REVIT
1002
{
1070
     3
1000
206265
1002
}
  0
LINE
  5
393
  8
0
 10
-220.17162953024669
 20
-39.299999999999699
 30
0.0
 11
0.0000000000011653
 21
-39.299999999999699
 31
0.0
1001
REVIT
1002
{
1070
     3
1000
206265
1002
}
  0
LINE
  5
394
  8
0
 10
50.00000000000113
 20
-39.299999999999699
 30
0.0
 11
423.99999999999932
 21
-39.299999999999699
 31
0.0
1001
REVIT
1002
{
1070
     3
1000
206265
1002
}
  0
LINE
  5
395
  8
0
 10
0.0000000000000639
 20
-257.71902815239662
 30
0.0
 11
0.0000000000003908
 21
-90.300000000000054
 31
0.0
1001
REVIT
1002
{
1070
     3
1000
206265
1002
}
  0
LINE
  5
396
  8
0
 10
-99.999999999999787
 20
-90.299999999999855
 30
0.0
 11
-100.0000000000001
 21
-257.71902815239639
 31
0.0
1001
REVIT
1002
{
1070
     3
1000
206265
1002
}
  0
INSERT
  5
397
  8
0
  6
CONTINUOUS
  2
*U51
 10
0.0
 20
0.0
 30
0.0
1001
ACAD
1002
{
1000
R14_HATCH_DATA
1000
397
1011
1.0
1021
0.0
1031
0.0
1021
0.0
1031
0.0
1011
0.0
1021
0.0
1031
0.0
1021
1.0
1031
0.0
1011
0.0
1021
0.0
1031
0.0
1021
0.0
1031
1.0
1040
0.0
1010
0.0
1020
0.0
1030
1.0
1000
SOLID
1070
     1
1070
     0
1071
        1
1071
        0
1071
      110
1070
     1
1040
145.55412193184591
1040
169.38033787425721
1040
161.56242890682509
1040
170.10206366228309
1070
     1
1040
161.56242890682509
1040
170.10206366228309
1040
177.37389053495269
1040
172.26724102636081
1070
     1
1040
177.37389053495269
1040
172.26724102636081
1040
193.054121931846
1040
175.87586996649031
1070
     1
1040
193.054121931846
1040
175.87586996649031
1040
200.05412193184429
1040
185.37586996648909
1070
     1
1040
200.05412193184429
1040
185.37586996648909
1040
214.72708808086901
1040
190.50474017323211
1070
     1
1040
214.72708808086901
1040
190.50474017323211
1040
229.5635711553814
1040
194.35139282828931
1070
     1
1040
229.5635711553814
1040
194.35139282828931
1040
244.5635711553816
1040
196.9158279316608
1070
     1
1040
244.5635711553816
1040
196.9158279316608
1040
259.8360993645278
1040
198.19804548334659
1070
     1
1040
259.8360993645278
1040
198.19804548334659
1040
275.27214449916193
1040
198.1980454833467
1070
     1
1040
275.27214449916193
1040
198.1980454833467
1040
290.54467270830821
1040
196.915827931661
1070
     1
1040
290.54467270830821
1040
196.915827931661
1040
305.54467270830833
1040
194.35139282828979
1070
     1
1040
305.54467270830833
1040
194.35139282828979
1040
320.38115578282083
1040
190.50474017323279
1070
     1
1040
320.38115578282083
1040
190.50474017323279
1040
335.05412193184668
1040
185.37586996648949
1070
     1
1040
335.05412193184668
1040
185.37586996648949
1040
342.05412193184651
1040
175.87586996649
1070
     1
1040
342.0541219318464
1040
175.87586996649
1040
357.31622040500741
1040
172.34380689334861
1070
     1
1040
357.31622040500741
1040
172.34380689334861
1040
372.70928273050492
1040
170.18012072237161
1070
     1
1040
372.70928273050492
1040
170.18012072237161
1040
388.29391091269491
1040
169.38437948712129
1070
     1
1040
388.29391091269491
1040
169.38437948712129
1040
403.88829893850851
1040
169.95787908691071
1070
     1
1040
403.88829893850851
1040
169.95787908691071
1040
419.31064079487572
1040
171.90191542105251
1070
     1
1040
419.31064079487572
1040
171.90191542105251
1040
434.6215384861535
1040
175.2160565231093
1070
     1
1040
434.6215384861535
1040
175.2160565231093
1040
435.51847714362702
1040
175.5610193596298
1070
     1
1040
435.51847714362691
1040
175.5610193596298
1040
436.3191316978627
1040
176.09248017533719
1070
     1
1040
436.3191316978627
1040
176.09248017533719
1040
436.98530983838458
1040
176.78508756696789
1070
     1
1040
436.98530983838458
1040
176.78508756696789
1040
437.48523396242939
1040
177.6058032205585
1070
     1
1040
437.4852339624295
1040
177.6058032205585
1040
437.79505700979041
1040
178.51547788392719
1070
     1
1040
437.79505700979041
1040
178.51547788392719
1040
437.90000000000049
1040
179.47071883921359
1070
     1
1040
437.9000000000006
1040
179.47071883921359
1040
437.9000000000006
1040
185.59412692079559
1070
     1
1040
437.9000000000006
1040
185.59412692079559
1040
436.90000000000072
1040
185.59412692079559
1070
     1
1040
436.9000000000006
1040
185.59412692079559
1040
436.9000000000006
1040
179.47071883921359
1070
     1
1040
436.9000000000006
1040
179.47071883921359
1040
436.81890768938371
1040
178.73257810103769
1070
     1
1040
436.81890768938371
1040
178.73257810103769
1040
436.57949897096847
1040
178.02964767934381
1070
     1
1040
436.57949897096847
1040
178.02964767934381
1040
436.19319396602458
1040
177.3954583106601
1070
     1
1040
436.19319396602458
1040
177.3954583106601
1040
435.67841994834862
1040
176.86026168985461
1070
     1
1040
435.67841994834862
1040
176.86026168985461
1040
435.05973233825739
1040
176.44958742317161
1070
     1
1040
435.05973233825728
1040
176.44958742317161
1040
434.36664337566509
1040
176.1830252313151
1070
     1
1040
434.36664337566509
1040
176.1830252313151
1040
419.19955258600282
1040
172.89734691143099
1070
     1
1040
419.19955258600271
1040
172.89734691143099
1040
403.92158090745988
1040
170.96392643576351
1070
     1
1040
403.92158090745988
1040
170.96392643576351
1040
388.47313266135052
1040
170.38313025556661
1070
     1
1040
388.47313266135052
1040
170.38313025556661
1040
373.0329948837325
1040
171.15385901707791
1070
     1
1040
373.0329948837325
1040
171.15385901707791
1040
357.77995461066342
1040
173.27501336653481
1070
     1
1040
357.77995461066331
1040
173.27501336653489
1040
342.65441616345601
1040
176.74695975519199
1070
     1
1040
342.65441616345601
1040
176.74695975519199
1040
335.6903778703292
1040
186.198154581578
1070
     1
1040
335.6903778703292
1040
186.198154581578
1040
320.8818635656005
1040
191.3970803899318
1070
     1
1040
320.8818635656005
1040
191.3970803899318
1040
305.90691130896022
1040
195.29627474619721
1070
     1
1040
305.90691130896022
1040
195.29627474619721
1040
290.76552110040831
1040
197.89573765037409
1070
     1
1040
290.76552110040831
1040
197.89573765037409
1040
275.34673430533718
1040
199.1954691024626
1070
     1
1040
275.34673430533718
1040
199.1954691024626
1040
259.7615095583547
1040
199.1954691024626
1070
     1
1040
259.7615095583547
1040
199.1954691024626
1040
244.3427227632838
1040
197.89573765037409
1070
     1
1040
244.3427227632838
1040
197.89573765037409
1040
229.20133255473189
1040
195.2962747461971
1070
     1
1040
229.20133255473189
1040
195.2962747461971
1040
214.2263802980915
1040
191.39708038993169
1070
     1
1040
214.2263802980915
1040
191.39708038993169
1040
199.41786599336271
1040
186.198154581578
1070
     1
1040
199.41786599336271
1040
186.198154581578
1040
192.45382770023741
1040
176.74695975519259
1070
     1
1040
192.45382770023741
1040
176.74695975519259
1040
176.96957342048199
1040
173.20986335550799
1070
     1
1040
176.96957342048199
1040
173.20986335550799
1040
161.357621160977
1040
171.08760551569731
1070
     1
1040
161.357621160977
1040
171.08760551569731
1040
145.55412193184711
1040
170.38018623576031
1070
     1
1040
145.55412193184711
1040
170.38018623576031
1040
129.7506227027171
1040
171.08760551569711
1070
     1
1040
129.7506227027171
1040
171.08760551569711
1040
114.13867044321211
1040
173.20986335550771
1070
     1
1040
114.13867044321211
1040
173.20986335550771
1040
98.654416163455494
1040
176.74695975519231
1070
     1
1040
98.654416163455494
1040
176.74695975519231
1040
91.690377870329243
1040
186.198154581578
1070
     1
1040
91.690377870329243
1040
186.198154581578
1040
76.881863565600327
1040
191.39708038993169
1070
     1
1040
76.881863565600327
1040
191.39708038993169
1040
61.906911308959927
1040
195.2962747461971
1070
     1
1040
61.906911308959927
1040
195.2962747461971
1040
46.76552110040808
1040
197.89573765037409
1070
     1
1040
46.76552110040808
1040
197.89573765037409
1040
31.346734305337009
1040
199.1954691024626
1070
     1
1040
31.346734305337009
1040
199.1954691024626
1040
15.761509558354589
1040
199.1954691024626
1070
     1
1040
15.761509558354589
1040
199.1954691024626
1040
0.3427227632835752
1040
197.89573765037409
1070
     1
1040
0.3427227632835752
1040
197.89573765037409
1040
-14.798667445268279
1040
195.2962747461971
1070
     1
1040
-14.798667445268279
1040
195.2962747461971
1040
-29.773619701908672
1040
191.39708038993169
1070
     1
1040
-29.773619701908672
1040
191.39708038993169
1040
-44.582134006637602
1040
186.198154581578
1070
     1
1040
-44.582134006637602
1040
186.198154581578
1040
-51.546172299762191
1040
176.7469597551935
1070
     1
1040
-51.546172299762191
1040
176.7469597551935
1040
-67.030426579517666
1040
173.20986335550899
1070
     1
1040
-67.030426579517666
1040
173.20986335550899
1040
-82.642378839023095
1040
171.0876055156983
1070
     1
1040
-82.642378839023095
1040
171.0876055156983
1040
-98.445878068153206
1040
170.38018623576141
1070
     1
1040
-98.445878068153206
1040
170.38018623576141
1040
-114.2493772972834
1040
171.08760551569819
1070
     1
1040
-114.2493772972834
1040
171.08760551569819
1040
-129.8613295567888
1040
173.2098633555087
1070
     1
1040
-129.8613295567888
1040
173.2098633555087
1040
-145.34558383654539
1040
176.74695975519319
1070
     1
1040
-145.34558383654539
1040
176.74695975519319
1040
-152.30962212967111
1040
186.198154581578
1070
     1
1040
-152.30962212967111
1040
186.198154581578
1040
-164.22798808124219
1040
190.5029002417742
1070
     1
1040
-164.22798808124219
1040
190.5029002417742
1040
-176.2970432230841
1040
193.95847004721401
1070
     1
1040
-176.2970432230841
1040
193.95847004721401
1040
-188.5167875551964
1040
196.5648639978975
1070
     1
1040
-188.5167875551964
1040
196.5648639978975
1040
-200.88722107757971
1040
198.3220820938246
1070
     1
1040
-200.88722107757971
1040
198.32208209382469
1040
-213.40834379023349
1040
199.23012433499551
1070
     1
1040
-213.40834379023349
1040
199.23012433499551
1040
-226.0801556931581
1040
199.2889907214101
1070
     1
1040
-226.0801556931581
1040
199.2889907214101
1040
-226.08015569315941
1040
198.28851245268501
1070
     1
1040
-226.08015569315941
1040
198.28851245268501
1040
-213.5207757558384
1040
198.2338912431689
1070
     1
1040
-213.5207757558384
1040
198.2338912431689
1040
-201.1095292851121
1040
197.34027568504621
1070
     1
1040
-201.1095292851121
1040
197.34027568504621
1040
-188.84641628098061
1040
195.607665778317
1070
     1
1040
-188.84641628098061
1040
195.607665778317
1040
-176.73143674344391
1040
193.0360615229813
1070
     1
1040
-176.73143674344391
1040
193.03606152298121
1040
-164.76459067250229
1040
189.62546291903891
1070
     1
1040
-164.76459067250229
1040
189.62546291903891
1040
-152.94587806815389
1040
185.37586996648949
1070
     1
1040
-152.94587806815389
1040
185.37586996648949
1040
-145.94587806815511
1040
175.87586996649119
1070
     1
1040
-145.94587806815511
1040
175.87586996649111
1040
-130.26564667126149
1040
172.26724102636169
1070
     1
1040
-130.26564667126149
1040
172.26724102636169
1040
-114.45418504313361
1040
170.10206366228411
1070
     1
1040
-114.45418504313361
1040
170.10206366228419
1040
-98.445878068154244
1040
169.38033787425829
1070
     1
1040
-98.445878068154244
1040
169.3803378742582
1040
-82.437571093175038
1040
170.10206366228411
1070
     1
1040
-82.437571093175038
1040
170.10206366228419
1040
-66.626109465047193
1040
172.2672410263618
1070
     1
1040
-66.626109465047193
1040
172.2672410263618
1040
-50.945878068153597
1040
175.87586996649119
1070
     1
1040
-50.945878068153597
1040
175.87586996649111
1040
-43.945878068155807
1040
185.37586996648909
1070
     1
1040
-43.945878068155807
1040
185.37586996648909
1040
-29.272911919131111
1040
190.50474017323211
1070
     1
1040
-29.272911919131111
1040
190.50474017323211
1040
-14.436428844618771
1040
194.35139282828931
1070
     1
1040
-14.436428844618771
1040
194.35139282828931
1040
0.5635711553813964
1040
196.9158279316608
1070
     1
1040
0.5635711553813964
1040
196.9158279316608
1040
15.83609936452774
1040
198.19804548334659
1070
     1
1040
15.83609936452774
1040
198.19804548334659
1040
31.272144499161811
1040
198.1980454833467
1070
     1
1040
31.272144499161811
1040
198.1980454833467
1040
46.544672708308092
1040
196.915827931661
1070
     1
1040
46.544672708308092
1040
196.915827931661
1040
61.544672708308319
1040
194.3513928282897
1070
     1
1040
61.544672708308319
1040
194.3513928282897
1040
76.381155782820827
1040
190.5047401732327
1070
     1
1040
76.381155782820827
1040
190.5047401732327
1040
91.054121931846467
1040
185.37586996648949
1070
     1
1040
91.054121931846467
1040
185.37586996648949
1040
98.054121931845941
1040
175.8758699664902
1070
     1
1040
98.054121931845941
1040
175.8758699664902
1040
113.7343533287393
1040
172.26724102636081
1070
     1
1040
113.7343533287393
1040
172.26724102636081
1040
129.54581495686691
1040
170.10206366228309
1070
     1
1040
129.54581495686691
1040
170.10206366228309
1040
145.55412193184591
1040
169.38033787425721
1071
        0
1070
     0
1070
     1
1071
        1
1040
437.90000000000009
1040
223.11250000000049
1040
0.0
1002
}
  0
LINE
  5
398
  8
0
 10
437.90000000000009
 20
185.59412692079539
 30
0.0
 11
436.89999999999998
 21
185.59412692079539
 31
0.0
1001
REVIT
1002
{
1070
     3
1000
476644
1002
}
  0
LINE
  5
399
  8
0
 10
436.89999999999998
 20
185.59412692079539
 30
0.0
 11
436.89999999999998
 21
179.4707188392133
 31
0.0
1001
REVIT
1002
{
1070
     3
1000
476644
1002
}
  0
ARC
  5
39A
  8
0
 10
433.5
 20
179.4707188392133
 30
0.0
 40
3.399999999999948
 50
284.76737004574022
 51
0.0
1001
REVIT
1002
{
1070
     3
1000
476644
1002
}
  0
ARC
  5
39B
  8
0
 10
389.55412193184571
 20
346.18356344794421
 30
0.0
 40
175.80769343830309
 50
254.5280202875303
 51
284.76737004574022
1001
REVIT
1002
{
1070
     3
1000
476644
1002
}
  0
LINE
  5
39C
  8
0
 10
342.65441616345549
 20
176.7469597551918
 30
0.0
 11
335.69037787032892
 21
186.1981545815778
 31
0.0
1001
REVIT
1002
{
1070
     3
1000
476644
1002
}
  0
ARC
  5
39D
  8
0
 10
267.55412193184571
 20
16.63548300359906
 30
0.0
 40
182.74038679497181
 50
68.108000327179482
 51
111.8919996728205
1001
REVIT
1002
{
1070
     3
1000
476644
1002
}
  0
LINE
  5
39E
  8
0
 10
199.41786599336231
 20
186.19815458157771
 30
0.0
 11
192.45382770023599
 21
176.74695975519211
 31
0.0
1001
REVIT
1002
{
1070
     3
1000
476644
1002
}
  0
ARC
  5
39F
  8
0
 10
145.5541219318456
 20
346.1835634479387
 30
0.0
 40
175.8076934382976
 50
254.5280202875299
 51
285.4719797124701
1001
REVIT
1002
{
1070
     3
1000
476644
1002
}
  0
LINE
  5
3A0
  8
0
 10
98.654416163455323
 20
176.74695975519211
 30
0.0
 11
91.690377870329087
 21
186.19815458157771
 31
0.0
1001
REVIT
1002
{
1070
     3
1000
476644
1002
}
  0
ARC
  5
3A1
  8
0
 10
23.55412193184571
 20
16.63548300359912
 30
0.0
 40
182.74038679497181
 50
68.108000327179482
 51
111.8919996728205
1001
REVIT
1002
{
1070
     3
1000
476644
1002
}
  0
LINE
  5
3A2
  8
0
 10
-44.582134006637652
 20
186.1981545815778
 30
0.0
 11
-51.546172299763327
 21
176.7469597551929
 31
0.0
1001
REVIT
1002
{
1070
     3
1000
476644
1002
}
  0
ARC
  5
3A3
  8
0
 10
-98.445878068154343
 20
346.18356344794881
 30
0.0
 40
175.80769343830659
 50
254.5280202875303
 51
285.4719797124697
1001
REVIT
1002
{
1070
     3
1000
476644
1002
}
  0
LINE
  5
3A4
  8
0
 10
-145.34558383654539
 20
176.74695975519299
 30
0.0
 11
-152.30962212967111
 21
186.1981545815778
 31
0.0
1001
REVIT
1002
{
1070
     3
1000
476644
1002
}
  0
ARC
  5
3A5
  8
0
 10
-220.44587806815409
 20
16.6354830035996
 30
0.0
 40
182.7403867949713
 50
68.108000327179482
 51
91.766831638607115
1001
REVIT
1002
{
1070
     3
1000
476644
1002
}
  0
LINE
  5
3A6
  8
0
 10
-226.08015569315799
 20
199.28899072140979
 30
0.0
 11
-226.08015569315799
 21
198.28851245268481
 31
0.0
1001
REVIT
1002
{
1070
     3
1000
476644
1002
}
  0
ARC
  5
3A7
  8
0
 10
-220.4458780681544
 20
16.635483003598178
 30
0.0
 40
181.74038679497289
 50
68.197464968812398
 51
91.776556480496424
1001
REVIT
1002
{
1070
     3
1000
476644
1002
}
  0
LINE
  5
3A8
  8
0
 10
-152.94587806815389
 20
185.37586996648929
 30
0.0
 11
-145.945878068155
 21
175.87586996649091
 31
0.0
1001
REVIT
1002
{
1070
     3
1000
476644
1002
}
  0
ARC
  5
3A9
  8
0
 10
-98.445878068154343
 20
346.18356344794898
 30
0.0
 40
176.8076934383069
 50
254.41584394575011
 51
285.58415605424989
1001
REVIT
1002
{
1070
     3
1000
476644
1002
}
  0
LINE
  5
3AA
  8
0
 10
-50.945878068153661
 20
175.87586996649091
 30
0.0
 11
-43.945878068154848
 21
185.3758699664894
 31
0.0
1001
REVIT
1002
{
1070
     3
1000
476644
1002
}
  0
ARC
  5
3AB
  8
0
 10
23.55412193184566
 20
16.635483003599258
 30
0.0
 40
181.7403867949717
 50
68.197464968812398
 51
111.8025350311876
1001
REVIT
1002
{
1070
     3
1000
476644
1002
}
  0
LINE
  5
3AC
  8
0
 10
91.054121931846225
 20
185.37586996648929
 30
0.0
 11
98.054121931845714
 21
175.87586996649
 31
0.0
1001
REVIT
1002
{
1070
     3
1000
476644
1002
}
  0
ARC
  5
3AD
  8
0
 10
145.5541219318456
 20
346.18356344793909
 30
0.0
 40
176.807693438298
 50
254.41584394575011
 51
285.58415605424989
1001
REVIT
1002
{
1070
     3
1000
476644
1002
}
  0
LINE
  5
3AE
  8
0
 10
193.05412193184571
 20
175.87586996649009
 30
0.0
 11
200.0541219318452
 21
185.37586996648929
 31
0.0
1001
REVIT
1002
{
1070
     3
1000
476644
1002
}
  0
ARC
  5
3AF
  8
0
 10
267.55412193184571
 20
16.635483003598981
 30
0.0
 40
181.7403867949719
 50
68.197464968812398
 51
111.8025350311876
1001
REVIT
1002
{
1070
     3
1000
476644
1002
}
  0
LINE
  5
3B0
  8
0
 10
335.05412193184611
 20
185.3758699664894
 30
0.0
 11
342.05412193184588
 21
175.8758699664898
 31
0.0
1001
REVIT
1002
{
1070
     3
1000
476644
1002
}
  0
ARC
  5
3B1
  8
0
 10
389.5541219318456
 20
346.18356344794358
 30
0.0
 40
176.80769343830249
 50
254.41584394575011
 51
284.76737004574022
1001
REVIT
1002
{
1070
     3
1000
476644
1002
}
  0
ARC
  5
3B2
  8
0
 10
433.5
 20
179.4707188392133
 30
0.0
 40
4.3999999999999568
 50
284.76737004574022
 51
0.0
1001
REVIT
1002
{
1070
     3
1000
476644
1002
}
  0
LINE
  5
3B3
  8
0
 10
437.90000000000009
 20
179.4707188392133
 30
0.0
 11
437.90000000000009
 21
185.59412692079539
 31
0.0
1001
REVIT
1002
{
1070
     3
1000
476644
1002
}
  0
VIEWPORT
  5
2EF
 67
     1
  8
0
 10
143.41473388671869
 20
99.790247440338135
 30
0.0
 40
334.673629294997
 41
222.15178063964851
 68
     1
 69
     1
1001
ACAD
1000
MVIEW
1002
{
1070
    16
1010
0.0
1020
0.0
1030
0.0
1010
0.0
1020
0.0
1030
1.0
1040
0.0
1040
222.15178063964851
1040
143.41473388671869
1040
99.790247440338135
1040
50.0
1040
0.0
1040
0.0
1070
     0
1070
   100
1070
     1
1070
     1
1070
     0
1070
     0
1070
     0
1070
     0
1040
0.0
1040
0.0
1040
0.0
1040
10.0
1040
10.0
1040
10.0
1040
10.0
1070
     0
1002
{
1002
}
1002
}
  0
VIEWPORT
  5
2F3
 67
     1
  8
0
 10
143.3724060058594
 20
99.832585573196425
 30
0.0
 40
229.39584960937501
 41
159.73213691711419
 68
     2
 69
     2
1001
ACAD
1000
MVIEW
1002
{
1070
    16
1010
0.0
1020
0.0
1030
0.0
1010
0.0
1020
0.0
1030
1.0
1040
0.0
1040
893.52635495021775
1040
271.64764383810058
1040
-5.2026594041854528
1040
50.0
1040
0.0
1040
0.0
1070
     0
1070
  1000
1070
     1
1070
     1
1070
     0
1070
     0
1070
     0
1070
     0
1040
0.0
1040
0.0
1040
0.0
1040
1.0
1040
1.0
1040
0.0
1040
0.0
1070
     0
1002
{
1002
}
1002
}
  0
ENDSEC
  0
EOF
