  0
SECTION
  2
HEADER
  9
$ACADVER
  1
AC1009
  9
$INSBASE
 10
0.0
 20
0.0
 30
0.0
  9
$EXTMIN
 10
-739.76782500657919
 20
-282.98916003516672
 30
0.0
  9
$EXTMAX
 10
243.13039454999051
 20
466.7799875833644
 30
0.0
  9
$LIMMIN
 10
0.0
 20
0.0
  9
$LIMMAX
 10
12.0
 20
9.0
  9
$ORTHOMODE
 70
     0
  9
$REGENMODE
 70
     1
  9
$FILLMODE
 70
     1
  9
$QTEXTMODE
 70
     0
  9
$MIRRTEXT
 70
     0
  9
$DRAGMODE
 70
     2
  9
$LTSCALE
 40
1.0
  9
$OSMODE
 70
     0
  9
$ATTMODE
 70
     1
  9
$TEXTSIZE
 40
0.2
  9
$TRACEWID
 40
0.05
  9
$TEXTSTYLE
  7
STANDARD
  9
$CLAYER
  8
0
  9
$CELTYPE
  6
BYLAYER
  9
$CECOLOR
 62
   256
  9
$DIMSCALE
 40
1.0
  9
$DIMASZ
 40
0.18
  9
$DIMEXO
 40
0.0625
  9
$DIMDLI
 40
0.38
  9
$DIMRND
 40
0.0
  9
$DIMDLE
 40
0.0
  9
$DIMEXE
 40
0.18
  9
$DIMTP
 40
0.0
  9
$DIMTM
 40
0.0
  9
$DIMTXT
 40
0.18
  9
$DIMCEN
 40
0.09
  9
$DIMTSZ
 40
0.0
  9
$DIMTOL
 70
     0
  9
$DIMLIM
 70
     0
  9
$DIMTIH
 70
     1
  9
$DIMTOH
 70
     1
  9
$DIMSE1
 70
     0
  9
$DIMSE2
 70
     0
  9
$DIMTAD
 70
     0
  9
$DIMZIN
 70
     0
  9
$DIMBLK
  1

  9
$DIMASO
 70
     1
  9
$DIMSHO
 70
     1
  9
$DIMPOST
  1

  9
$DIMAPOST
  1

  9
$DIMALT
 70
     0
  9
$DIMALTD
 70
     2
  9
$DIMALTF
 40
25.399999999999999
  9
$DIMLFAC
 40
1.0
  9
$DIMTOFL
 70
     0
  9
$DIMTVP
 40
0.0
  9
$DIMTIX
 70
     0
  9
$DIMSOXD
 70
     0
  9
$DIMSAH
 70
     0
  9
$DIMBLK1
  1

  9
$DIMBLK2
  1

  9
$DIMSTYLE
  2
STANDARD
  9
$DIMCLRD
 70
     0
  9
$DIMCLRE
 70
     0
  9
$DIMCLRT
 70
     0
  9
$DIMTFAC
 40
1.0
  9
$DIMGAP
 40
0.09
  9
$LUNITS
 70
     2
  9
$LUPREC
 70
     4
  9
$SKETCHINC
 40
0.1
  9
$FILLETRAD
 40
0.0
  9
$AUNITS
 70
     0
  9
$AUPREC
 70
     0
  9
$MENU
  1
.
  9
$ELEVATION
 40
0.0
  9
$PELEVATION
 40
0.0
  9
$THICKNESS
 40
0.0
  9
$LIMCHECK
 70
     0
  9
$BLIPMODE
 70
     0
  9
$CHAMFERA
 40
0.0
  9
$CHAMFERB
 40
0.0
  9
$SKPOLY
 70
     0
  9
$TDCREATE
 40
2457745.6346787042
  9
$TDUPDATE
 40
2457745.6592407748
  9
$TDINDWG
 40
0.0001337384
  9
$TDUSRTIMER
 40
0.0001337384
  9
$USRTIMER
 70
     1
  9
$ANGBASE
 50
0.0
  9
$ANGDIR
 70
     0
  9
$PDMODE
 70
     0
  9
$PDSIZE
 40
0.0
  9
$PLINEWID
 40
0.0
  9
$COORDS
 70
     2
  9
$SPLFRAME
 70
     0
  9
$SPLINETYPE
 70
     6
  9
$SPLINESEGS
 70
     8
  9
$ATTDIA
 70
     0
  9
$ATTREQ
 70
     0
  9
$HANDLING
 70
     1
  9
$HANDSEED
  5
989
  9
$SURFTAB1
 70
     6
  9
$SURFTAB2
 70
     6
  9
$SURFTYPE
 70
     6
  9
$SURFU
 70
     6
  9
$SURFV
 70
     6
  9
$UCSNAME
  2

  9
$UCSORG
 10
0.0
 20
0.0
 30
0.0
  9
$UCSXDIR
 10
1.0
 20
0.0
 30
0.0
  9
$UCSYDIR
 10
0.0
 20
1.0
 30
0.0
  9
$PUCSNAME
  2

  9
$PUCSORG
 10
0.0
 20
0.0
 30
0.0
  9
$PUCSXDIR
 10
1.0
 20
0.0
 30
0.0
  9
$PUCSYDIR
 10
0.0
 20
1.0
 30
0.0
  9
$USERI1
 70
     0
  9
$USERI2
 70
     0
  9
$USERI3
 70
     0
  9
$USERI4
 70
     0
  9
$USERI5
 70
     0
  9
$USERR1
 40
0.0
  9
$USERR2
 40
0.0
  9
$USERR3
 40
0.0
  9
$USERR4
 40
0.0
  9
$USERR5
 40
0.0
  9
$WORLDVIEW
 70
     1
  9
$SHADEDGE
 70
     3
  9
$SHADEDIF
 70
    70
  9
$TILEMODE
 70
     1
  9
$MAXACTVP
 70
    64
  9
$PLIMCHECK
 70
     0
  9
$PEXTMIN
 10
28.674481201171879
 20
19.966517114639291
 30
0.0
  9
$PEXTMAX
 10
258.07033081054692
 20
179.69865403175351
 30
0.0
  9
$PLIMMIN
 10
-5.069427490234375
 20
-5.1964163780212402
  9
$PLIMMAX
 10
291.89889526367187
 20
204.77691125869751
  9
$UNITMODE
 70
     0
  9
$VISRETAIN
 70
     1
  9
$PLINEGEN
 70
     0
  9
$PSLTSCALE
 70
     1
  0
ENDSEC
  0
SECTION
  2
TABLES
  0
TABLE
  2
VPORT
 70
     1
  0
VPORT
  2
*ACTIVE
 70
     0
 10
0.0
 20
0.0
 11
1.0
 21
1.0
 12
-174.3783189043674
 22
90.268491969685897
 13
0.0
 23
0.0
 14
1.0
 24
1.0
 15
0.0
 25
0.0
 16
0.0
 26
0.0
 36
1.0
 17
0.0
 27
0.0
 37
0.0
 40
746.51530400970523
 41
1.5065088757396441
 42
50.0
 43
0.0
 44
0.0
 50
0.0
 51
0.0
 71
     0
 72
  1000
 73
     1
 74
     1
 75
     0
 76
     0
 77
     0
 78
     0
  0
ENDTAB
  0
TABLE
  2
LTYPE
 70
     2
  0
LTYPE
  2
CONTINUOUS
 70
     0
  3
Solid line
 72
    65
 73
     0
 40
0.0
  0
LTYPE
  2
DASH
 70
     0
  3

 72
    65
 73
     2
 40
6.3499999999999996
 49
3.1749999999999998
 49
-3.1749999999999998
  0
ENDTAB
  0
TABLE
  2
LAYER
 70
     8
  0
LAYER
  2
0
 70
     0
 62
     7
  6
CONTINUOUS
  0
ENDTAB
  0
TABLE
  2
STYLE
 70
     8
  0
STYLE
  2
STANDARD
 70
     0
 40
0.0
 41
1.0
 50
0.0
 71
     0
 42
0.2
  3
txt
  4

  0
STYLE
  2
ARIAL
 70
     0
 40
12.294161676646709
 41
1.0
 50
0.0
 71
     0
 42
0.2
  3
txt
  4

  0
ENDTAB
  0
TABLE
  2
VIEW
 70
     1
  0
ENDTAB
  0
TABLE
  2
UCS
 70
     0
  0
ENDTAB
  0
TABLE
  2
APPID
 70
     6
  0
APPID
  2
ACAD
 70
     0
  0
APPID
  2
ACADANNOTATIVE
 70
     0
  0
APPID
  2
REVIT
 70
     0
  0
APPID
  2
ACAD_PSEXT
 70
     0
  0
APPID
  2
ACAD_NAV_VCDISPLAY
 70
     0
  0
APPID
  2
ACAD_MLEADERVER
 70
     0
  0
ENDTAB
  0
TABLE
  2
DIMSTYLE
 70
     2
  0
DIMSTYLE
  2
STANDARD
 70
     0
  3

  4

  5

  6

  7

 40
1.0
 41
0.18
 42
0.0625
 43
0.38
 44
0.18
 45
0.0
 46
0.0
 47
0.0
 48
0.0
140
0.18
141
0.09
142
0.0
143
25.399999999999999
144
1.0
145
0.0
146
1.0
147
0.09
 71
     0
 72
     0
 73
     1
 74
     1
 75
     0
 76
     0
 77
     0
 78
     0
170
     0
171
     2
172
     0
173
     0
174
     0
175
     0
176
     0
177
     0
178
     0
  0
ENDTAB
  0
ENDSEC
  0
SECTION
  2
BLOCKS
  0
BLOCK
  8
0
  2
$MODEL_SPACE
 70
     0
 10
0.0
 20
0.0
 30
0.0
  3
$MODEL_SPACE
  1

  0
ENDBLK
  5
72
  8
0
  0
BLOCK
 67
     1
  8
0
  2
$PAPER_SPACE
 70
     0
 10
0.0
 20
0.0
 30
0.0
  3
$PAPER_SPACE
  1

  0
ENDBLK
  5
76
 67
     1
  8
0
  0
BLOCK
  8
0
  2
*U25
 70
     1
 10
0.0
 20
0.0
 30
0.0
  3
*U25
  1

  0
TEXT
  5
4F3
  8
0
 62
     7
 10
-734.73355424821648
 20
-267.19204331605999
 30
0.0
 40
12.294161676646709
  1
* Similar design detail for metal fascia systems
  7
ARIAL
  0
ENDBLK
  5
4F5
  8
0
  0
BLOCK
  8
0
  2
*U26
 70
     1
 10
0.0
 20
0.0
 30
0.0
  3
*U26
  1

  0
SOLID
  5
4F7
  8
0
  6
CONTINUOUS
 10
36.142075474568713
 20
187.85344479111299
 30
0.0
 11
35.185366893655981
 21
187.6631436223912
 31
0.0
 12
37.098784055481431
 22
187.6631436223912
 32
0.0
 13
37.098784055481431
 23
187.6631436223912
 33
0.0
210
0.0
220
0.0
230
1.0
  0
SOLID
  5
4F8
  8
0
  6
CONTINUOUS
 10
35.185366893655981
 20
187.6631436223912
 30
0.0
 11
34.374308521602337
 21
187.1212117440794
 31
0.0
 12
37.909842427535082
 22
187.1212117440794
 32
0.0
 13
37.909842427535082
 23
187.1212117440794
 33
0.0
210
0.0
220
0.0
230
1.0
  0
SOLID
  5
4F9
  8
0
  6
CONTINUOUS
 10
-35.185366893655981
 20
187.6631436223912
 30
0.0
 11
-37.098784055481431
 21
187.6631436223912
 31
0.0
 12
-37.909842427535082
 22
187.1212117440794
 32
0.0
 13
-37.909842427535082
 23
187.1212117440794
 33
0.0
210
0.0
220
0.0
230
-1.0
  0
SOLID
  5
4FA
  8
0
  6
CONTINUOUS
 10
34.374308521602337
 20
187.1212117440794
 30
0.0
 11
33.832376643290488
 21
186.31015337202581
 31
0.0
 12
38.451774305846932
 22
186.31015337202581
 32
0.0
 13
38.451774305846932
 23
186.31015337202581
 33
0.0
210
0.0
220
0.0
230
1.0
  0
SOLID
  5
4FB
  8
0
  6
CONTINUOUS
 10
-34.374308521602337
 20
187.1212117440794
 30
0.0
 11
-37.909842427535082
 21
187.1212117440794
 31
0.0
 12
-38.451774305846932
 22
186.31015337202581
 32
0.0
 13
-38.451774305846932
 23
186.31015337202581
 33
0.0
210
0.0
220
0.0
230
-1.0
  0
SOLID
  5
4FC
  8
0
  6
CONTINUOUS
 10
33.832376643290488
 20
186.31015337202581
 30
0.0
 11
33.642075474568713
 21
185.35344479111299
 31
0.0
 12
38.642075474568713
 22
185.35344479111299
 32
0.0
 13
38.642075474568713
 23
185.35344479111299
 33
0.0
210
0.0
220
0.0
230
1.0
  0
SOLID
  5
4FD
  8
0
  6
CONTINUOUS
 10
-33.832376643290488
 20
186.31015337202581
 30
0.0
 11
-38.451774305846932
 21
186.31015337202581
 31
0.0
 12
-38.642075474568713
 22
185.35344479111299
 32
0.0
 13
-38.642075474568713
 23
185.35344479111299
 33
0.0
210
0.0
220
0.0
230
-1.0
  0
SOLID
  5
4FE
  8
0
  6
CONTINUOUS
 10
33.642075474568713
 20
185.35344479111299
 30
0.0
 11
33.832376643290488
 21
184.39673621020029
 31
0.0
 12
38.451774305846932
 22
184.39673621020029
 32
0.0
 13
38.451774305846932
 23
184.39673621020029
 33
0.0
210
0.0
220
0.0
230
1.0
  0
SOLID
  5
4FF
  8
0
  6
CONTINUOUS
 10
-33.642075474568713
 20
185.35344479111299
 30
0.0
 11
-38.642075474568713
 21
185.35344479111299
 31
0.0
 12
-38.451774305846932
 22
184.39673621020029
 32
0.0
 13
-38.451774305846932
 23
184.39673621020029
 33
0.0
210
0.0
220
0.0
230
-1.0
  0
SOLID
  5
500
  8
0
  6
CONTINUOUS
 10
33.832376643290488
 20
184.39673621020029
 30
0.0
 11
34.374308521602337
 21
183.58567783814669
 31
0.0
 12
37.909842427535082
 22
183.58567783814669
 32
0.0
 13
37.909842427535082
 23
183.58567783814669
 33
0.0
210
0.0
220
0.0
230
1.0
  0
SOLID
  5
501
  8
0
  6
CONTINUOUS
 10
-33.832376643290488
 20
184.39673621020029
 30
0.0
 11
-38.451774305846932
 21
184.39673621020029
 31
0.0
 12
-37.909842427535082
 22
183.58567783814669
 32
0.0
 13
-37.909842427535082
 23
183.58567783814669
 33
0.0
210
0.0
220
0.0
230
-1.0
  0
SOLID
  5
502
  8
0
  6
CONTINUOUS
 10
-35.185366893655981
 20
183.04374595983481
 30
0.0
 11
-37.098784055481431
 21
183.04374595983481
 31
0.0
 12
-36.142075474568713
 22
182.85344479111299
 32
0.0
 13
-36.142075474568713
 23
182.85344479111299
 33
0.0
210
0.0
220
0.0
230
-1.0
  0
SOLID
  5
503
  8
0
  6
CONTINUOUS
 10
34.374308521602337
 20
183.58567783814669
 30
0.0
 11
35.185366893655981
 21
183.04374595983481
 31
0.0
 12
37.098784055481431
 22
183.04374595983481
 32
0.0
 13
37.098784055481431
 23
183.04374595983481
 33
0.0
210
0.0
220
0.0
230
1.0
  0
SOLID
  5
504
  8
0
  6
CONTINUOUS
 10
-34.374308521602337
 20
183.58567783814669
 30
0.0
 11
-37.909842427535082
 21
183.58567783814669
 31
0.0
 12
-37.098784055481431
 22
183.04374595983481
 32
0.0
 13
-37.098784055481431
 23
183.04374595983481
 33
0.0
210
0.0
220
0.0
230
-1.0
  0
LINE
  5
505
  8
0
  6
CONTINUOUS
 10
36.142075474568713
 20
187.85344479111299
 30
0.0
 11
35.185366893655981
 21
187.6631436223912
 31
0.0
  0
LINE
  5
506
  8
0
  6
CONTINUOUS
 10
37.098784055481431
 20
187.6631436223912
 30
0.0
 11
36.142075474568713
 21
187.85344479111299
 31
0.0
  0
LINE
  5
507
  8
0
  6
CONTINUOUS
 10
35.185366893655981
 20
187.6631436223912
 30
0.0
 11
34.374308521602337
 21
187.1212117440794
 31
0.0
  0
LINE
  5
508
  8
0
  6
CONTINUOUS
 10
37.098784055481431
 20
187.6631436223912
 30
0.0
 11
37.909842427535082
 21
187.1212117440794
 31
0.0
  0
LINE
  5
509
  8
0
  6
CONTINUOUS
 10
34.374308521602337
 20
187.1212117440794
 30
0.0
 11
33.832376643290488
 21
186.31015337202581
 31
0.0
  0
LINE
  5
50A
  8
0
  6
CONTINUOUS
 10
37.909842427535082
 20
187.1212117440794
 30
0.0
 11
38.451774305846932
 21
186.31015337202581
 31
0.0
  0
LINE
  5
50B
  8
0
  6
CONTINUOUS
 10
33.832376643290488
 20
186.31015337202581
 30
0.0
 11
33.642075474568713
 21
185.35344479111299
 31
0.0
  0
LINE
  5
50C
  8
0
  6
CONTINUOUS
 10
38.451774305846932
 20
186.31015337202581
 30
0.0
 11
38.642075474568713
 21
185.35344479111299
 31
0.0
  0
LINE
  5
50D
  8
0
  6
CONTINUOUS
 10
33.642075474568713
 20
185.35344479111299
 30
0.0
 11
33.832376643290488
 21
184.39673621020029
 31
0.0
  0
LINE
  5
50E
  8
0
  6
CONTINUOUS
 10
38.642075474568713
 20
185.35344479111299
 30
0.0
 11
38.451774305846932
 21
184.39673621020029
 31
0.0
  0
LINE
  5
50F
  8
0
  6
CONTINUOUS
 10
33.832376643290488
 20
184.39673621020029
 30
0.0
 11
34.374308521602337
 21
183.58567783814669
 31
0.0
  0
LINE
  5
510
  8
0
  6
CONTINUOUS
 10
38.451774305846932
 20
184.39673621020029
 30
0.0
 11
37.909842427535082
 21
183.58567783814669
 31
0.0
  0
LINE
  5
511
  8
0
  6
CONTINUOUS
 10
37.098784055481431
 20
183.04374595983481
 30
0.0
 11
36.142075474568713
 21
182.85344479111299
 31
0.0
  0
LINE
  5
512
  8
0
  6
CONTINUOUS
 10
36.142075474568713
 20
182.85344479111299
 30
0.0
 11
35.185366893655981
 21
183.04374595983481
 31
0.0
  0
LINE
  5
513
  8
0
  6
CONTINUOUS
 10
34.374308521602337
 20
183.58567783814669
 30
0.0
 11
35.185366893655981
 21
183.04374595983481
 31
0.0
  0
LINE
  5
514
  8
0
  6
CONTINUOUS
 10
37.909842427535082
 20
183.58567783814669
 30
0.0
 11
37.098784055481431
 21
183.04374595983481
 31
0.0
  0
ENDBLK
  5
516
  8
0
  0
BLOCK
  8
0
  2
*U27
 70
     1
 10
0.0
 20
0.0
 30
0.0
  3
*U27
  1

  0
TEXT
  5
518
  8
0
 10
-71.168706258013785
 20
352.5634366642401
 30
0.0
 40
12.2941616766467
  1
Rafter
  7
ARIAL
  0
ENDBLK
  5
51A
  8
0
  0
BLOCK
  8
0
  2
*U28
 70
     1
 10
0.0
 20
0.0
 30
0.0
  3
*U28
  1

  0
SOLID
  5
51C
  8
0
  6
CONTINUOUS
 10
-498.74805997483082
 20
-10.22359062137274
 30
0.0
 11
-499.7047685557435
 21
-10.413891790094519
 31
0.0
 12
-497.79135139391809
 22
-10.413891790094519
 32
0.0
 13
-497.79135139391809
 23
-10.413891790094519
 33
0.0
210
0.0
220
0.0
230
1.0
  0
SOLID
  5
51D
  8
0
  6
CONTINUOUS
 10
-499.7047685557435
 20
-10.413891790094519
 30
0.0
 11
-500.51582692779709
 21
-10.95582366840636
 31
0.0
 12
-496.98029302186438
 22
-10.95582366840636
 32
0.0
 13
-496.98029302186438
 23
-10.95582366840636
 33
0.0
210
0.0
220
0.0
230
1.0
  0
SOLID
  5
51E
  8
0
  6
CONTINUOUS
 10
499.7047685557435
 20
-10.413891790094519
 30
0.0
 11
497.79135139391809
 21
-10.413891790094519
 31
0.0
 12
496.98029302186438
 22
-10.95582366840636
 32
0.0
 13
496.98029302186438
 23
-10.95582366840636
 33
0.0
210
0.0
220
0.0
230
-1.0
  0
SOLID
  5
51F
  8
0
  6
CONTINUOUS
 10
-500.51582692779709
 20
-10.95582366840636
 30
0.0
 11
-501.05775880610901
 21
-11.766882040459979
 31
0.0
 12
-496.43836114355258
 22
-11.766882040459979
 32
0.0
 13
-496.43836114355258
 23
-11.766882040459979
 33
0.0
210
0.0
220
0.0
230
1.0
  0
SOLID
  5
520
  8
0
  6
CONTINUOUS
 10
500.51582692779709
 20
-10.95582366840636
 30
0.0
 11
496.98029302186438
 21
-10.95582366840636
 31
0.0
 12
496.43836114355258
 22
-11.766882040459979
 32
0.0
 13
496.43836114355258
 23
-11.766882040459979
 33
0.0
210
0.0
220
0.0
230
-1.0
  0
SOLID
  5
521
  8
0
  6
CONTINUOUS
 10
-501.05775880610901
 20
-11.766882040459979
 30
0.0
 11
-501.24805997483071
 21
-12.723590621372679
 31
0.0
 12
-496.24805997483088
 22
-12.723590621372679
 32
0.0
 13
-496.24805997483088
 23
-12.723590621372679
 33
0.0
210
0.0
220
0.0
230
1.0
  0
SOLID
  5
522
  8
0
  6
CONTINUOUS
 10
501.05775880610901
 20
-11.766882040459979
 30
0.0
 11
496.43836114355258
 21
-11.766882040459979
 31
0.0
 12
496.24805997483088
 22
-12.723590621372679
 32
0.0
 13
496.24805997483088
 23
-12.723590621372679
 33
0.0
210
0.0
220
0.0
230
-1.0
  0
SOLID
  5
523
  8
0
  6
CONTINUOUS
 10
-501.24805997483071
 20
-12.723590621372679
 30
0.0
 11
-501.05775880610901
 21
-13.68029920228539
 31
0.0
 12
-496.43836114355258
 22
-13.68029920228539
 32
0.0
 13
-496.43836114355258
 23
-13.68029920228539
 33
0.0
210
0.0
220
0.0
230
1.0
  0
SOLID
  5
524
  8
0
  6
CONTINUOUS
 10
501.24805997483071
 20
-12.723590621372679
 30
0.0
 11
496.24805997483088
 21
-12.723590621372679
 31
0.0
 12
496.43836114355258
 22
-13.68029920228539
 32
0.0
 13
496.43836114355258
 23
-13.68029920228539
 33
0.0
210
0.0
220
0.0
230
-1.0
  0
SOLID
  5
525
  8
0
  6
CONTINUOUS
 10
-501.05775880610901
 20
-13.68029920228539
 30
0.0
 11
-500.51582692779709
 21
-14.491357574339011
 31
0.0
 12
-496.98029302186438
 22
-14.491357574339011
 32
0.0
 13
-496.98029302186438
 23
-14.491357574339011
 33
0.0
210
0.0
220
0.0
230
1.0
  0
SOLID
  5
526
  8
0
  6
CONTINUOUS
 10
501.05775880610901
 20
-13.68029920228539
 30
0.0
 11
496.43836114355258
 21
-13.68029920228539
 31
0.0
 12
496.98029302186438
 22
-14.491357574339011
 32
0.0
 13
496.98029302186438
 23
-14.491357574339011
 33
0.0
210
0.0
220
0.0
230
-1.0
  0
SOLID
  5
527
  8
0
  6
CONTINUOUS
 10
499.7047685557435
 20
-15.03328945265085
 30
0.0
 11
497.79135139391809
 21
-15.03328945265085
 31
0.0
 12
498.74805997483082
 22
-15.22359062137263
 32
0.0
 13
498.74805997483082
 23
-15.22359062137263
 33
0.0
210
0.0
220
0.0
230
-1.0
  0
SOLID
  5
528
  8
0
  6
CONTINUOUS
 10
-500.51582692779709
 20
-14.491357574339011
 30
0.0
 11
-499.7047685557435
 21
-15.03328945265085
 31
0.0
 12
-497.79135139391809
 22
-15.03328945265085
 32
0.0
 13
-497.79135139391809
 23
-15.03328945265085
 33
0.0
  0
SOLID
  5
529
  8
0
  6
CONTINUOUS
 10
500.51582692779709
 20
-14.491357574339011
 30
0.0
 11
496.98029302186438
 21
-14.491357574339011
 31
0.0
 12
497.79135139391809
 22
-15.03328945265085
 32
0.0
 13
497.79135139391809
 23
-15.03328945265085
 33
0.0
210
0.0
220
0.0
230
-1.0
  0
LINE
  5
52A
  8
0
  6
CONTINUOUS
 10
-498.74805997483082
 20
-10.22359062137274
 30
0.0
 11
-499.7047685557435
 21
-10.413891790094519
 31
0.0
  0
LINE
  5
52B
  8
0
  6
CONTINUOUS
 10
-497.79135139391809
 20
-10.413891790094519
 30
0.0
 11
-498.74805997483082
 21
-10.22359062137274
 31
0.0
  0
LINE
  5
52C
  8
0
  6
CONTINUOUS
 10
-499.7047685557435
 20
-10.413891790094519
 30
0.0
 11
-500.51582692779709
 21
-10.95582366840636
 31
0.0
  0
LINE
  5
52D
  8
0
  6
CONTINUOUS
 10
-497.79135139391809
 20
-10.413891790094519
 30
0.0
 11
-496.98029302186438
 21
-10.95582366840636
 31
0.0
  0
LINE
  5
52E
  8
0
  6
CONTINUOUS
 10
-500.51582692779709
 20
-10.95582366840636
 30
0.0
 11
-501.05775880610901
 21
-11.766882040459979
 31
0.0
  0
LINE
  5
52F
  8
0
  6
CONTINUOUS
 10
-496.98029302186438
 20
-10.95582366840636
 30
0.0
 11
-496.43836114355258
 21
-11.766882040459979
 31
0.0
  0
LINE
  5
530
  8
0
  6
CONTINUOUS
 10
-501.05775880610901
 20
-11.766882040459979
 30
0.0
 11
-501.24805997483071
 21
-12.723590621372679
 31
0.0
  0
LINE
  5
531
  8
0
  6
CONTINUOUS
 10
-496.43836114355258
 20
-11.766882040459979
 30
0.0
 11
-496.24805997483088
 21
-12.723590621372679
 31
0.0
  0
LINE
  5
532
  8
0
  6
CONTINUOUS
 10
-501.24805997483071
 20
-12.723590621372679
 30
0.0
 11
-501.05775880610901
 21
-13.68029920228539
 31
0.0
  0
LINE
  5
533
  8
0
  6
CONTINUOUS
 10
-496.24805997483088
 20
-12.723590621372679
 30
0.0
 11
-496.43836114355258
 21
-13.68029920228539
 31
0.0
  0
LINE
  5
534
  8
0
  6
CONTINUOUS
 10
-501.05775880610901
 20
-13.68029920228539
 30
0.0
 11
-500.51582692779709
 21
-14.491357574339011
 31
0.0
  0
LINE
  5
535
  8
0
  6
CONTINUOUS
 10
-496.43836114355258
 20
-13.68029920228539
 30
0.0
 11
-496.98029302186438
 21
-14.491357574339011
 31
0.0
  0
LINE
  5
536
  8
0
  6
CONTINUOUS
 10
-497.79135139391809
 20
-15.03328945265085
 30
0.0
 11
-498.74805997483082
 21
-15.22359062137263
 31
0.0
  0
LINE
  5
537
  8
0
  6
CONTINUOUS
 10
-498.74805997483082
 20
-15.22359062137263
 30
0.0
 11
-499.7047685557435
 21
-15.03328945265085
 31
0.0
  0
LINE
  5
538
  8
0
  6
CONTINUOUS
 10
-500.51582692779709
 20
-14.491357574339011
 30
0.0
 11
-499.7047685557435
 21
-15.03328945265085
 31
0.0
  0
LINE
  5
539
  8
0
  6
CONTINUOUS
 10
-496.98029302186438
 20
-14.491357574339011
 30
0.0
 11
-497.79135139391809
 21
-15.03328945265085
 31
0.0
  0
ENDBLK
  5
53B
  8
0
  0
BLOCK
  8
0
  2
*U29
 70
     1
 10
0.0
 20
0.0
 30
0.0
  3
*U29
  1

  0
TEXT
  5
53D
  8
0
 10
-737.46581451528345
 20
-65.876771766981548
 30
0.0
 40
12.2941616766467
  1
Selected fascia* & gutter
  7
ARIAL
  0
TEXT
  5
53E
  8
0
 10
-737.73417275106306
 20
-85.107540997750775
 30
0.0
 40
12.2941616766467
  1
(Fascia board height not to
  7
ARIAL
  0
TEXT
  5
53F
  8
0
 10
-737.32324920252574
 20
-104.33831022852
 30
0.0
 40
12.2941616766467
  1
exceed batten height)
  7
ARIAL
  0
ENDBLK
  5
541
  8
0
  0
BLOCK
  8
0
  2
*U30
 70
     1
 10
0.0
 20
0.0
 30
0.0
  3
*U30
  1

  0
SOLID
  5
543
  8
0
  6
CONTINUOUS
 10
-97.992596134563996
 20
275.4601171767124
 30
0.0
 11
-98.949304715476714
 21
275.26981600799058
 31
0.0
 12
-97.035887553651236
 22
275.26981600799058
 32
0.0
 13
-97.035887553651236
 23
275.26981600799058
 33
0.0
210
0.0
220
0.0
230
1.0
  0
SOLID
  5
544
  8
0
  6
CONTINUOUS
 10
-98.949304715476714
 20
275.26981600799058
 30
0.0
 11
-99.760363087530365
 21
274.72788412967873
 31
0.0
 12
-96.224829181597613
 22
274.72788412967873
 32
0.0
 13
-96.224829181597613
 23
274.72788412967873
 33
0.0
210
0.0
220
0.0
230
1.0
  0
SOLID
  5
545
  8
0
  6
CONTINUOUS
 10
98.949304715476714
 20
275.26981600799058
 30
0.0
 11
97.035887553651236
 21
275.26981600799058
 31
0.0
 12
96.224829181597613
 22
274.72788412967873
 32
0.0
 13
96.224829181597613
 23
274.72788412967873
 33
0.0
210
0.0
220
0.0
230
-1.0
  0
SOLID
  5
546
  8
0
  6
CONTINUOUS
 10
-99.760363087530365
 20
274.72788412967873
 30
0.0
 11
-100.30229496584219
 21
273.91682575762508
 31
0.0
 12
-95.682897303285756
 22
273.91682575762508
 32
0.0
 13
-95.682897303285756
 23
273.91682575762508
 33
0.0
210
0.0
220
0.0
230
1.0
  0
SOLID
  5
547
  8
0
  6
CONTINUOUS
 10
99.760363087530365
 20
274.72788412967873
 30
0.0
 11
96.224829181597613
 21
274.72788412967873
 31
0.0
 12
95.682897303285756
 22
273.91682575762508
 32
0.0
 13
95.682897303285756
 23
273.91682575762508
 33
0.0
210
0.0
220
0.0
230
-1.0
  0
SOLID
  5
548
  8
0
  6
CONTINUOUS
 10
-100.30229496584219
 20
273.91682575762508
 30
0.0
 11
-100.492596134564
 21
272.96011717671229
 31
0.0
 12
-95.492596134563968
 22
272.96011717671229
 32
0.0
 13
-95.492596134563968
 23
272.96011717671229
 33
0.0
210
0.0
220
0.0
230
1.0
  0
SOLID
  5
549
  8
0
  6
CONTINUOUS
 10
100.30229496584219
 20
273.91682575762508
 30
0.0
 11
95.682897303285756
 21
273.91682575762508
 31
0.0
 12
95.492596134563968
 22
272.96011717671229
 32
0.0
 13
95.492596134563968
 23
272.96011717671229
 33
0.0
210
0.0
220
0.0
230
-1.0
  0
SOLID
  5
54A
  8
0
  6
CONTINUOUS
 10
-100.492596134564
 20
272.96011717671229
 30
0.0
 11
-100.30229496584219
 21
272.00340859579961
 31
0.0
 12
-95.682897303285756
 22
272.00340859579961
 32
0.0
 13
-95.682897303285756
 23
272.00340859579961
 33
0.0
  0
SOLID
  5
54B
  8
0
  6
CONTINUOUS
 10
100.492596134564
 20
272.96011717671229
 30
0.0
 11
95.492596134563968
 21
272.96011717671229
 31
0.0
 12
95.682897303285756
 22
272.00340859579961
 32
0.0
 13
95.682897303285756
 23
272.00340859579961
 33
0.0
210
0.0
220
0.0
230
-1.0
  0
SOLID
  5
54C
  8
0
  6
CONTINUOUS
 10
-100.30229496584219
 20
272.00340859579961
 30
0.0
 11
-99.760363087530365
 21
271.19235022374602
 31
0.0
 12
-96.224829181597613
 22
271.19235022374602
 32
0.0
 13
-96.224829181597613
 23
271.19235022374602
 33
0.0
210
0.0
220
0.0
230
1.0
  0
SOLID
  5
54D
  8
0
  6
CONTINUOUS
 10
100.30229496584219
 20
272.00340859579961
 30
0.0
 11
95.682897303285756
 21
272.00340859579961
 31
0.0
 12
96.224829181597613
 22
271.19235022374602
 32
0.0
 13
96.224829181597613
 23
271.19235022374602
 33
0.0
210
0.0
220
0.0
230
-1.0
  0
SOLID
  5
54E
  8
0
  6
CONTINUOUS
 10
98.949304715476714
 20
270.6504183454341
 30
0.0
 11
97.035887553651236
 21
270.6504183454341
 31
0.0
 12
97.992596134563996
 22
270.46011717671229
 32
0.0
 13
97.992596134563996
 23
270.46011717671229
 33
0.0
210
0.0
220
0.0
230
-1.0
  0
SOLID
  5
54F
  8
0
  6
CONTINUOUS
 10
-99.760363087530365
 20
271.19235022374602
 30
0.0
 11
-98.949304715476714
 21
270.6504183454341
 31
0.0
 12
-97.035887553651236
 22
270.6504183454341
 32
0.0
 13
-97.035887553651236
 23
270.6504183454341
 33
0.0
210
0.0
220
0.0
230
1.0
  0
SOLID
  5
550
  8
0
  6
CONTINUOUS
 10
99.760363087530365
 20
271.19235022374602
 30
0.0
 11
96.224829181597613
 21
271.19235022374602
 31
0.0
 12
97.035887553651236
 22
270.6504183454341
 32
0.0
 13
97.035887553651236
 23
270.6504183454341
 33
0.0
210
0.0
220
0.0
230
-1.0
  0
LINE
  5
551
  8
0
  6
CONTINUOUS
 10
-97.992596134563996
 20
275.4601171767124
 30
0.0
 11
-98.949304715476714
 21
275.26981600799058
 31
0.0
  0
LINE
  5
552
  8
0
  6
CONTINUOUS
 10
-97.035887553651236
 20
275.26981600799058
 30
0.0
 11
-97.992596134563996
 21
275.4601171767124
 31
0.0
  0
LINE
  5
553
  8
0
  6
CONTINUOUS
 10
-98.949304715476714
 20
275.26981600799058
 30
0.0
 11
-99.760363087530365
 21
274.72788412967873
 31
0.0
  0
LINE
  5
554
  8
0
  6
CONTINUOUS
 10
-97.035887553651236
 20
275.26981600799058
 30
0.0
 11
-96.224829181597613
 21
274.72788412967873
 31
0.0
  0
LINE
  5
555
  8
0
  6
CONTINUOUS
 10
-99.760363087530365
 20
274.72788412967873
 30
0.0
 11
-100.30229496584219
 21
273.91682575762508
 31
0.0
  0
LINE
  5
556
  8
0
  6
CONTINUOUS
 10
-96.224829181597613
 20
274.72788412967873
 30
0.0
 11
-95.682897303285756
 21
273.91682575762508
 31
0.0
  0
LINE
  5
557
  8
0
  6
CONTINUOUS
 10
-100.30229496584219
 20
273.91682575762508
 30
0.0
 11
-100.492596134564
 21
272.96011717671229
 31
0.0
  0
LINE
  5
558
  8
0
  6
CONTINUOUS
 10
-95.682897303285756
 20
273.91682575762508
 30
0.0
 11
-95.492596134563968
 21
272.96011717671229
 31
0.0
  0
LINE
  5
559
  8
0
  6
CONTINUOUS
 10
-100.492596134564
 20
272.96011717671229
 30
0.0
 11
-100.30229496584219
 21
272.00340859579961
 31
0.0
  0
LINE
  5
55A
  8
0
  6
CONTINUOUS
 10
-95.492596134563968
 20
272.96011717671229
 30
0.0
 11
-95.682897303285756
 21
272.00340859579961
 31
0.0
  0
LINE
  5
55B
  8
0
  6
CONTINUOUS
 10
-100.30229496584219
 20
272.00340859579961
 30
0.0
 11
-99.760363087530365
 21
271.19235022374602
 31
0.0
  0
LINE
  5
55C
  8
0
  6
CONTINUOUS
 10
-95.682897303285756
 20
272.00340859579961
 30
0.0
 11
-96.224829181597613
 21
271.19235022374602
 31
0.0
  0
LINE
  5
55D
  8
0
  6
CONTINUOUS
 10
-97.035887553651236
 20
270.6504183454341
 30
0.0
 11
-97.992596134563996
 21
270.46011717671229
 31
0.0
  0
LINE
  5
55E
  8
0
  6
CONTINUOUS
 10
-97.992596134563996
 20
270.46011717671229
 30
0.0
 11
-98.949304715476714
 21
270.6504183454341
 31
0.0
  0
LINE
  5
55F
  8
0
  6
CONTINUOUS
 10
-99.760363087530365
 20
271.19235022374602
 30
0.0
 11
-98.949304715476714
 21
270.6504183454341
 31
0.0
  0
LINE
  5
560
  8
0
  6
CONTINUOUS
 10
-96.224829181597613
 20
271.19235022374602
 30
0.0
 11
-97.035887553651236
 21
270.6504183454341
 31
0.0
  0
ENDBLK
  5
562
  8
0
  0
BLOCK
  8
0
  2
*U31
 70
     1
 10
0.0
 20
0.0
 30
0.0
  3
*U31
  1

  0
TEXT
  5
564
  8
0
 10
-359.65238005004329
 20
451.2319822978917
 30
0.0
 40
12.2941616766467
  1
2" x 2"  Tile batten on 14 1/2"
  7
ARIAL
  0
TEXT
  5
565
  8
0
 10
-359.45111137320868
 20
432.00121306712248
 30
0.0
 40
12.2941616766467
  1
truss spacing's
  7
ARIAL
  0
ENDBLK
  5
567
  8
0
  0
BLOCK
  8
0
  2
*U32
 70
     1
 10
0.0
 20
0.0
 30
0.0
  3
*U32
  1

  0
SOLID
  5
569
  8
0
  6
CONTINUOUS
 10
-371.36066987241207
 20
-46.012598390300617
 30
0.0
 11
-372.31737845332481
 21
-46.202899559022391
 31
0.0
 12
-370.4039612914994
 22
-46.202899559022391
 32
0.0
 13
-370.4039612914994
 23
-46.202899559022391
 33
0.0
  0
SOLID
  5
56A
  8
0
  6
CONTINUOUS
 10
-372.31737845332481
 20
-46.202899559022391
 30
0.0
 11
-373.1284368253784
 21
-46.744831437334227
 31
0.0
 12
-369.59290291944569
 22
-46.744831437334227
 32
0.0
 13
-369.59290291944569
 23
-46.744831437334227
 33
0.0
210
0.0
220
0.0
230
1.0
  0
SOLID
  5
56B
  8
0
  6
CONTINUOUS
 10
372.31737845332481
 20
-46.202899559022391
 30
0.0
 11
370.4039612914994
 21
-46.202899559022391
 31
0.0
 12
369.59290291944569
 22
-46.744831437334227
 32
0.0
 13
369.59290291944569
 23
-46.744831437334227
 33
0.0
210
0.0
220
0.0
230
-1.0
  0
SOLID
  5
56C
  8
0
  6
CONTINUOUS
 10
-373.1284368253784
 20
-46.744831437334227
 30
0.0
 11
-373.67036870369031
 21
-47.55588980938785
 31
0.0
 12
-369.05097104113389
 22
-47.55588980938785
 32
0.0
 13
-369.05097104113389
 23
-47.55588980938785
 33
0.0
210
0.0
220
0.0
230
1.0
  0
SOLID
  5
56D
  8
0
  6
CONTINUOUS
 10
373.1284368253784
 20
-46.744831437334227
 30
0.0
 11
369.59290291944569
 21
-46.744831437334227
 31
0.0
 12
369.05097104113389
 22
-47.55588980938785
 32
0.0
 13
369.05097104113389
 23
-47.55588980938785
 33
0.0
210
0.0
220
0.0
230
-1.0
  0
SOLID
  5
56E
  8
0
  6
CONTINUOUS
 10
-373.67036870369031
 20
-47.55588980938785
 30
0.0
 11
-373.86066987241202
 21
-48.51259839030056
 31
0.0
 12
-368.86066987241207
 22
-48.51259839030056
 32
0.0
 13
-368.86066987241207
 23
-48.51259839030056
 33
0.0
210
0.0
220
0.0
230
1.0
  0
SOLID
  5
56F
  8
0
  6
CONTINUOUS
 10
373.67036870369031
 20
-47.55588980938785
 30
0.0
 11
369.05097104113389
 21
-47.55588980938785
 31
0.0
 12
368.86066987241207
 22
-48.51259839030056
 32
0.0
 13
368.86066987241207
 23
-48.51259839030056
 33
0.0
210
0.0
220
0.0
230
-1.0
  0
SOLID
  5
570
  8
0
  6
CONTINUOUS
 10
-373.86066987241202
 20
-48.51259839030056
 30
0.0
 11
-373.67036870369031
 21
-49.469306971213257
 31
0.0
 12
-369.05097104113389
 22
-49.469306971213257
 32
0.0
 13
-369.05097104113389
 23
-49.469306971213257
 33
0.0
210
0.0
220
0.0
230
1.0
  0
SOLID
  5
571
  8
0
  6
CONTINUOUS
 10
373.86066987241202
 20
-48.51259839030056
 30
0.0
 11
368.86066987241207
 21
-48.51259839030056
 31
0.0
 12
369.05097104113389
 22
-49.469306971213257
 32
0.0
 13
369.05097104113389
 23
-49.469306971213257
 33
0.0
210
0.0
220
0.0
230
-1.0
  0
SOLID
  5
572
  8
0
  6
CONTINUOUS
 10
-373.67036870369031
 20
-49.469306971213257
 30
0.0
 11
-373.1284368253784
 21
-50.28036534326688
 31
0.0
 12
-369.59290291944569
 22
-50.28036534326688
 32
0.0
 13
-369.59290291944569
 23
-50.28036534326688
 33
0.0
210
0.0
220
0.0
230
1.0
  0
SOLID
  5
573
  8
0
  6
CONTINUOUS
 10
373.67036870369031
 20
-49.469306971213257
 30
0.0
 11
369.05097104113389
 21
-49.469306971213257
 31
0.0
 12
369.59290291944569
 22
-50.28036534326688
 32
0.0
 13
369.59290291944569
 23
-50.28036534326688
 33
0.0
210
0.0
220
0.0
230
-1.0
  0
SOLID
  5
574
  8
0
  6
CONTINUOUS
 10
372.31737845332481
 20
-50.822297221578722
 30
0.0
 11
370.4039612914994
 21
-50.822297221578722
 31
0.0
 12
371.36066987241207
 22
-51.012598390300496
 32
0.0
 13
371.36066987241207
 23
-51.012598390300496
 33
0.0
210
0.0
220
0.0
230
-1.0
  0
SOLID
  5
575
  8
0
  6
CONTINUOUS
 10
-373.1284368253784
 20
-50.28036534326688
 30
0.0
 11
-372.31737845332481
 21
-50.822297221578722
 31
0.0
 12
-370.4039612914994
 22
-50.822297221578722
 32
0.0
 13
-370.4039612914994
 23
-50.822297221578722
 33
0.0
  0
SOLID
  5
576
  8
0
  6
CONTINUOUS
 10
373.1284368253784
 20
-50.28036534326688
 30
0.0
 11
369.59290291944569
 21
-50.28036534326688
 31
0.0
 12
370.4039612914994
 22
-50.822297221578722
 32
0.0
 13
370.4039612914994
 23
-50.822297221578722
 33
0.0
210
0.0
220
0.0
230
-1.0
  0
LINE
  5
577
  8
0
  6
CONTINUOUS
 10
-371.36066987241207
 20
-46.012598390300617
 30
0.0
 11
-372.31737845332481
 21
-46.202899559022391
 31
0.0
  0
LINE
  5
578
  8
0
  6
CONTINUOUS
 10
-370.4039612914994
 20
-46.202899559022391
 30
0.0
 11
-371.36066987241207
 21
-46.012598390300617
 31
0.0
  0
LINE
  5
579
  8
0
  6
CONTINUOUS
 10
-372.31737845332481
 20
-46.202899559022391
 30
0.0
 11
-373.1284368253784
 21
-46.744831437334227
 31
0.0
  0
LINE
  5
57A
  8
0
  6
CONTINUOUS
 10
-370.4039612914994
 20
-46.202899559022391
 30
0.0
 11
-369.59290291944569
 21
-46.744831437334227
 31
0.0
  0
LINE
  5
57B
  8
0
  6
CONTINUOUS
 10
-373.1284368253784
 20
-46.744831437334227
 30
0.0
 11
-373.67036870369031
 21
-47.55588980938785
 31
0.0
  0
LINE
  5
57C
  8
0
  6
CONTINUOUS
 10
-369.59290291944569
 20
-46.744831437334227
 30
0.0
 11
-369.05097104113389
 21
-47.55588980938785
 31
0.0
  0
LINE
  5
57D
  8
0
  6
CONTINUOUS
 10
-373.67036870369031
 20
-47.55588980938785
 30
0.0
 11
-373.86066987241202
 21
-48.51259839030056
 31
0.0
  0
LINE
  5
57E
  8
0
  6
CONTINUOUS
 10
-369.05097104113389
 20
-47.55588980938785
 30
0.0
 11
-368.86066987241207
 21
-48.51259839030056
 31
0.0
  0
LINE
  5
57F
  8
0
  6
CONTINUOUS
 10
-373.86066987241202
 20
-48.51259839030056
 30
0.0
 11
-373.67036870369031
 21
-49.469306971213257
 31
0.0
  0
LINE
  5
580
  8
0
  6
CONTINUOUS
 10
-368.86066987241207
 20
-48.51259839030056
 30
0.0
 11
-369.05097104113389
 21
-49.469306971213257
 31
0.0
  0
LINE
  5
581
  8
0
  6
CONTINUOUS
 10
-373.67036870369031
 20
-49.469306971213257
 30
0.0
 11
-373.1284368253784
 21
-50.28036534326688
 31
0.0
  0
LINE
  5
582
  8
0
  6
CONTINUOUS
 10
-369.05097104113389
 20
-49.469306971213257
 30
0.0
 11
-369.59290291944569
 21
-50.28036534326688
 31
0.0
  0
LINE
  5
583
  8
0
  6
CONTINUOUS
 10
-370.4039612914994
 20
-50.822297221578722
 30
0.0
 11
-371.36066987241207
 21
-51.012598390300496
 31
0.0
  0
LINE
  5
584
  8
0
  6
CONTINUOUS
 10
-371.36066987241207
 20
-51.012598390300496
 30
0.0
 11
-372.31737845332481
 21
-50.822297221578722
 31
0.0
  0
LINE
  5
585
  8
0
  6
CONTINUOUS
 10
-373.1284368253784
 20
-50.28036534326688
 30
0.0
 11
-372.31737845332481
 21
-50.822297221578722
 31
0.0
  0
LINE
  5
586
  8
0
  6
CONTINUOUS
 10
-369.59290291944569
 20
-50.28036534326688
 30
0.0
 11
-370.4039612914994
 21
-50.822297221578722
 31
0.0
  0
ENDBLK
  5
588
  8
0
  0
BLOCK
  8
0
  2
*U33
 70
     1
 10
0.0
 20
0.0
 30
0.0
  3
*U33
  1

  0
TEXT
  5
58A
  8
0
 10
-738.05284815605114
 20
-194.20189927478381
 30
0.0
 40
12.2941616766467
  1
Eaves soffit
  7
ARIAL
  0
ENDBLK
  5
58C
  8
0
  0
BLOCK
  8
0
  2
*U34
 70
     1
 10
0.0
 20
0.0
 30
0.0
  3
*U34
  1

  0
SOLID
  5
58E
  8
0
  6
CONTINUOUS
 10
-431.28179687252208
 20
-72.126038278913654
 30
0.0
 11
-432.23850545343493
 21
-72.316339447635443
 31
0.0
 12
-430.3250882916094
 22
-72.316339447635443
 32
0.0
 13
-430.3250882916094
 23
-72.316339447635443
 33
0.0
210
0.0
220
0.0
230
1.0
  0
SOLID
  5
58F
  8
0
  6
CONTINUOUS
 10
-432.23850545343493
 20
-72.316339447635443
 30
0.0
 11
-433.04956382548852
 21
-72.858271325947285
 31
0.0
 12
-429.51402991955581
 22
-72.858271325947285
 32
0.0
 13
-429.51402991955581
 23
-72.858271325947285
 33
0.0
210
0.0
220
0.0
230
1.0
  0
SOLID
  5
590
  8
0
  6
CONTINUOUS
 10
432.23850545343493
 20
-72.316339447635443
 30
0.0
 11
430.3250882916094
 21
-72.316339447635443
 31
0.0
 12
429.51402991955581
 22
-72.858271325947285
 32
0.0
 13
429.51402991955581
 23
-72.858271325947285
 33
0.0
210
0.0
220
0.0
230
-1.0
  0
SOLID
  5
591
  8
0
  6
CONTINUOUS
 10
-433.04956382548852
 20
-72.858271325947285
 30
0.0
 11
-433.59149570380038
 21
-73.669329698000936
 31
0.0
 12
-428.9720980412439
 22
-73.669329698000936
 32
0.0
 13
-428.9720980412439
 23
-73.669329698000936
 33
0.0
210
0.0
220
0.0
230
1.0
  0
SOLID
  5
592
  8
0
  6
CONTINUOUS
 10
433.04956382548852
 20
-72.858271325947285
 30
0.0
 11
429.51402991955581
 21
-72.858271325947285
 31
0.0
 12
428.9720980412439
 22
-73.669329698000936
 32
0.0
 13
428.9720980412439
 23
-73.669329698000936
 33
0.0
210
0.0
220
0.0
230
-1.0
  0
SOLID
  5
593
  8
0
  6
CONTINUOUS
 10
-433.59149570380038
 20
-73.669329698000936
 30
0.0
 11
-433.78179687252208
 21
-74.626038278913654
 31
0.0
 12
-428.78179687252208
 22
-74.626038278913654
 32
0.0
 13
-428.78179687252208
 23
-74.626038278913654
 33
0.0
210
0.0
220
0.0
230
1.0
  0
SOLID
  5
594
  8
0
  6
CONTINUOUS
 10
433.59149570380038
 20
-73.669329698000936
 30
0.0
 11
428.9720980412439
 21
-73.669329698000936
 31
0.0
 12
428.78179687252208
 22
-74.626038278913654
 32
0.0
 13
428.78179687252208
 23
-74.626038278913654
 33
0.0
210
0.0
220
0.0
230
-1.0
  0
SOLID
  5
595
  8
0
  6
CONTINUOUS
 10
-433.78179687252208
 20
-74.626038278913654
 30
0.0
 11
-433.59149570380038
 21
-75.582746859826372
 31
0.0
 12
-428.9720980412439
 22
-75.582746859826372
 32
0.0
 13
-428.9720980412439
 23
-75.582746859826372
 33
0.0
210
0.0
220
0.0
230
1.0
  0
SOLID
  5
596
  8
0
  6
CONTINUOUS
 10
433.78179687252208
 20
-74.626038278913654
 30
0.0
 11
428.78179687252208
 21
-74.626038278913654
 31
0.0
 12
428.9720980412439
 22
-75.582746859826372
 32
0.0
 13
428.9720980412439
 23
-75.582746859826372
 33
0.0
210
0.0
220
0.0
230
-1.0
  0
SOLID
  5
597
  8
0
  6
CONTINUOUS
 10
-433.59149570380038
 20
-75.582746859826372
 30
0.0
 11
-433.04956382548852
 21
-76.393805231880023
 31
0.0
 12
-429.51402991955581
 22
-76.393805231880023
 32
0.0
 13
-429.51402991955581
 23
-76.393805231880023
 33
0.0
210
0.0
220
0.0
230
1.0
  0
SOLID
  5
598
  8
0
  6
CONTINUOUS
 10
433.59149570380038
 20
-75.582746859826372
 30
0.0
 11
428.9720980412439
 21
-75.582746859826372
 31
0.0
 12
429.51402991955581
 22
-76.393805231880023
 32
0.0
 13
429.51402991955581
 23
-76.393805231880023
 33
0.0
210
0.0
220
0.0
230
-1.0
  0
SOLID
  5
599
  8
0
  6
CONTINUOUS
 10
432.23850545343493
 20
-76.935737110191866
 30
0.0
 11
430.3250882916094
 21
-76.935737110191866
 31
0.0
 12
431.28179687252208
 22
-77.126038278913654
 32
0.0
 13
431.28179687252208
 23
-77.126038278913654
 33
0.0
210
0.0
220
0.0
230
-1.0
  0
SOLID
  5
59A
  8
0
  6
CONTINUOUS
 10
-433.04956382548852
 20
-76.393805231880023
 30
0.0
 11
-432.23850545343493
 21
-76.935737110191866
 31
0.0
 12
-430.3250882916094
 22
-76.935737110191866
 32
0.0
 13
-430.3250882916094
 23
-76.935737110191866
 33
0.0
  0
SOLID
  5
59B
  8
0
  6
CONTINUOUS
 10
433.04956382548852
 20
-76.393805231880023
 30
0.0
 11
429.51402991955581
 21
-76.393805231880023
 31
0.0
 12
430.3250882916094
 22
-76.935737110191866
 32
0.0
 13
430.3250882916094
 23
-76.935737110191866
 33
0.0
210
0.0
220
0.0
230
-1.0
  0
LINE
  5
59C
  8
0
  6
CONTINUOUS
 10
-431.28179687252208
 20
-72.126038278913654
 30
0.0
 11
-432.23850545343493
 21
-72.316339447635443
 31
0.0
  0
LINE
  5
59D
  8
0
  6
CONTINUOUS
 10
-430.3250882916094
 20
-72.316339447635443
 30
0.0
 11
-431.28179687252208
 21
-72.126038278913654
 31
0.0
  0
LINE
  5
59E
  8
0
  6
CONTINUOUS
 10
-432.23850545343493
 20
-72.316339447635443
 30
0.0
 11
-433.04956382548852
 21
-72.858271325947285
 31
0.0
  0
LINE
  5
59F
  8
0
  6
CONTINUOUS
 10
-430.3250882916094
 20
-72.316339447635443
 30
0.0
 11
-429.51402991955581
 21
-72.858271325947285
 31
0.0
  0
LINE
  5
5A0
  8
0
  6
CONTINUOUS
 10
-433.04956382548852
 20
-72.858271325947285
 30
0.0
 11
-433.59149570380038
 21
-73.669329698000936
 31
0.0
  0
LINE
  5
5A1
  8
0
  6
CONTINUOUS
 10
-429.51402991955581
 20
-72.858271325947285
 30
0.0
 11
-428.9720980412439
 21
-73.669329698000936
 31
0.0
  0
LINE
  5
5A2
  8
0
  6
CONTINUOUS
 10
-433.59149570380038
 20
-73.669329698000936
 30
0.0
 11
-433.78179687252208
 21
-74.626038278913654
 31
0.0
  0
LINE
  5
5A3
  8
0
  6
CONTINUOUS
 10
-428.9720980412439
 20
-73.669329698000936
 30
0.0
 11
-428.78179687252208
 21
-74.626038278913654
 31
0.0
  0
LINE
  5
5A4
  8
0
  6
CONTINUOUS
 10
-433.78179687252208
 20
-74.626038278913654
 30
0.0
 11
-433.59149570380038
 21
-75.582746859826372
 31
0.0
  0
LINE
  5
5A5
  8
0
  6
CONTINUOUS
 10
-428.78179687252208
 20
-74.626038278913654
 30
0.0
 11
-428.9720980412439
 21
-75.582746859826372
 31
0.0
  0
LINE
  5
5A6
  8
0
  6
CONTINUOUS
 10
-433.59149570380038
 20
-75.582746859826372
 30
0.0
 11
-433.04956382548852
 21
-76.393805231880023
 31
0.0
  0
LINE
  5
5A7
  8
0
  6
CONTINUOUS
 10
-428.9720980412439
 20
-75.582746859826372
 30
0.0
 11
-429.51402991955581
 21
-76.393805231880023
 31
0.0
  0
LINE
  5
5A8
  8
0
  6
CONTINUOUS
 10
-430.3250882916094
 20
-76.935737110191866
 30
0.0
 11
-431.28179687252208
 21
-77.126038278913654
 31
0.0
  0
LINE
  5
5A9
  8
0
  6
CONTINUOUS
 10
-431.28179687252208
 20
-77.126038278913654
 30
0.0
 11
-432.23850545343493
 21
-76.935737110191866
 31
0.0
  0
LINE
  5
5AA
  8
0
  6
CONTINUOUS
 10
-433.04956382548852
 20
-76.393805231880023
 30
0.0
 11
-432.23850545343493
 21
-76.935737110191866
 31
0.0
  0
LINE
  5
5AB
  8
0
  6
CONTINUOUS
 10
-429.51402991955581
 20
-76.393805231880023
 30
0.0
 11
-430.3250882916094
 21
-76.935737110191866
 31
0.0
  0
ENDBLK
  5
5AD
  8
0
  0
BLOCK
  8
0
  2
*U35
 70
     1
 10
0.0
 20
0.0
 30
0.0
  3
*U35
  1

  0
TEXT
  5
5AF
  8
0
 10
-737.19745627950419
 20
-156.42526850340181
 30
0.0
 40
12.2941616766467
  1
2"x6" Flush with OSB
  7
ARIAL
  0
ENDBLK
  5
5B1
  8
0
  0
BLOCK
  8
0
  2
*U36
 70
     1
 10
0.0
 20
0.0
 30
0.0
  3
*U36
  1

  0
SOLID
  5
5B3
  8
0
  6
CONTINUOUS
 10
-442.10053408952308
 20
146.1776522961917
 30
0.0
 11
-443.0572426704357
 21
145.98735112746991
 31
0.0
 12
-441.1438255086104
 22
145.98735112746991
 32
0.0
 13
-441.1438255086104
 23
145.98735112746991
 33
0.0
  0
SOLID
  5
5B4
  8
0
  6
CONTINUOUS
 10
-443.0572426704357
 20
145.98735112746991
 30
0.0
 11
-443.86830104248941
 21
145.44541924915811
 31
0.0
 12
-440.33276713655681
 22
145.44541924915811
 32
0.0
 13
-440.33276713655681
 23
145.44541924915811
 33
0.0
210
0.0
220
0.0
230
1.0
  0
SOLID
  5
5B5
  8
0
  6
CONTINUOUS
 10
443.0572426704357
 20
145.98735112746991
 30
0.0
 11
441.1438255086104
 21
145.98735112746991
 31
0.0
 12
440.33276713655681
 22
145.44541924915811
 32
0.0
 13
440.33276713655681
 23
145.44541924915811
 33
0.0
210
0.0
220
0.0
230
-1.0
  0
SOLID
  5
5B6
  8
0
  6
CONTINUOUS
 10
-443.86830104248941
 20
145.44541924915811
 30
0.0
 11
-444.41023292080132
 21
144.63436087710451
 31
0.0
 12
-439.7908352582449
 22
144.63436087710451
 32
0.0
 13
-439.7908352582449
 23
144.63436087710451
 33
0.0
210
0.0
220
0.0
230
1.0
  0
SOLID
  5
5B7
  8
0
  6
CONTINUOUS
 10
443.86830104248941
 20
145.44541924915811
 30
0.0
 11
440.33276713655681
 21
145.44541924915811
 31
0.0
 12
439.7908352582449
 22
144.63436087710451
 32
0.0
 13
439.7908352582449
 23
144.63436087710451
 33
0.0
210
0.0
220
0.0
230
-1.0
  0
SOLID
  5
5B8
  8
0
  6
CONTINUOUS
 10
-444.41023292080132
 20
144.63436087710451
 30
0.0
 11
-444.60053408952302
 21
143.67765229619181
 31
0.0
 12
-439.60053408952308
 22
143.67765229619181
 32
0.0
 13
-439.60053408952308
 23
143.67765229619181
 33
0.0
210
0.0
220
0.0
230
1.0
  0
SOLID
  5
5B9
  8
0
  6
CONTINUOUS
 10
444.41023292080132
 20
144.63436087710451
 30
0.0
 11
439.7908352582449
 21
144.63436087710451
 31
0.0
 12
439.60053408952308
 22
143.67765229619181
 32
0.0
 13
439.60053408952308
 23
143.67765229619181
 33
0.0
210
0.0
220
0.0
230
-1.0
  0
SOLID
  5
5BA
  8
0
  6
CONTINUOUS
 10
-444.60053408952302
 20
143.67765229619181
 30
0.0
 11
-444.41023292080132
 21
142.72094371527911
 31
0.0
 12
-439.7908352582449
 22
142.72094371527911
 32
0.0
 13
-439.7908352582449
 23
142.72094371527911
 33
0.0
210
0.0
220
0.0
230
1.0
  0
SOLID
  5
5BB
  8
0
  6
CONTINUOUS
 10
444.60053408952302
 20
143.67765229619181
 30
0.0
 11
439.60053408952308
 21
143.67765229619181
 31
0.0
 12
439.7908352582449
 22
142.72094371527911
 32
0.0
 13
439.7908352582449
 23
142.72094371527911
 33
0.0
210
0.0
220
0.0
230
-1.0
  0
SOLID
  5
5BC
  8
0
  6
CONTINUOUS
 10
-444.41023292080132
 20
142.72094371527911
 30
0.0
 11
-443.86830104248941
 21
141.90988534322551
 31
0.0
 12
-440.33276713655681
 22
141.90988534322551
 32
0.0
 13
-440.33276713655681
 23
141.90988534322551
 33
0.0
210
0.0
220
0.0
230
1.0
  0
SOLID
  5
5BD
  8
0
  6
CONTINUOUS
 10
444.41023292080132
 20
142.72094371527911
 30
0.0
 11
439.7908352582449
 21
142.72094371527911
 31
0.0
 12
440.33276713655681
 22
141.90988534322551
 32
0.0
 13
440.33276713655681
 23
141.90988534322551
 33
0.0
210
0.0
220
0.0
230
-1.0
  0
SOLID
  5
5BE
  8
0
  6
CONTINUOUS
 10
443.0572426704357
 20
141.3679534649136
 30
0.0
 11
441.1438255086104
 21
141.3679534649136
 31
0.0
 12
442.10053408952308
 22
141.17765229619181
 32
0.0
 13
442.10053408952308
 23
141.17765229619181
 33
0.0
210
0.0
220
0.0
230
-1.0
  0
SOLID
  5
5BF
  8
0
  6
CONTINUOUS
 10
-443.86830104248941
 20
141.90988534322551
 30
0.0
 11
-443.0572426704357
 21
141.3679534649136
 31
0.0
 12
-441.1438255086104
 22
141.3679534649136
 32
0.0
 13
-441.1438255086104
 23
141.3679534649136
 33
0.0
210
0.0
220
0.0
230
1.0
  0
SOLID
  5
5C0
  8
0
  6
CONTINUOUS
 10
443.86830104248941
 20
141.90988534322551
 30
0.0
 11
440.33276713655681
 21
141.90988534322551
 31
0.0
 12
441.1438255086104
 22
141.3679534649136
 32
0.0
 13
441.1438255086104
 23
141.3679534649136
 33
0.0
210
0.0
220
0.0
230
-1.0
  0
LINE
  5
5C1
  8
0
  6
CONTINUOUS
 10
-442.10053408952308
 20
146.1776522961917
 30
0.0
 11
-443.0572426704357
 21
145.98735112746991
 31
0.0
  0
LINE
  5
5C2
  8
0
  6
CONTINUOUS
 10
-441.1438255086104
 20
145.98735112746991
 30
0.0
 11
-442.10053408952308
 21
146.1776522961917
 31
0.0
  0
LINE
  5
5C3
  8
0
  6
CONTINUOUS
 10
-443.0572426704357
 20
145.98735112746991
 30
0.0
 11
-443.86830104248941
 21
145.44541924915811
 31
0.0
  0
LINE
  5
5C4
  8
0
  6
CONTINUOUS
 10
-441.1438255086104
 20
145.98735112746991
 30
0.0
 11
-440.33276713655681
 21
145.44541924915811
 31
0.0
  0
LINE
  5
5C5
  8
0
  6
CONTINUOUS
 10
-443.86830104248941
 20
145.44541924915811
 30
0.0
 11
-444.41023292080132
 21
144.63436087710451
 31
0.0
  0
LINE
  5
5C6
  8
0
  6
CONTINUOUS
 10
-440.33276713655681
 20
145.44541924915811
 30
0.0
 11
-439.7908352582449
 21
144.63436087710451
 31
0.0
  0
LINE
  5
5C7
  8
0
  6
CONTINUOUS
 10
-444.41023292080132
 20
144.63436087710451
 30
0.0
 11
-444.60053408952302
 21
143.67765229619181
 31
0.0
  0
LINE
  5
5C8
  8
0
  6
CONTINUOUS
 10
-439.7908352582449
 20
144.63436087710451
 30
0.0
 11
-439.60053408952308
 21
143.67765229619181
 31
0.0
  0
LINE
  5
5C9
  8
0
  6
CONTINUOUS
 10
-444.60053408952302
 20
143.67765229619181
 30
0.0
 11
-444.41023292080132
 21
142.72094371527911
 31
0.0
  0
LINE
  5
5CA
  8
0
  6
CONTINUOUS
 10
-439.60053408952308
 20
143.67765229619181
 30
0.0
 11
-439.7908352582449
 21
142.72094371527911
 31
0.0
  0
LINE
  5
5CB
  8
0
  6
CONTINUOUS
 10
-444.41023292080132
 20
142.72094371527911
 30
0.0
 11
-443.86830104248941
 21
141.90988534322551
 31
0.0
  0
LINE
  5
5CC
  8
0
  6
CONTINUOUS
 10
-439.7908352582449
 20
142.72094371527911
 30
0.0
 11
-440.33276713655681
 21
141.90988534322551
 31
0.0
  0
LINE
  5
5CD
  8
0
  6
CONTINUOUS
 10
-441.1438255086104
 20
141.3679534649136
 30
0.0
 11
-442.10053408952308
 21
141.17765229619181
 31
0.0
  0
LINE
  5
5CE
  8
0
  6
CONTINUOUS
 10
-442.10053408952308
 20
141.17765229619181
 30
0.0
 11
-443.0572426704357
 21
141.3679534649136
 31
0.0
  0
LINE
  5
5CF
  8
0
  6
CONTINUOUS
 10
-443.86830104248941
 20
141.90988534322551
 30
0.0
 11
-443.0572426704357
 21
141.3679534649136
 31
0.0
  0
LINE
  5
5D0
  8
0
  6
CONTINUOUS
 10
-440.33276713655681
 20
141.90988534322551
 30
0.0
 11
-441.1438255086104
 21
141.3679534649136
 31
0.0
  0
ENDBLK
  5
5D2
  8
0
  0
BLOCK
  8
0
  2
*U37
 70
     1
 10
0.0
 20
0.0
 30
0.0
  3
*U37
  1

  0
TEXT
  5
5D4
  8
0
 10
-737.19745627950397
 20
261.62935749956262
 30
0.0
 40
12.2941616766467
  1
2x2 Batten flush with Fascia
  7
ARIAL
  0
ENDBLK
  5
5D6
  8
0
  0
BLOCK
  8
0
  2
*U38
 70
     1
 10
0.0
 20
0.0
 30
0.0
  3
*U38
  1

  0
SOLID
  5
5D8
  8
0
  6
CONTINUOUS
 10
-471.63321071726318
 20
127.821881516353
 30
0.0
 11
-472.5899192981758
 21
127.6315803476312
 31
0.0
 12
-470.67650213635051
 22
127.6315803476312
 32
0.0
 13
-470.67650213635051
 23
127.6315803476312
 33
0.0
210
0.0
220
0.0
230
1.0
  0
SOLID
  5
5D9
  8
0
  6
CONTINUOUS
 10
-472.5899192981758
 20
127.6315803476312
 30
0.0
 11
-473.40097767022939
 21
127.0896484693194
 31
0.0
 12
-469.8654437642968
 22
127.0896484693194
 32
0.0
 13
-469.8654437642968
 23
127.0896484693194
 33
0.0
210
0.0
220
0.0
230
1.0
  0
SOLID
  5
5DA
  8
0
  6
CONTINUOUS
 10
472.5899192981758
 20
127.6315803476312
 30
0.0
 11
470.67650213635051
 21
127.6315803476312
 31
0.0
 12
469.8654437642968
 22
127.0896484693194
 32
0.0
 13
469.8654437642968
 23
127.0896484693194
 33
0.0
210
0.0
220
0.0
230
-1.0
  0
SOLID
  5
5DB
  8
0
  6
CONTINUOUS
 10
-473.40097767022939
 20
127.0896484693194
 30
0.0
 11
-473.94290954854131
 21
126.27859009726571
 31
0.0
 12
-469.323511885985
 22
126.27859009726571
 32
0.0
 13
-469.323511885985
 23
126.27859009726571
 33
0.0
210
0.0
220
0.0
230
1.0
  0
SOLID
  5
5DC
  8
0
  6
CONTINUOUS
 10
473.40097767022939
 20
127.0896484693194
 30
0.0
 11
469.8654437642968
 21
127.0896484693194
 31
0.0
 12
469.323511885985
 22
126.27859009726571
 32
0.0
 13
469.323511885985
 23
126.27859009726571
 33
0.0
210
0.0
220
0.0
230
-1.0
  0
SOLID
  5
5DD
  8
0
  6
CONTINUOUS
 10
-473.94290954854131
 20
126.27859009726571
 30
0.0
 11
-474.13321071726313
 21
125.321881516353
 31
0.0
 12
-469.13321071726318
 22
125.321881516353
 32
0.0
 13
-469.13321071726318
 23
125.321881516353
 33
0.0
210
0.0
220
0.0
230
1.0
  0
SOLID
  5
5DE
  8
0
  6
CONTINUOUS
 10
473.94290954854131
 20
126.27859009726571
 30
0.0
 11
469.323511885985
 21
126.27859009726571
 31
0.0
 12
469.13321071726318
 22
125.321881516353
 32
0.0
 13
469.13321071726318
 23
125.321881516353
 33
0.0
210
0.0
220
0.0
230
-1.0
  0
SOLID
  5
5DF
  8
0
  6
CONTINUOUS
 10
-474.13321071726313
 20
125.321881516353
 30
0.0
 11
-473.94290954854131
 21
124.3651729354403
 31
0.0
 12
-469.323511885985
 22
124.3651729354403
 32
0.0
 13
-469.323511885985
 23
124.3651729354403
 33
0.0
210
0.0
220
0.0
230
1.0
  0
SOLID
  5
5E0
  8
0
  6
CONTINUOUS
 10
474.13321071726313
 20
125.321881516353
 30
0.0
 11
469.13321071726318
 21
125.321881516353
 31
0.0
 12
469.323511885985
 22
124.3651729354403
 32
0.0
 13
469.323511885985
 23
124.3651729354403
 33
0.0
210
0.0
220
0.0
230
-1.0
  0
SOLID
  5
5E1
  8
0
  6
CONTINUOUS
 10
-473.94290954854131
 20
124.3651729354403
 30
0.0
 11
-473.40097767022939
 21
123.5541145633867
 31
0.0
 12
-469.8654437642968
 22
123.5541145633867
 32
0.0
 13
-469.8654437642968
 23
123.5541145633867
 33
0.0
210
0.0
220
0.0
230
1.0
  0
SOLID
  5
5E2
  8
0
  6
CONTINUOUS
 10
473.94290954854131
 20
124.3651729354403
 30
0.0
 11
469.323511885985
 21
124.3651729354403
 31
0.0
 12
469.8654437642968
 22
123.5541145633867
 32
0.0
 13
469.8654437642968
 23
123.5541145633867
 33
0.0
210
0.0
220
0.0
230
-1.0
  0
SOLID
  5
5E3
  8
0
  6
CONTINUOUS
 10
472.5899192981758
 20
123.0121826850749
 30
0.0
 11
470.67650213635051
 21
123.0121826850749
 31
0.0
 12
471.63321071726318
 22
122.8218815163531
 32
0.0
 13
471.63321071726318
 23
122.8218815163531
 33
0.0
210
0.0
220
0.0
230
-1.0
  0
SOLID
  5
5E4
  8
0
  6
CONTINUOUS
 10
-473.40097767022939
 20
123.5541145633867
 30
0.0
 11
-472.5899192981758
 21
123.0121826850749
 31
0.0
 12
-470.67650213635051
 22
123.0121826850749
 32
0.0
 13
-470.67650213635051
 23
123.0121826850749
 33
0.0
  0
SOLID
  5
5E5
  8
0
  6
CONTINUOUS
 10
473.40097767022939
 20
123.5541145633867
 30
0.0
 11
469.8654437642968
 21
123.5541145633867
 31
0.0
 12
470.67650213635051
 22
123.0121826850749
 32
0.0
 13
470.67650213635051
 23
123.0121826850749
 33
0.0
210
0.0
220
0.0
230
-1.0
  0
LINE
  5
5E6
  8
0
  6
CONTINUOUS
 10
-471.63321071726318
 20
127.821881516353
 30
0.0
 11
-472.5899192981758
 21
127.6315803476312
 31
0.0
  0
LINE
  5
5E7
  8
0
  6
CONTINUOUS
 10
-470.67650213635051
 20
127.6315803476312
 30
0.0
 11
-471.63321071726318
 21
127.821881516353
 31
0.0
  0
LINE
  5
5E8
  8
0
  6
CONTINUOUS
 10
-472.5899192981758
 20
127.6315803476312
 30
0.0
 11
-473.40097767022939
 21
127.0896484693194
 31
0.0
  0
LINE
  5
5E9
  8
0
  6
CONTINUOUS
 10
-470.67650213635051
 20
127.6315803476312
 30
0.0
 11
-469.8654437642968
 21
127.0896484693194
 31
0.0
  0
LINE
  5
5EA
  8
0
  6
CONTINUOUS
 10
-473.40097767022939
 20
127.0896484693194
 30
0.0
 11
-473.94290954854131
 21
126.27859009726571
 31
0.0
  0
LINE
  5
5EB
  8
0
  6
CONTINUOUS
 10
-469.8654437642968
 20
127.0896484693194
 30
0.0
 11
-469.323511885985
 21
126.27859009726571
 31
0.0
  0
LINE
  5
5EC
  8
0
  6
CONTINUOUS
 10
-473.94290954854131
 20
126.27859009726571
 30
0.0
 11
-474.13321071726313
 21
125.321881516353
 31
0.0
  0
LINE
  5
5ED
  8
0
  6
CONTINUOUS
 10
-469.323511885985
 20
126.27859009726571
 30
0.0
 11
-469.13321071726318
 21
125.321881516353
 31
0.0
  0
LINE
  5
5EE
  8
0
  6
CONTINUOUS
 10
-474.13321071726313
 20
125.321881516353
 30
0.0
 11
-473.94290954854131
 21
124.3651729354403
 31
0.0
  0
LINE
  5
5EF
  8
0
  6
CONTINUOUS
 10
-469.13321071726318
 20
125.321881516353
 30
0.0
 11
-469.323511885985
 21
124.3651729354403
 31
0.0
  0
LINE
  5
5F0
  8
0
  6
CONTINUOUS
 10
-473.94290954854131
 20
124.3651729354403
 30
0.0
 11
-473.40097767022939
 21
123.5541145633867
 31
0.0
  0
LINE
  5
5F1
  8
0
  6
CONTINUOUS
 10
-469.323511885985
 20
124.3651729354403
 30
0.0
 11
-469.8654437642968
 21
123.5541145633867
 31
0.0
  0
LINE
  5
5F2
  8
0
  6
CONTINUOUS
 10
-470.67650213635051
 20
123.0121826850749
 30
0.0
 11
-471.63321071726318
 21
122.8218815163531
 31
0.0
  0
LINE
  5
5F3
  8
0
  6
CONTINUOUS
 10
-471.63321071726318
 20
122.8218815163531
 30
0.0
 11
-472.5899192981758
 21
123.0121826850749
 31
0.0
  0
LINE
  5
5F4
  8
0
  6
CONTINUOUS
 10
-473.40097767022939
 20
123.5541145633867
 30
0.0
 11
-472.5899192981758
 21
123.0121826850749
 31
0.0
  0
LINE
  5
5F5
  8
0
  6
CONTINUOUS
 10
-469.8654437642968
 20
123.5541145633867
 30
0.0
 11
-470.67650213635051
 21
123.0121826850749
 31
0.0
  0
ENDBLK
  5
5F7
  8
0
  0
BLOCK
  8
0
  2
*U39
 70
     1
 10
0.0
 20
0.0
 30
0.0
  3
*U39
  1

  0
TEXT
  5
5F9
  8
0
 10
-738.10316532525962
 20
119.6488045932761
 30
0.0
 40
12.2941616766467
  1
Fascia flashing
  7
ARIAL
  0
ENDBLK
  5
5FB
  8
0
  0
BLOCK
  8
0
  2
*U40
 70
     1
 10
0.0
 20
0.0
 30
0.0
  3
*U40
  1

  0
SOLID
  5
5FD
  8
0
  6
CONTINUOUS
 10
120.0654921590432
 20
349.39031666656382
 30
0.0
 11
119.1087835781305
 21
349.20001549784212
 31
0.0
 12
121.02220073995591
 22
349.20001549784212
 32
0.0
 13
121.02220073995591
 23
349.20001549784212
 33
0.0
  0
SOLID
  5
5FE
  8
0
  6
CONTINUOUS
 10
119.1087835781305
 20
349.20001549784212
 30
0.0
 11
118.2977252060769
 21
348.6580836195302
 31
0.0
 12
121.8332591120096
 22
348.6580836195302
 32
0.0
 13
121.8332591120096
 23
348.6580836195302
 33
0.0
210
0.0
220
0.0
230
1.0
  0
SOLID
  5
5FF
  8
0
  6
CONTINUOUS
 10
-119.1087835781305
 20
349.20001549784212
 30
0.0
 11
-121.02220073995591
 21
349.20001549784212
 31
0.0
 12
-121.8332591120096
 22
348.6580836195302
 32
0.0
 13
-121.8332591120096
 23
348.6580836195302
 33
0.0
210
0.0
220
0.0
230
-1.0
  0
SOLID
  5
600
  8
0
  6
CONTINUOUS
 10
118.2977252060769
 20
348.6580836195302
 30
0.0
 11
117.75579332776501
 21
347.84702524747661
 31
0.0
 12
122.3751909903214
 22
347.84702524747661
 32
0.0
 13
122.3751909903214
 23
347.84702524747661
 33
0.0
210
0.0
220
0.0
230
1.0
  0
SOLID
  5
601
  8
0
  6
CONTINUOUS
 10
-118.2977252060769
 20
348.6580836195302
 30
0.0
 11
-121.8332591120096
 21
348.6580836195302
 31
0.0
 12
-122.3751909903214
 22
347.84702524747661
 32
0.0
 13
-122.3751909903214
 23
347.84702524747661
 33
0.0
210
0.0
220
0.0
230
-1.0
  0
SOLID
  5
602
  8
0
  6
CONTINUOUS
 10
117.75579332776501
 20
347.84702524747661
 30
0.0
 11
117.5654921590432
 21
346.89031666656382
 31
0.0
 12
122.5654921590432
 22
346.89031666656382
 32
0.0
 13
122.5654921590432
 23
346.89031666656382
 33
0.0
210
0.0
220
0.0
230
1.0
  0
SOLID
  5
603
  8
0
  6
CONTINUOUS
 10
-117.75579332776501
 20
347.84702524747661
 30
0.0
 11
-122.3751909903214
 21
347.84702524747661
 31
0.0
 12
-122.5654921590432
 22
346.89031666656382
 32
0.0
 13
-122.5654921590432
 23
346.89031666656382
 33
0.0
210
0.0
220
0.0
230
-1.0
  0
SOLID
  5
604
  8
0
  6
CONTINUOUS
 10
117.5654921590432
 20
346.89031666656382
 30
0.0
 11
117.75579332776501
 21
345.93360808565109
 31
0.0
 12
122.3751909903214
 22
345.93360808565109
 32
0.0
 13
122.3751909903214
 23
345.93360808565109
 33
0.0
  0
SOLID
  5
605
  8
0
  6
CONTINUOUS
 10
-117.5654921590432
 20
346.89031666656382
 30
0.0
 11
-122.5654921590432
 21
346.89031666656382
 31
0.0
 12
-122.3751909903214
 22
345.93360808565109
 32
0.0
 13
-122.3751909903214
 23
345.93360808565109
 33
0.0
210
0.0
220
0.0
230
-1.0
  0
SOLID
  5
606
  8
0
  6
CONTINUOUS
 10
117.75579332776501
 20
345.93360808565109
 30
0.0
 11
118.2977252060769
 21
345.12254971359749
 31
0.0
 12
121.8332591120096
 22
345.12254971359749
 32
0.0
 13
121.8332591120096
 23
345.12254971359749
 33
0.0
210
0.0
220
0.0
230
1.0
  0
SOLID
  5
607
  8
0
  6
CONTINUOUS
 10
-117.75579332776501
 20
345.93360808565109
 30
0.0
 11
-122.3751909903214
 21
345.93360808565109
 31
0.0
 12
-121.8332591120096
 22
345.12254971359749
 32
0.0
 13
-121.8332591120096
 23
345.12254971359749
 33
0.0
210
0.0
220
0.0
230
-1.0
  0
SOLID
  5
608
  8
0
  6
CONTINUOUS
 10
-119.1087835781305
 20
344.58061783528558
 30
0.0
 11
-121.02220073995591
 21
344.58061783528558
 31
0.0
 12
-120.0654921590432
 22
344.39031666656382
 32
0.0
 13
-120.0654921590432
 23
344.39031666656382
 33
0.0
210
0.0
220
0.0
230
-1.0
  0
SOLID
  5
609
  8
0
  6
CONTINUOUS
 10
118.2977252060769
 20
345.12254971359749
 30
0.0
 11
119.1087835781305
 21
344.58061783528558
 31
0.0
 12
121.02220073995591
 22
344.58061783528558
 32
0.0
 13
121.02220073995591
 23
344.58061783528558
 33
0.0
210
0.0
220
0.0
230
1.0
  0
SOLID
  5
60A
  8
0
  6
CONTINUOUS
 10
-118.2977252060769
 20
345.12254971359749
 30
0.0
 11
-121.8332591120096
 21
345.12254971359749
 31
0.0
 12
-121.02220073995591
 22
344.58061783528558
 32
0.0
 13
-121.02220073995591
 23
344.58061783528558
 33
0.0
210
0.0
220
0.0
230
-1.0
  0
LINE
  5
60B
  8
0
  6
CONTINUOUS
 10
120.0654921590432
 20
349.39031666656382
 30
0.0
 11
119.1087835781305
 21
349.20001549784212
 31
0.0
  0
LINE
  5
60C
  8
0
  6
CONTINUOUS
 10
121.02220073995591
 20
349.20001549784212
 30
0.0
 11
120.0654921590432
 21
349.39031666656382
 31
0.0
  0
LINE
  5
60D
  8
0
  6
CONTINUOUS
 10
119.1087835781305
 20
349.20001549784212
 30
0.0
 11
118.2977252060769
 21
348.6580836195302
 31
0.0
  0
LINE
  5
60E
  8
0
  6
CONTINUOUS
 10
121.02220073995591
 20
349.20001549784212
 30
0.0
 11
121.8332591120096
 21
348.6580836195302
 31
0.0
  0
LINE
  5
60F
  8
0
  6
CONTINUOUS
 10
118.2977252060769
 20
348.6580836195302
 30
0.0
 11
117.75579332776501
 21
347.84702524747661
 31
0.0
  0
LINE
  5
610
  8
0
  6
CONTINUOUS
 10
121.8332591120096
 20
348.6580836195302
 30
0.0
 11
122.3751909903214
 21
347.84702524747661
 31
0.0
  0
LINE
  5
611
  8
0
  6
CONTINUOUS
 10
117.75579332776501
 20
347.84702524747661
 30
0.0
 11
117.5654921590432
 21
346.89031666656382
 31
0.0
  0
LINE
  5
612
  8
0
  6
CONTINUOUS
 10
122.3751909903214
 20
347.84702524747661
 30
0.0
 11
122.5654921590432
 21
346.89031666656382
 31
0.0
  0
LINE
  5
613
  8
0
  6
CONTINUOUS
 10
117.5654921590432
 20
346.89031666656382
 30
0.0
 11
117.75579332776501
 21
345.93360808565109
 31
0.0
  0
LINE
  5
614
  8
0
  6
CONTINUOUS
 10
122.5654921590432
 20
346.89031666656382
 30
0.0
 11
122.3751909903214
 21
345.93360808565109
 31
0.0
  0
LINE
  5
615
  8
0
  6
CONTINUOUS
 10
117.75579332776501
 20
345.93360808565109
 30
0.0
 11
118.2977252060769
 21
345.12254971359749
 31
0.0
  0
LINE
  5
616
  8
0
  6
CONTINUOUS
 10
122.3751909903214
 20
345.93360808565109
 30
0.0
 11
121.8332591120096
 21
345.12254971359749
 31
0.0
  0
LINE
  5
617
  8
0
  6
CONTINUOUS
 10
121.02220073995591
 20
344.58061783528558
 30
0.0
 11
120.0654921590432
 21
344.39031666656382
 31
0.0
  0
LINE
  5
618
  8
0
  6
CONTINUOUS
 10
120.0654921590432
 20
344.39031666656382
 30
0.0
 11
119.1087835781305
 21
344.58061783528558
 31
0.0
  0
LINE
  5
619
  8
0
  6
CONTINUOUS
 10
118.2977252060769
 20
345.12254971359749
 30
0.0
 11
119.1087835781305
 21
344.58061783528558
 31
0.0
  0
LINE
  5
61A
  8
0
  6
CONTINUOUS
 10
121.8332591120096
 20
345.12254971359749
 30
0.0
 11
121.02220073995591
 21
344.58061783528558
 31
0.0
  0
ENDBLK
  5
61C
  8
0
  0
BLOCK
  8
0
  2
*U41
 70
     1
 10
0.0
 20
0.0
 30
0.0
  3
*U41
  1

  0
TEXT
  5
61E
  8
0
 10
-70.221066237917555
 20
450.44937807693299
 30
0.0
 40
12.2941616766467
  1
Tilcor Antica Tile
  7
ARIAL
  0
ENDBLK
  5
620
  8
0
  0
BLOCK
  8
0
  2
*U42
 70
     1
 10
0.0
 20
0.0
 30
0.0
  3
*U42
  1

  0
SOLID
  5
622
  8
0
  6
CONTINUOUS
 10
-228.5238264457214
 20
149.977786183468
 30
0.0
 11
-229.48053502663419
 21
149.78748501474621
 31
0.0
 12
-227.56711786480869
 22
149.78748501474621
 32
0.0
 13
-227.56711786480869
 23
149.78748501474621
 33
0.0
210
0.0
220
0.0
230
1.0
  0
SOLID
  5
623
  8
0
  6
CONTINUOUS
 10
-229.48053502663419
 20
149.78748501474621
 30
0.0
 11
-230.29159339868781
 21
149.24555313643441
 31
0.0
 12
-226.7560594927551
 22
149.24555313643441
 32
0.0
 13
-226.7560594927551
 23
149.24555313643441
 33
0.0
210
0.0
220
0.0
230
1.0
  0
SOLID
  5
624
  8
0
  6
CONTINUOUS
 10
229.48053502663419
 20
149.78748501474621
 30
0.0
 11
227.56711786480869
 21
149.78748501474621
 31
0.0
 12
226.7560594927551
 22
149.24555313643441
 32
0.0
 13
226.7560594927551
 23
149.24555313643441
 33
0.0
210
0.0
220
0.0
230
-1.0
  0
SOLID
  5
625
  8
0
  6
CONTINUOUS
 10
-230.29159339868781
 20
149.24555313643441
 30
0.0
 11
-230.83352527699961
 21
148.4344947643807
 31
0.0
 12
-226.21412761444321
 22
148.4344947643807
 32
0.0
 13
-226.21412761444321
 23
148.4344947643807
 33
0.0
210
0.0
220
0.0
230
1.0
  0
SOLID
  5
626
  8
0
  6
CONTINUOUS
 10
230.29159339868781
 20
149.24555313643441
 30
0.0
 11
226.7560594927551
 21
149.24555313643441
 31
0.0
 12
226.21412761444321
 22
148.4344947643807
 32
0.0
 13
226.21412761444321
 23
148.4344947643807
 33
0.0
210
0.0
220
0.0
230
-1.0
  0
SOLID
  5
627
  8
0
  6
CONTINUOUS
 10
-230.83352527699961
 20
148.4344947643807
 30
0.0
 11
-231.02382644572151
 21
147.477786183468
 31
0.0
 12
-226.0238264457214
 22
147.477786183468
 32
0.0
 13
-226.0238264457214
 23
147.477786183468
 33
0.0
210
0.0
220
0.0
230
1.0
  0
SOLID
  5
628
  8
0
  6
CONTINUOUS
 10
230.83352527699961
 20
148.4344947643807
 30
0.0
 11
226.21412761444321
 21
148.4344947643807
 31
0.0
 12
226.0238264457214
 22
147.477786183468
 32
0.0
 13
226.0238264457214
 23
147.477786183468
 33
0.0
210
0.0
220
0.0
230
-1.0
  0
SOLID
  5
629
  8
0
  6
CONTINUOUS
 10
-231.02382644572151
 20
147.477786183468
 30
0.0
 11
-230.83352527699961
 21
146.52107760255529
 31
0.0
 12
-226.21412761444321
 22
146.52107760255529
 32
0.0
 13
-226.21412761444321
 23
146.52107760255529
 33
0.0
  0
SOLID
  5
62A
  8
0
  6
CONTINUOUS
 10
231.02382644572151
 20
147.477786183468
 30
0.0
 11
226.0238264457214
 21
147.477786183468
 31
0.0
 12
226.21412761444321
 22
146.52107760255529
 32
0.0
 13
226.21412761444321
 23
146.52107760255529
 33
0.0
210
0.0
220
0.0
230
-1.0
  0
SOLID
  5
62B
  8
0
  6
CONTINUOUS
 10
-230.83352527699961
 20
146.52107760255529
 30
0.0
 11
-230.29159339868781
 21
145.71001923050159
 31
0.0
 12
-226.7560594927551
 22
145.71001923050159
 32
0.0
 13
-226.7560594927551
 23
145.71001923050159
 33
0.0
210
0.0
220
0.0
230
1.0
  0
SOLID
  5
62C
  8
0
  6
CONTINUOUS
 10
230.83352527699961
 20
146.52107760255529
 30
0.0
 11
226.21412761444321
 21
146.52107760255529
 31
0.0
 12
226.7560594927551
 22
145.71001923050159
 32
0.0
 13
226.7560594927551
 23
145.71001923050159
 33
0.0
210
0.0
220
0.0
230
-1.0
  0
SOLID
  5
62D
  8
0
  6
CONTINUOUS
 10
229.48053502663419
 20
145.16808735218979
 30
0.0
 11
227.56711786480869
 21
145.16808735218979
 31
0.0
 12
228.5238264457214
 22
144.977786183468
 32
0.0
 13
228.5238264457214
 23
144.977786183468
 33
0.0
210
0.0
220
0.0
230
-1.0
  0
SOLID
  5
62E
  8
0
  6
CONTINUOUS
 10
-230.29159339868781
 20
145.71001923050159
 30
0.0
 11
-229.48053502663419
 21
145.16808735218979
 31
0.0
 12
-227.56711786480869
 22
145.16808735218979
 32
0.0
 13
-227.56711786480869
 23
145.16808735218979
 33
0.0
210
0.0
220
0.0
230
1.0
  0
SOLID
  5
62F
  8
0
  6
CONTINUOUS
 10
230.29159339868781
 20
145.71001923050159
 30
0.0
 11
226.7560594927551
 21
145.71001923050159
 31
0.0
 12
227.56711786480869
 22
145.16808735218979
 32
0.0
 13
227.56711786480869
 23
145.16808735218979
 33
0.0
210
0.0
220
0.0
230
-1.0
  0
LINE
  5
630
  8
0
  6
CONTINUOUS
 10
-228.5238264457214
 20
149.977786183468
 30
0.0
 11
-229.48053502663419
 21
149.78748501474621
 31
0.0
  0
LINE
  5
631
  8
0
  6
CONTINUOUS
 10
-227.56711786480869
 20
149.78748501474621
 30
0.0
 11
-228.5238264457214
 21
149.977786183468
 31
0.0
  0
LINE
  5
632
  8
0
  6
CONTINUOUS
 10
-229.48053502663419
 20
149.78748501474621
 30
0.0
 11
-230.29159339868781
 21
149.24555313643441
 31
0.0
  0
LINE
  5
633
  8
0
  6
CONTINUOUS
 10
-227.56711786480869
 20
149.78748501474621
 30
0.0
 11
-226.7560594927551
 21
149.24555313643441
 31
0.0
  0
LINE
  5
634
  8
0
  6
CONTINUOUS
 10
-230.29159339868781
 20
149.24555313643441
 30
0.0
 11
-230.83352527699961
 21
148.4344947643807
 31
0.0
  0
LINE
  5
635
  8
0
  6
CONTINUOUS
 10
-226.7560594927551
 20
149.24555313643441
 30
0.0
 11
-226.21412761444321
 21
148.4344947643807
 31
0.0
  0
LINE
  5
636
  8
0
  6
CONTINUOUS
 10
-230.83352527699961
 20
148.4344947643807
 30
0.0
 11
-231.02382644572151
 21
147.477786183468
 31
0.0
  0
LINE
  5
637
  8
0
  6
CONTINUOUS
 10
-226.21412761444321
 20
148.4344947643807
 30
0.0
 11
-226.0238264457214
 21
147.477786183468
 31
0.0
  0
LINE
  5
638
  8
0
  6
CONTINUOUS
 10
-231.02382644572151
 20
147.477786183468
 30
0.0
 11
-230.83352527699961
 21
146.52107760255529
 31
0.0
  0
LINE
  5
639
  8
0
  6
CONTINUOUS
 10
-226.0238264457214
 20
147.477786183468
 30
0.0
 11
-226.21412761444321
 21
146.52107760255529
 31
0.0
  0
LINE
  5
63A
  8
0
  6
CONTINUOUS
 10
-230.83352527699961
 20
146.52107760255529
 30
0.0
 11
-230.29159339868781
 21
145.71001923050159
 31
0.0
  0
LINE
  5
63B
  8
0
  6
CONTINUOUS
 10
-226.21412761444321
 20
146.52107760255529
 30
0.0
 11
-226.7560594927551
 21
145.71001923050159
 31
0.0
  0
LINE
  5
63C
  8
0
  6
CONTINUOUS
 10
-227.56711786480869
 20
145.16808735218979
 30
0.0
 11
-228.5238264457214
 21
144.977786183468
 31
0.0
  0
LINE
  5
63D
  8
0
  6
CONTINUOUS
 10
-228.5238264457214
 20
144.977786183468
 30
0.0
 11
-229.48053502663419
 21
145.16808735218979
 31
0.0
  0
LINE
  5
63E
  8
0
  6
CONTINUOUS
 10
-230.29159339868781
 20
145.71001923050159
 30
0.0
 11
-229.48053502663419
 21
145.16808735218979
 31
0.0
  0
LINE
  5
63F
  8
0
  6
CONTINUOUS
 10
-226.7560594927551
 20
145.71001923050159
 30
0.0
 11
-227.56711786480869
 21
145.16808735218979
 31
0.0
  0
ENDBLK
  5
641
  8
0
  0
BLOCK
  8
0
  2
*U43
 70
     1
 10
0.0
 20
0.0
 30
0.0
  3
*U43
  1

  0
TEXT
  5
643
  8
0
 10
-737.46581451528345
 20
-227.54730574910121
 30
0.0
 40
12.2941616766467
  1
Skip sheathing
  7
ARIAL
  0
ENDBLK
  5
645
  8
0
  0
BLOCK
  8
0
  2
*U44
 70
     1
 10
0.0
 20
0.0
 30
0.0
  3
*U44
  1

  0
SOLID
  5
647
  8
0
  6
CONTINUOUS
 10
-371.30225065802381
 20
130.7808057133243
 30
0.0
 11
-372.25895923893648
 21
130.59050454460251
 31
0.0
 12
-370.34554207711102
 22
130.59050454460251
 32
0.0
 13
-370.34554207711102
 23
130.59050454460251
 33
0.0
210
0.0
220
0.0
230
1.0
  0
SOLID
  5
648
  8
0
  6
CONTINUOUS
 10
-372.25895923893648
 20
130.59050454460251
 30
0.0
 11
-373.07001761099008
 21
130.04857266629071
 31
0.0
 12
-369.53448370505743
 22
130.04857266629071
 32
0.0
 13
-369.53448370505743
 23
130.04857266629071
 33
0.0
210
0.0
220
0.0
230
1.0
  0
SOLID
  5
649
  8
0
  6
CONTINUOUS
 10
372.25895923893648
 20
130.59050454460251
 30
0.0
 11
370.34554207711102
 21
130.59050454460251
 31
0.0
 12
369.53448370505743
 22
130.04857266629071
 32
0.0
 13
369.53448370505743
 23
130.04857266629071
 33
0.0
210
0.0
220
0.0
230
-1.0
  0
SOLID
  5
64A
  8
0
  6
CONTINUOUS
 10
-373.07001761099008
 20
130.04857266629071
 30
0.0
 11
-373.61194948930199
 21
129.237514294237
 31
0.0
 12
-368.99255182674551
 22
129.237514294237
 32
0.0
 13
-368.99255182674551
 23
129.237514294237
 33
0.0
210
0.0
220
0.0
230
1.0
  0
SOLID
  5
64B
  8
0
  6
CONTINUOUS
 10
373.07001761099008
 20
130.04857266629071
 30
0.0
 11
369.53448370505743
 21
130.04857266629071
 31
0.0
 12
368.99255182674551
 22
129.237514294237
 32
0.0
 13
368.99255182674551
 23
129.237514294237
 33
0.0
210
0.0
220
0.0
230
-1.0
  0
SOLID
  5
64C
  8
0
  6
CONTINUOUS
 10
-373.61194948930199
 20
129.237514294237
 30
0.0
 11
-373.80225065802381
 21
128.2808057133243
 31
0.0
 12
-368.80225065802369
 22
128.2808057133243
 32
0.0
 13
-368.80225065802369
 23
128.2808057133243
 33
0.0
210
0.0
220
0.0
230
1.0
  0
SOLID
  5
64D
  8
0
  6
CONTINUOUS
 10
373.61194948930199
 20
129.237514294237
 30
0.0
 11
368.99255182674551
 21
129.237514294237
 31
0.0
 12
368.80225065802369
 22
128.2808057133243
 32
0.0
 13
368.80225065802369
 23
128.2808057133243
 33
0.0
210
0.0
220
0.0
230
-1.0
  0
SOLID
  5
64E
  8
0
  6
CONTINUOUS
 10
-373.80225065802381
 20
128.2808057133243
 30
0.0
 11
-373.61194948930199
 21
127.3240971324115
 31
0.0
 12
-368.99255182674551
 22
127.3240971324115
 32
0.0
 13
-368.99255182674551
 23
127.3240971324115
 33
0.0
210
0.0
220
0.0
230
1.0
  0
SOLID
  5
64F
  8
0
  6
CONTINUOUS
 10
373.80225065802381
 20
128.2808057133243
 30
0.0
 11
368.80225065802369
 21
128.2808057133243
 31
0.0
 12
368.99255182674551
 22
127.3240971324115
 32
0.0
 13
368.99255182674551
 23
127.3240971324115
 33
0.0
210
0.0
220
0.0
230
-1.0
  0
SOLID
  5
650
  8
0
  6
CONTINUOUS
 10
-373.61194948930199
 20
127.3240971324115
 30
0.0
 11
-373.07001761099008
 21
126.5130387603579
 31
0.0
 12
-369.53448370505743
 22
126.5130387603579
 32
0.0
 13
-369.53448370505743
 23
126.5130387603579
 33
0.0
210
0.0
220
0.0
230
1.0
  0
SOLID
  5
651
  8
0
  6
CONTINUOUS
 10
373.61194948930199
 20
127.3240971324115
 30
0.0
 11
368.99255182674551
 21
127.3240971324115
 31
0.0
 12
369.53448370505743
 22
126.5130387603579
 32
0.0
 13
369.53448370505743
 23
126.5130387603579
 33
0.0
210
0.0
220
0.0
230
-1.0
  0
SOLID
  5
652
  8
0
  6
CONTINUOUS
 10
372.25895923893648
 20
125.9711068820461
 30
0.0
 11
370.34554207711102
 21
125.9711068820461
 31
0.0
 12
371.30225065802381
 22
125.7808057133243
 32
0.0
 13
371.30225065802381
 23
125.7808057133243
 33
0.0
210
0.0
220
0.0
230
-1.0
  0
SOLID
  5
653
  8
0
  6
CONTINUOUS
 10
-373.07001761099008
 20
126.5130387603579
 30
0.0
 11
-372.25895923893648
 21
125.9711068820461
 31
0.0
 12
-370.34554207711102
 22
125.9711068820461
 32
0.0
 13
-370.34554207711102
 23
125.9711068820461
 33
0.0
  0
SOLID
  5
654
  8
0
  6
CONTINUOUS
 10
373.07001761099008
 20
126.5130387603579
 30
0.0
 11
369.53448370505743
 21
126.5130387603579
 31
0.0
 12
370.34554207711102
 22
125.9711068820461
 32
0.0
 13
370.34554207711102
 23
125.9711068820461
 33
0.0
210
0.0
220
0.0
230
-1.0
  0
LINE
  5
655
  8
0
  6
CONTINUOUS
 10
-371.30225065802381
 20
130.7808057133243
 30
0.0
 11
-372.25895923893648
 21
130.59050454460251
 31
0.0
  0
LINE
  5
656
  8
0
  6
CONTINUOUS
 10
-370.34554207711102
 20
130.59050454460251
 30
0.0
 11
-371.30225065802381
 21
130.7808057133243
 31
0.0
  0
LINE
  5
657
  8
0
  6
CONTINUOUS
 10
-372.25895923893648
 20
130.59050454460251
 30
0.0
 11
-373.07001761099008
 21
130.04857266629071
 31
0.0
  0
LINE
  5
658
  8
0
  6
CONTINUOUS
 10
-370.34554207711102
 20
130.59050454460251
 30
0.0
 11
-369.53448370505743
 21
130.04857266629071
 31
0.0
  0
LINE
  5
659
  8
0
  6
CONTINUOUS
 10
-373.07001761099008
 20
130.04857266629071
 30
0.0
 11
-373.61194948930199
 21
129.237514294237
 31
0.0
  0
LINE
  5
65A
  8
0
  6
CONTINUOUS
 10
-369.53448370505743
 20
130.04857266629071
 30
0.0
 11
-368.99255182674551
 21
129.237514294237
 31
0.0
  0
LINE
  5
65B
  8
0
  6
CONTINUOUS
 10
-373.61194948930199
 20
129.237514294237
 30
0.0
 11
-373.80225065802381
 21
128.2808057133243
 31
0.0
  0
LINE
  5
65C
  8
0
  6
CONTINUOUS
 10
-368.99255182674551
 20
129.237514294237
 30
0.0
 11
-368.80225065802369
 21
128.2808057133243
 31
0.0
  0
LINE
  5
65D
  8
0
  6
CONTINUOUS
 10
-373.80225065802381
 20
128.2808057133243
 30
0.0
 11
-373.61194948930199
 21
127.3240971324115
 31
0.0
  0
LINE
  5
65E
  8
0
  6
CONTINUOUS
 10
-368.80225065802369
 20
128.2808057133243
 30
0.0
 11
-368.99255182674551
 21
127.3240971324115
 31
0.0
  0
LINE
  5
65F
  8
0
  6
CONTINUOUS
 10
-373.61194948930199
 20
127.3240971324115
 30
0.0
 11
-373.07001761099008
 21
126.5130387603579
 31
0.0
  0
LINE
  5
660
  8
0
  6
CONTINUOUS
 10
-368.99255182674551
 20
127.3240971324115
 30
0.0
 11
-369.53448370505743
 21
126.5130387603579
 31
0.0
  0
LINE
  5
661
  8
0
  6
CONTINUOUS
 10
-370.34554207711102
 20
125.9711068820461
 30
0.0
 11
-371.30225065802381
 21
125.7808057133243
 31
0.0
  0
LINE
  5
662
  8
0
  6
CONTINUOUS
 10
-371.30225065802381
 20
125.7808057133243
 30
0.0
 11
-372.25895923893648
 21
125.9711068820461
 31
0.0
  0
LINE
  5
663
  8
0
  6
CONTINUOUS
 10
-373.07001761099008
 20
126.5130387603579
 30
0.0
 11
-372.25895923893648
 21
125.9711068820461
 31
0.0
  0
LINE
  5
664
  8
0
  6
CONTINUOUS
 10
-369.53448370505743
 20
126.5130387603579
 30
0.0
 11
-370.34554207711102
 21
125.9711068820461
 31
0.0
  0
ENDBLK
  5
666
  8
0
  0
BLOCK
  8
0
  2
*U45
 70
     1
 10
0.0
 20
0.0
 30
0.0
  3
*U45
  1

  0
TEXT
  5
668
  8
0
 10
-738.56440604300565
 20
312.28946727763639
 30
0.0
 40
12.2941616766467
  1
1x4 counter batten
  7
ARIAL
  0
ENDBLK
  5
66A
  8
0
  0
BLOCK
  8
0
  2
*U46
 70
     1
 10
0.0
 20
0.0
 30
0.0
  3
*U46
  1

  0
SOLID
  5
676
  8
0
  6
CONTINUOUS
 10
179.95942074712599
 20
359.82630762534978
 30
0.0
 11
175.80858857707449
 21
358.8527293991948
 31
0.0
 12
180.18777364688489
 22
358.8527293991948
 32
0.0
 13
180.18777364688489
 23
358.8527293991948
 33
0.0
210
0.0
220
0.0
230
1.0
  0
SOLID
  5
677
  8
0
  6
CONTINUOUS
 10
175.80858857707449
 20
358.8527293991948
 30
0.0
 11
-141.3215927547343
 21
284.4698040598077
 31
0.0
 12
-136.94240768492369
 22
284.4698040598077
 32
0.0
 13
-136.94240768492369
 23
284.4698040598077
 33
0.0
210
0.0
220
0.0
230
1.0
  0
SOLID
  5
678
  8
0
  6
CONTINUOUS
 10
-175.80858857707449
 20
358.8527293991948
 30
0.0
 11
-180.18777364688489
 21
358.8527293991948
 31
0.0
 12
136.94240768492369
 22
284.4698040598077
 32
0.0
 13
136.94240768492369
 23
284.4698040598077
 33
0.0
210
0.0
220
0.0
230
-1.0
  0
SOLID
  5
679
  8
0
  6
CONTINUOUS
 10
-141.32159275473421
 20
284.4698040598077
 30
0.0
 11
-142.13409987595219
 21
284.16994649999123
 31
0.0
 12
-138.22084466336261
 22
284.16994649999123
 32
0.0
 13
-138.22084466336261
 23
284.16994649999123
 33
0.0
210
0.0
220
0.0
230
1.0
  0
SOLID
  5
67A
  8
0
  6
CONTINUOUS
 10
141.32159275473421
 20
284.4698040598077
 30
0.0
 11
136.94240768492369
 21
284.4698040598077
 31
0.0
 12
138.22084466336261
 22
284.16994649999123
 32
0.0
 13
138.22084466336261
 23
284.16994649999123
 33
0.0
210
0.0
220
0.0
230
-1.0
  0
SOLID
  5
67B
  8
0
  6
CONTINUOUS
 10
-142.13409987595219
 20
284.16994649999123
 30
0.0
 11
-142.84905501154361
 21
283.68033582735433
 31
0.0
 12
-140.30829041367241
 22
283.68033582735433
 32
0.0
 13
-140.30829041367241
 23
283.68033582735433
 33
0.0
210
0.0
220
0.0
230
1.0
  0
SOLID
  5
67C
  8
0
  6
CONTINUOUS
 10
142.13409987595219
 20
284.16994649999123
 30
0.0
 11
138.22084466336261
 21
284.16994649999123
 31
0.0
 12
140.30829041367241
 22
283.68033582735433
 32
0.0
 13
140.30829041367241
 23
283.68033582735433
 33
0.0
210
0.0
220
0.0
230
-1.0
  0
SOLID
  5
67D
  8
0
  6
CONTINUOUS
 10
-142.84905501154361
 20
283.68033582735433
 30
0.0
 11
-143.01139183079431
 21
283.49625776236769
 31
0.0
 12
-141.09310372750809
 22
283.49625776236769
 32
0.0
 13
-141.09310372750809
 23
283.49625776236769
 33
0.0
210
0.0
220
0.0
230
1.0
  0
SOLID
  5
67E
  8
0
  6
CONTINUOUS
 10
142.84905501154361
 20
283.68033582735433
 30
0.0
 11
140.30829041367241
 21
283.68033582735433
 31
0.0
 12
141.09310372750809
 22
283.49625776236769
 32
0.0
 13
141.09310372750809
 23
283.49625776236769
 33
0.0
210
0.0
220
0.0
230
-1.0
  0
SOLID
  5
67F
  8
0
  6
CONTINUOUS
 10
-143.01139183079431
 20
283.49625776236769
 30
0.0
 11
-143.20059164115159
 21
283.28171903266281
 31
0.0
 12
-141.67482741851649
 22
283.28171903266281
 32
0.0
 13
-141.67482741851649
 23
283.28171903266281
 33
0.0
210
0.0
220
0.0
230
1.0
  0
SOLID
  5
680
  8
0
  6
CONTINUOUS
 10
143.01139183079431
 20
283.49625776236769
 30
0.0
 11
141.09310372750809
 21
283.49625776236769
 31
0.0
 12
141.67482741851649
 22
283.28171903266281
 32
0.0
 13
141.67482741851649
 23
283.28171903266281
 33
0.0
210
0.0
220
0.0
230
-1.0
  0
SOLID
  5
681
  8
0
  6
CONTINUOUS
 10
-143.20059164115159
 20
283.28171903266281
 30
0.0
 11
-143.42297959105571
 21
283.02954738310342
 31
0.0
 12
-142.04333887263309
 22
283.02954738310342
 32
0.0
 13
-142.04333887263309
 23
283.02954738310342
 33
0.0
210
0.0
220
0.0
230
1.0
  0
SOLID
  5
682
  8
0
  6
CONTINUOUS
 10
143.20059164115159
 20
283.28171903266281
 30
0.0
 11
141.67482741851649
 21
283.28171903266281
 31
0.0
 12
142.04333887263309
 22
283.02954738310342
 32
0.0
 13
142.04333887263309
 23
283.02954738310342
 33
0.0
210
0.0
220
0.0
230
-1.0
  0
SOLID
  5
683
  8
0
  6
CONTINUOUS
 10
-143.42297959105571
 20
283.02954738310342
 30
0.0
 11
-143.4732506417846
 21
282.9314751784168
 31
0.0
 12
-142.1866568499735
 22
282.9314751784168
 32
0.0
 13
-142.1866568499735
 23
282.9314751784168
 33
0.0
210
0.0
220
0.0
230
1.0
  0
SOLID
  5
684
  8
0
  6
CONTINUOUS
 10
143.42297959105571
 20
283.02954738310342
 30
0.0
 11
142.04333887263309
 21
283.02954738310342
 31
0.0
 12
142.1866568499735
 22
282.9314751784168
 32
0.0
 13
142.1866568499735
 23
282.9314751784168
 33
0.0
210
0.0
220
0.0
230
-1.0
  0
SOLID
  5
685
  8
0
  6
CONTINUOUS
 10
-143.4732506417846
 20
282.9314751784168
 30
0.0
 11
-143.71163437242171
 21
282.46641988941758
 31
0.0
 12
-142.5966096261497
 22
282.46641988941758
 32
0.0
 13
-142.5966096261497
 23
282.46641988941758
 33
0.0
210
0.0
220
0.0
230
1.0
  0
SOLID
  5
686
  8
0
  6
CONTINUOUS
 10
143.4732506417846
 20
282.9314751784168
 30
0.0
 11
142.1866568499735
 21
282.9314751784168
 31
0.0
 12
142.5966096261497
 22
282.46641988941758
 32
0.0
 13
142.5966096261497
 23
282.46641988941758
 33
0.0
210
0.0
220
0.0
230
-1.0
  0
SOLID
  5
687
  8
0
  6
CONTINUOUS
 10
-143.71163437242171
 20
282.46641988941758
 30
0.0
 11
-143.8185582362521
 21
282.2578255014464
 31
0.0
 12
-142.70363754841009
 22
282.2578255014464
 32
0.0
 13
-142.70363754841009
 23
282.2578255014464
 33
0.0
210
0.0
220
0.0
230
1.0
  0
SOLID
  5
688
  8
0
  6
CONTINUOUS
 10
143.71163437242171
 20
282.46641988941758
 30
0.0
 11
142.5966096261497
 21
282.46641988941758
 31
0.0
 12
142.70363754841009
 22
282.2578255014464
 32
0.0
 13
142.70363754841009
 23
282.2578255014464
 33
0.0
210
0.0
220
0.0
230
-1.0
  0
SOLID
  5
689
  8
0
  6
CONTINUOUS
 10
-143.8185582362521
 20
282.2578255014464
 30
0.0
 11
-143.8973287629978
 21
281.91588029920757
 31
0.0
 12
-142.87908658555111
 22
281.91588029920757
 32
0.0
 13
-142.87908658555111
 23
281.91588029920757
 33
0.0
  0
SOLID
  5
68A
  8
0
  6
CONTINUOUS
 10
143.8185582362521
 20
282.2578255014464
 30
0.0
 11
142.70363754841009
 21
282.2578255014464
 31
0.0
 12
142.87908658555111
 22
281.91588029920757
 32
0.0
 13
142.87908658555111
 23
281.91588029920757
 33
0.0
210
0.0
220
0.0
230
-1.0
  0
SOLID
  5
68B
  8
0
  6
CONTINUOUS
 10
-143.8973287629978
 20
281.91588029920757
 30
0.0
 11
-144.01278599464769
 21
281.41467701851991
 31
0.0
 12
-142.99441918753899
 22
281.41467701851991
 32
0.0
 13
-142.99441918753899
 23
281.41467701851991
 33
0.0
210
0.0
220
0.0
230
1.0
  0
SOLID
  5
68C
  8
0
  6
CONTINUOUS
 10
143.8973287629978
 20
281.91588029920757
 30
0.0
 11
142.87908658555111
 21
281.91588029920757
 31
0.0
 12
142.99441918753899
 22
281.41467701851991
 32
0.0
 13
142.99441918753899
 23
281.41467701851991
 33
0.0
210
0.0
220
0.0
230
-1.0
  0
SOLID
  5
68D
  8
0
  6
CONTINUOUS
 10
-144.01278599464769
 20
281.41467701851991
 30
0.0
 11
-144.01069600179949
 21
281.3116625038499
 31
0.0
 12
-143.018124004481
 22
281.3116625038499
 32
0.0
 13
-143.018124004481
 23
281.3116625038499
 33
0.0
210
0.0
220
0.0
230
1.0
  0
SOLID
  5
68E
  8
0
  6
CONTINUOUS
 10
144.01278599464769
 20
281.41467701851991
 30
0.0
 11
142.99441918753899
 21
281.41467701851991
 31
0.0
 12
143.018124004481
 22
281.3116625038499
 32
0.0
 13
143.018124004481
 23
281.3116625038499
 33
0.0
210
0.0
220
0.0
230
-1.0
  0
SOLID
  5
68F
  8
0
  6
CONTINUOUS
 10
-144.01069600179949
 20
281.3116625038499
 30
0.0
 11
-143.99813101347081
 21
280.69234164079933
 31
0.0
 12
-143.00546134025001
 22
280.69234164079933
 32
0.0
 13
-143.00546134025001
 23
280.69234164079933
 33
0.0
210
0.0
220
0.0
230
1.0
  0
SOLID
  5
690
  8
0
  6
CONTINUOUS
 10
144.01069600179949
 20
281.3116625038499
 30
0.0
 11
143.018124004481
 21
281.3116625038499
 31
0.0
 12
143.00546134025001
 22
280.69234164079933
 32
0.0
 13
143.00546134025001
 23
280.69234164079933
 33
0.0
210
0.0
220
0.0
230
-1.0
  0
SOLID
  5
691
  8
0
  6
CONTINUOUS
 10
-143.99813101347081
 20
280.69234164079933
 30
0.0
 11
-143.99523726728859
 21
280.54971059840341
 31
0.0
 12
-142.98490758286849
 22
280.54971059840341
 32
0.0
 13
-142.98490758286849
 23
280.54971059840341
 33
0.0
  0
SOLID
  5
692
  8
0
  6
CONTINUOUS
 10
143.99813101347081
 20
280.69234164079933
 30
0.0
 11
143.00546134025001
 21
280.69234164079933
 31
0.0
 12
142.98490758286849
 22
280.54971059840341
 32
0.0
 13
142.98490758286849
 23
280.54971059840341
 33
0.0
210
0.0
220
0.0
230
-1.0
  0
SOLID
  5
693
  8
0
  6
CONTINUOUS
 10
-143.99523726728859
 20
280.54971059840341
 30
0.0
 11
-140.9149113086246
 21
259.17405191718098
 31
0.0
 12
-139.9045816242047
 22
259.17405191718098
 32
0.0
 13
-139.9045816242047
 23
259.17405191718098
 33
0.0
210
0.0
220
0.0
230
1.0
  0
SOLID
  5
694
  8
0
  6
CONTINUOUS
 10
143.99523726728859
 20
280.54971059840341
 30
0.0
 11
142.98490758286849
 21
280.54971059840341
 31
0.0
 12
139.9045816242047
 22
259.17405191718098
 32
0.0
 13
139.9045816242047
 23
259.17405191718098
 33
0.0
210
0.0
220
0.0
230
-1.0
  0
SOLID
  5
695
  8
0
  6
CONTINUOUS
 10
-140.9149113086246
 20
259.17405191718098
 30
0.0
 11
-140.92379066236111
 21
259.13451337757778
 31
0.0
 12
-139.89888394762201
 22
259.13451337757778
 32
0.0
 13
-139.89888394762201
 23
259.13451337757778
 33
0.0
210
0.0
220
0.0
230
1.0
  0
SOLID
  5
696
  8
0
  6
CONTINUOUS
 10
140.9149113086246
 20
259.17405191718098
 30
0.0
 11
139.9045816242047
 21
259.17405191718098
 31
0.0
 12
139.89888394762201
 22
259.13451337757778
 32
0.0
 13
139.89888394762201
 23
259.13451337757778
 33
0.0
210
0.0
220
0.0
230
-1.0
  0
SOLID
  5
697
  8
0
  6
CONTINUOUS
 10
141.63942232887879
 20
255.94790410085611
 30
0.0
 11
140.61451561413961
 21
255.94790410085611
 31
0.0
 12
140.7537816106346
 22
255.32777179379599
 32
0.0
 13
140.7537816106346
 23
255.32777179379599
 33
0.0
210
0.0
220
0.0
230
-1.0
  0
SOLID
  5
698
  8
0
  6
CONTINUOUS
 10
-140.92379066236111
 20
259.13451337757778
 30
0.0
 11
-141.63942232887879
 21
255.94790410085611
 31
0.0
 12
-140.61451561413961
 22
255.94790410085611
 32
0.0
 13
-140.61451561413961
 23
255.94790410085611
 33
0.0
210
0.0
220
0.0
230
1.0
  0
SOLID
  5
699
  8
0
  6
CONTINUOUS
 10
140.92379066236111
 20
259.13451337757778
 30
0.0
 11
139.89888394762201
 21
259.13451337757778
 31
0.0
 12
140.61451561413961
 22
255.94790410085611
 32
0.0
 13
140.61451561413961
 23
255.94790410085611
 33
0.0
210
0.0
220
0.0
230
-1.0
  0
LINE
  5
69A
  8
0
  6
CONTINUOUS
 10
179.95942074712599
 20
359.82630762534978
 30
0.0
 11
175.80858857707449
 21
358.8527293991948
 31
0.0
  0
LINE
  5
69B
  8
0
  6
CONTINUOUS
 10
180.18777364688489
 20
358.8527293991948
 30
0.0
 11
179.95942074712599
 21
359.82630762534978
 31
0.0
  0
LINE
  5
69C
  8
0
  6
CONTINUOUS
 10
175.80858857707449
 20
358.8527293991948
 30
0.0
 11
-141.3215927547343
 21
284.4698040598077
 31
0.0
  0
LINE
  5
69D
  8
0
  6
CONTINUOUS
 10
180.18777364688489
 20
358.8527293991948
 30
0.0
 11
-136.94240768492369
 21
284.4698040598077
 31
0.0
  0
LINE
  5
69E
  8
0
  6
CONTINUOUS
 10
-141.32159275473421
 20
284.4698040598077
 30
0.0
 11
-142.13409987595219
 21
284.16994649999123
 31
0.0
  0
LINE
  5
69F
  8
0
  6
CONTINUOUS
 10
-136.94240768492369
 20
284.4698040598077
 30
0.0
 11
-138.22084466336261
 21
284.16994649999123
 31
0.0
  0
LINE
  5
6A0
  8
0
  6
CONTINUOUS
 10
-142.13409987595219
 20
284.16994649999123
 30
0.0
 11
-142.84905501154361
 21
283.68033582735433
 31
0.0
  0
LINE
  5
6A1
  8
0
  6
CONTINUOUS
 10
-138.22084466336261
 20
284.16994649999123
 30
0.0
 11
-140.30829041367241
 21
283.68033582735433
 31
0.0
  0
LINE
  5
6A2
  8
0
  6
CONTINUOUS
 10
-142.84905501154361
 20
283.68033582735433
 30
0.0
 11
-143.01139183079431
 21
283.49625776236769
 31
0.0
  0
LINE
  5
6A3
  8
0
  6
CONTINUOUS
 10
-140.30829041367241
 20
283.68033582735433
 30
0.0
 11
-141.09310372750809
 21
283.49625776236769
 31
0.0
  0
LINE
  5
6A4
  8
0
  6
CONTINUOUS
 10
-143.01139183079431
 20
283.49625776236769
 30
0.0
 11
-143.20059164115159
 21
283.28171903266281
 31
0.0
  0
LINE
  5
6A5
  8
0
  6
CONTINUOUS
 10
-141.09310372750809
 20
283.49625776236769
 30
0.0
 11
-141.67482741851649
 21
283.28171903266281
 31
0.0
  0
LINE
  5
6A6
  8
0
  6
CONTINUOUS
 10
-143.20059164115159
 20
283.28171903266281
 30
0.0
 11
-143.42297959105571
 21
283.02954738310342
 31
0.0
  0
LINE
  5
6A7
  8
0
  6
CONTINUOUS
 10
-141.67482741851649
 20
283.28171903266281
 30
0.0
 11
-142.04333887263309
 21
283.02954738310342
 31
0.0
  0
LINE
  5
6A8
  8
0
  6
CONTINUOUS
 10
-143.42297959105571
 20
283.02954738310342
 30
0.0
 11
-143.4732506417846
 21
282.9314751784168
 31
0.0
  0
LINE
  5
6A9
  8
0
  6
CONTINUOUS
 10
-142.04333887263309
 20
283.02954738310342
 30
0.0
 11
-142.1866568499735
 21
282.9314751784168
 31
0.0
  0
LINE
  5
6AA
  8
0
  6
CONTINUOUS
 10
-143.4732506417846
 20
282.9314751784168
 30
0.0
 11
-143.71163437242171
 21
282.46641988941758
 31
0.0
  0
LINE
  5
6AB
  8
0
  6
CONTINUOUS
 10
-142.1866568499735
 20
282.9314751784168
 30
0.0
 11
-142.5966096261497
 21
282.46641988941758
 31
0.0
  0
LINE
  5
6AC
  8
0
  6
CONTINUOUS
 10
-143.71163437242171
 20
282.46641988941758
 30
0.0
 11
-143.8185582362521
 21
282.2578255014464
 31
0.0
  0
LINE
  5
6AD
  8
0
  6
CONTINUOUS
 10
-142.5966096261497
 20
282.46641988941758
 30
0.0
 11
-142.70363754841009
 21
282.2578255014464
 31
0.0
  0
LINE
  5
6AE
  8
0
  6
CONTINUOUS
 10
-143.8185582362521
 20
282.2578255014464
 30
0.0
 11
-143.8973287629978
 21
281.91588029920757
 31
0.0
  0
LINE
  5
6AF
  8
0
  6
CONTINUOUS
 10
-142.70363754841009
 20
282.2578255014464
 30
0.0
 11
-142.87908658555111
 21
281.91588029920757
 31
0.0
  0
LINE
  5
6B0
  8
0
  6
CONTINUOUS
 10
-143.8973287629978
 20
281.91588029920757
 30
0.0
 11
-144.01278599464769
 21
281.41467701851991
 31
0.0
  0
LINE
  5
6B1
  8
0
  6
CONTINUOUS
 10
-142.87908658555111
 20
281.91588029920757
 30
0.0
 11
-142.99441918753899
 21
281.41467701851991
 31
0.0
  0
LINE
  5
6B2
  8
0
  6
CONTINUOUS
 10
-144.01278599464769
 20
281.41467701851991
 30
0.0
 11
-144.01069600179949
 21
281.3116625038499
 31
0.0
  0
LINE
  5
6B3
  8
0
  6
CONTINUOUS
 10
-142.99441918753899
 20
281.41467701851991
 30
0.0
 11
-143.018124004481
 21
281.3116625038499
 31
0.0
  0
LINE
  5
6B4
  8
0
  6
CONTINUOUS
 10
-144.01069600179949
 20
281.3116625038499
 30
0.0
 11
-143.99813101347081
 21
280.69234164079933
 31
0.0
  0
LINE
  5
6B5
  8
0
  6
CONTINUOUS
 10
-143.018124004481
 20
281.3116625038499
 30
0.0
 11
-143.00546134025001
 21
280.69234164079933
 31
0.0
  0
LINE
  5
6B6
  8
0
  6
CONTINUOUS
 10
-143.99813101347081
 20
280.69234164079933
 30
0.0
 11
-143.99523726728859
 21
280.54971059840341
 31
0.0
  0
LINE
  5
6B7
  8
0
  6
CONTINUOUS
 10
-143.00546134025001
 20
280.69234164079933
 30
0.0
 11
-142.98490758286849
 21
280.54971059840341
 31
0.0
  0
LINE
  5
6B8
  8
0
  6
CONTINUOUS
 10
-143.99523726728859
 20
280.54971059840341
 30
0.0
 11
-140.9149113086246
 21
259.17405191718098
 31
0.0
  0
LINE
  5
6B9
  8
0
  6
CONTINUOUS
 10
-142.98490758286849
 20
280.54971059840341
 30
0.0
 11
-139.9045816242047
 21
259.17405191718098
 31
0.0
  0
LINE
  5
6BA
  8
0
  6
CONTINUOUS
 10
-140.9149113086246
 20
259.17405191718098
 30
0.0
 11
-140.92379066236111
 21
259.13451337757778
 31
0.0
  0
LINE
  5
6BB
  8
0
  6
CONTINUOUS
 10
-139.9045816242047
 20
259.17405191718098
 30
0.0
 11
-139.89888394762201
 21
259.13451337757778
 31
0.0
  0
LINE
  5
6BC
  8
0
  6
CONTINUOUS
 10
-140.61451561413961
 20
255.94790410085611
 30
0.0
 11
-140.7537816106346
 21
255.32777179379599
 31
0.0
  0
LINE
  5
6BD
  8
0
  6
CONTINUOUS
 10
-140.7537816106346
 20
255.32777179379599
 30
0.0
 11
-141.63942232887879
 21
255.94790410085611
 31
0.0
  0
LINE
  5
6BE
  8
0
  6
CONTINUOUS
 10
-140.92379066236111
 20
259.13451337757778
 30
0.0
 11
-141.63942232887879
 21
255.94790410085611
 31
0.0
  0
LINE
  5
6BF
  8
0
  6
CONTINUOUS
 10
-139.89888394762201
 20
259.13451337757778
 30
0.0
 11
-140.61451561413961
 21
255.94790410085611
 31
0.0
  0
ENDBLK
  5
6C1
  8
0
  0
BLOCK
  8
0
  2
*U47
 70
     1
 10
0.0
 20
0.0
 30
0.0
  3
*U47
  1

  0
SOLID
  5
6C3
  8
0
  6
CONTINUOUS
 10
-106.4894632585199
 20
287.5267207248902
 30
0.0
 11
-110.6402962395223
 21
286.5531423085327
 31
0.0
 12
-106.2611103141486
 22
286.5531423085327
 32
0.0
 13
-106.2611103141486
 23
286.5531423085327
 33
0.0
210
0.0
220
0.0
230
1.0
  0
SOLID
  5
6C4
  8
0
  6
CONTINUOUS
 10
-110.6402962395223
 20
286.5531423085327
 30
0.0
 11
-136.0023665204738
 21
280.60446542061999
 31
0.0
 12
-131.62318059488089
 22
280.60446542061999
 32
0.0
 13
-131.62318059488089
 23
280.60446542061999
 33
0.0
210
0.0
220
0.0
230
1.0
  0
SOLID
  5
6C5
  8
0
  6
CONTINUOUS
 10
110.6402962395223
 20
286.5531423085327
 30
0.0
 11
106.2611103141486
 21
286.5531423085327
 31
0.0
 12
131.62318059488089
 22
280.60446542061999
 32
0.0
 13
131.62318059488089
 23
280.60446542061999
 33
0.0
210
0.0
220
0.0
230
-1.0
  0
SOLID
  5
6C6
  8
0
  6
CONTINUOUS
 10
-136.0023665204738
 20
280.60446542061999
 30
0.0
 11
-136.69261471188841
 21
280.34885109357822
 31
0.0
 12
-132.71298739551079
 22
280.34885109357822
 32
0.0
 13
-132.71298739551079
 23
280.34885109357822
 33
0.0
  0
SOLID
  5
6C7
  8
0
  6
CONTINUOUS
 10
136.0023665204738
 20
280.60446542061999
 30
0.0
 11
131.62318059488089
 21
280.60446542061999
 31
0.0
 12
132.71298739551079
 22
280.34885109357822
 32
0.0
 13
132.71298739551079
 23
280.34885109357822
 33
0.0
210
0.0
220
0.0
230
-1.0
  0
SOLID
  5
6C8
  8
0
  6
CONTINUOUS
 10
-136.69261471188841
 20
280.34885109357822
 30
0.0
 11
-137.2998653897985
 21
279.93128411865888
 31
0.0
 12
-134.4932762167671
 22
279.93128411865888
 32
0.0
 13
-134.4932762167671
 23
279.93128411865888
 33
0.0
  0
SOLID
  5
6C9
  8
0
  6
CONTINUOUS
 10
136.69261471188841
 20
280.34885109357822
 30
0.0
 11
132.71298739551079
 21
280.34885109357822
 31
0.0
 12
134.4932762167671
 22
279.93128411865888
 32
0.0
 13
134.4932762167671
 23
279.93128411865888
 33
0.0
210
0.0
220
0.0
230
-1.0
  0
SOLID
  5
6CA
  8
0
  6
CONTINUOUS
 10
-137.2998653897985
 20
279.93128411865888
 30
0.0
 11
-137.56435682860791
 21
279.630887004241
 31
0.0
 12
-135.77401357593959
 22
279.630887004241
 32
0.0
 13
-135.77401357593959
 23
279.630887004241
 33
0.0
210
0.0
220
0.0
230
1.0
  0
SOLID
  5
6CB
  8
0
  6
CONTINUOUS
 10
137.2998653897985
 20
279.93128411865888
 30
0.0
 11
134.4932762167671
 21
279.93128411865888
 31
0.0
 12
135.77401357593959
 22
279.630887004241
 32
0.0
 13
135.77401357593959
 23
279.630887004241
 33
0.0
210
0.0
220
0.0
230
-1.0
  0
SOLID
  5
6CC
  8
0
  6
CONTINUOUS
 10
-137.56435682860791
 20
279.630887004241
 30
0.0
 11
-137.71388082597099
 21
279.46106457994517
 31
0.0
 12
-136.2323304283789
 22
279.46106457994517
 32
0.0
 13
-136.2323304283789
 23
279.46106457994517
 33
0.0
210
0.0
220
0.0
230
1.0
  0
SOLID
  5
6CD
  8
0
  6
CONTINUOUS
 10
137.56435682860791
 20
279.630887004241
 30
0.0
 11
135.77401357593959
 21
279.630887004241
 31
0.0
 12
136.2323304283789
 22
279.46106457994517
 32
0.0
 13
136.2323304283789
 23
279.46106457994517
 33
0.0
210
0.0
220
0.0
230
-1.0
  0
SOLID
  5
6CE
  8
0
  6
CONTINUOUS
 10
-137.71388082597099
 20
279.46106457994517
 30
0.0
 11
-137.78612617468721
 21
279.3790116621563
 31
0.0
 12
-136.35159741177199
 22
279.3790116621563
 32
0.0
 13
-136.35159741177199
 23
279.3790116621563
 33
0.0
210
0.0
220
0.0
230
1.0
  0
SOLID
  5
6CF
  8
0
  6
CONTINUOUS
 10
137.71388082597099
 20
279.46106457994517
 30
0.0
 11
136.2323304283789
 21
279.46106457994517
 31
0.0
 12
136.35159741177199
 22
279.3790116621563
 32
0.0
 13
136.35159741177199
 23
279.3790116621563
 33
0.0
210
0.0
220
0.0
230
-1.0
  0
SOLID
  5
6D0
  8
0
  6
CONTINUOUS
 10
-137.78612617468721
 20
279.3790116621563
 30
0.0
 11
-137.8868245219256
 21
279.18361976023499
 31
0.0
 12
-136.63560684555691
 22
279.18361976023499
 32
0.0
 13
-136.63560684555691
 23
279.18361976023499
 33
0.0
210
0.0
220
0.0
230
1.0
  0
SOLID
  5
6D1
  8
0
  6
CONTINUOUS
 10
137.78612617468721
 20
279.3790116621563
 30
0.0
 11
136.35159741177199
 21
279.3790116621563
 31
0.0
 12
136.63560684555691
 22
279.18361976023499
 32
0.0
 13
136.63560684555691
 23
279.18361976023499
 33
0.0
210
0.0
220
0.0
230
-1.0
  0
SOLID
  5
6D2
  8
0
  6
CONTINUOUS
 10
-137.8868245219256
 20
279.18361976023499
 30
0.0
 11
-138.07669692751099
 21
278.8151973236491
 31
0.0
 12
-136.96022461173109
 22
278.8151973236491
 32
0.0
 13
-136.96022461173109
 23
278.8151973236491
 33
0.0
  0
SOLID
  5
6D3
  8
0
  6
CONTINUOUS
 10
137.8868245219256
 20
279.18361976023499
 30
0.0
 11
136.63560684555691
 21
279.18361976023499
 31
0.0
 12
136.96022461173109
 22
278.8151973236491
 32
0.0
 13
136.96022461173109
 23
278.8151973236491
 33
0.0
210
0.0
220
0.0
230
-1.0
  0
SOLID
  5
6D4
  8
0
  6
CONTINUOUS
 10
-138.07669692751099
 20
278.8151973236491
 30
0.0
 11
-138.1237809655982
 21
278.72383693885342
 31
0.0
 12
-137.00728822788531
 22
278.72383693885342
 32
0.0
 13
-137.00728822788531
 23
278.72383693885342
 33
0.0
210
0.0
220
0.0
230
1.0
  0
SOLID
  5
6D5
  8
0
  6
CONTINUOUS
 10
138.07669692751099
 20
278.8151973236491
 30
0.0
 11
136.96022461173109
 21
278.8151973236491
 31
0.0
 12
137.00728822788531
 22
278.72383693885342
 32
0.0
 13
137.00728822788531
 23
278.72383693885342
 33
0.0
210
0.0
220
0.0
230
-1.0
  0
SOLID
  5
6D6
  8
0
  6
CONTINUOUS
 10
-138.1237809655982
 20
278.72383693885342
 30
0.0
 11
-138.2043314980825
 21
278.3784695068602
 31
0.0
 12
-137.18520166693051
 22
278.3784695068602
 32
0.0
 13
-137.18520166693051
 23
278.3784695068602
 33
0.0
210
0.0
220
0.0
230
1.0
  0
SOLID
  5
6D7
  8
0
  6
CONTINUOUS
 10
138.1237809655982
 20
278.72383693885342
 30
0.0
 11
137.00728822788531
 21
278.72383693885342
 31
0.0
 12
137.18520166693051
 22
278.3784695068602
 32
0.0
 13
137.18520166693051
 23
278.3784695068602
 33
0.0
210
0.0
220
0.0
230
-1.0
  0
SOLID
  5
6D8
  8
0
  6
CONTINUOUS
 10
-138.2043314980825
 20
278.3784695068602
 30
0.0
 11
-138.29122438719821
 21
278.00590866775917
 31
0.0
 12
-137.27221511334611
 22
278.00590866775917
 32
0.0
 13
-137.27221511334611
 23
278.00590866775917
 33
0.0
210
0.0
220
0.0
230
1.0
  0
SOLID
  5
6D9
  8
0
  6
CONTINUOUS
 10
138.2043314980825
 20
278.3784695068602
 30
0.0
 11
137.18520166693051
 21
278.3784695068602
 31
0.0
 12
137.27221511334611
 22
278.00590866775917
 32
0.0
 13
137.27221511334611
 23
278.00590866775917
 33
0.0
210
0.0
220
0.0
230
-1.0
  0
SOLID
  5
6DA
  8
0
  6
CONTINUOUS
 10
-138.29122438719821
 20
278.00590866775917
 30
0.0
 11
-138.28926182652231
 21
277.90112172254987
 31
0.0
 12
-137.296688628233
 22
277.90112172254987
 32
0.0
 13
-137.296688628233
 23
277.90112172254987
 33
0.0
  0
SOLID
  5
6DB
  8
0
  6
CONTINUOUS
 10
138.29122438719821
 20
278.00590866775917
 30
0.0
 11
137.27221511334611
 21
278.00590866775917
 31
0.0
 12
137.296688628233
 22
277.90112172254987
 32
0.0
 13
137.296688628233
 23
277.90112172254987
 33
0.0
210
0.0
220
0.0
230
-1.0
  0
SOLID
  5
6DC
  8
0
  6
CONTINUOUS
 10
-138.28926182652231
 20
277.90112172254987
 30
0.0
 11
-138.2800991416596
 21
277.41189875559343
 31
0.0
 12
-137.28765186970529
 22
277.41189875559343
 32
0.0
 13
-137.28765186970529
 23
277.41189875559343
 33
0.0
  0
SOLID
  5
6DD
  8
0
  6
CONTINUOUS
 10
138.28926182652231
 20
277.90112172254987
 30
0.0
 11
137.296688628233
 21
277.90112172254987
 31
0.0
 12
137.28765186970529
 22
277.41189875559343
 32
0.0
 13
137.28765186970529
 23
277.41189875559343
 33
0.0
210
0.0
220
0.0
230
-1.0
  0
SOLID
  5
6DE
  8
0
  6
CONTINUOUS
 10
-138.2800991416596
 20
277.41189875559343
 30
0.0
 11
-138.27742779672599
 21
277.26926771308302
 31
0.0
 12
-137.26709811230731
 22
277.26926771308302
 32
0.0
 13
-137.26709811230731
 23
277.26926771308302
 33
0.0
210
0.0
220
0.0
230
1.0
  0
SOLID
  5
6DF
  8
0
  6
CONTINUOUS
 10
138.2800991416596
 20
277.41189875559343
 30
0.0
 11
137.28765186970529
 21
277.41189875559343
 31
0.0
 12
137.26709811230731
 22
277.26926771308302
 32
0.0
 13
137.26709811230731
 23
277.26926771308302
 33
0.0
210
0.0
220
0.0
230
-1.0
  0
SOLID
  5
6E0
  8
0
  6
CONTINUOUS
 10
-138.27742779672599
 20
277.26926771308302
 30
0.0
 11
-134.86471631573551
 21
253.58704811230561
 31
0.0
 12
-133.85438663131421
 22
253.58704811230561
 32
0.0
 13
-133.85438663131421
 23
253.58704811230561
 33
0.0
210
0.0
220
0.0
230
1.0
  0
SOLID
  5
6E1
  8
0
  6
CONTINUOUS
 10
138.27742779672599
 20
277.26926771308302
 30
0.0
 11
137.26709811230731
 21
277.26926771308302
 31
0.0
 12
133.85438663131421
 22
253.58704811230561
 32
0.0
 13
133.85438663131421
 23
253.58704811230561
 33
0.0
210
0.0
220
0.0
230
-1.0
  0
SOLID
  5
6E2
  8
0
  6
CONTINUOUS
 10
-134.86471631573551
 20
253.58704811230561
 30
0.0
 11
-134.84416255835509
 21
253.44441706991699
 31
0.0
 12
-133.85149551104689
 22
253.44441706991699
 32
0.0
 13
-133.85149551104689
 23
253.44441706991699
 33
0.0
210
0.0
220
0.0
230
1.0
  0
SOLID
  5
6E3
  8
0
  6
CONTINUOUS
 10
134.86471631573551
 20
253.58704811230561
 30
0.0
 11
133.85438663131421
 21
253.58704811230561
 31
0.0
 12
133.85149551104689
 22
253.44441706991699
 32
0.0
 13
133.85149551104689
 23
253.44441706991699
 33
0.0
210
0.0
220
0.0
230
-1.0
  0
SOLID
  5
6E4
  8
0
  6
CONTINUOUS
 10
-134.84416255835509
 20
253.44441706991699
 30
0.0
 11
-134.8315098068669
 21
252.82503914347481
 31
0.0
 12
-133.8389407680805
 22
252.82503914347481
 32
0.0
 13
-133.8389407680805
 23
252.82503914347481
 33
0.0
  0
SOLID
  5
6E5
  8
0
  6
CONTINUOUS
 10
134.84416255835509
 20
253.44441706991699
 30
0.0
 11
133.85149551104689
 21
253.44441706991699
 31
0.0
 12
133.8389407680805
 22
252.82503914347481
 32
0.0
 13
133.8389407680805
 23
252.82503914347481
 33
0.0
210
0.0
220
0.0
230
-1.0
  0
SOLID
  5
6E6
  8
0
  6
CONTINUOUS
 10
-134.8315098068669
 20
252.82503914347481
 30
0.0
 11
-134.85522952859611
 21
252.7219866732091
 31
0.0
 12
-133.83685190242829
 22
252.7219866732091
 32
0.0
 13
-133.83685190242829
 23
252.7219866732091
 33
0.0
210
0.0
220
0.0
230
1.0
  0
SOLID
  5
6E7
  8
0
  6
CONTINUOUS
 10
134.8315098068669
 20
252.82503914347481
 30
0.0
 11
133.8389407680805
 21
252.82503914347481
 31
0.0
 12
133.83685190242829
 22
252.7219866732091
 32
0.0
 13
133.83685190242829
 23
252.7219866732091
 33
0.0
210
0.0
220
0.0
230
-1.0
  0
SOLID
  5
6E8
  8
0
  6
CONTINUOUS
 10
-134.85522952859611
 20
252.7219866732091
 30
0.0
 11
-134.97059447702469
 21
252.22077325032811
 31
0.0
 12
-133.95234163321911
 22
252.22077325032811
 32
0.0
 13
-133.95234163321911
 23
252.22077325032811
 33
0.0
210
0.0
220
0.0
230
1.0
  0
SOLID
  5
6E9
  8
0
  6
CONTINUOUS
 10
134.85522952859611
 20
252.7219866732091
 30
0.0
 11
133.83685190242829
 21
252.7219866732091
 31
0.0
 12
133.95234163321911
 22
252.22077325032811
 32
0.0
 13
133.95234163321911
 23
252.22077325032811
 33
0.0
210
0.0
220
0.0
230
-1.0
  0
SOLID
  5
6EA
  8
0
  6
CONTINUOUS
 10
-134.97059447702469
 20
252.22077325032811
 30
0.0
 11
-135.1461201052611
 21
251.87875691288991
 31
0.0
 12
-134.03114912905539
 22
251.87875691288991
 32
0.0
 13
-134.03114912905539
 23
251.87875691288991
 33
0.0
210
0.0
220
0.0
230
1.0
  0
SOLID
  5
6EB
  8
0
  6
CONTINUOUS
 10
134.97059447702469
 20
252.22077325032811
 30
0.0
 11
133.95234163321911
 21
252.22077325032811
 31
0.0
 12
134.03114912905539
 22
251.87875691288991
 32
0.0
 13
134.03114912905539
 23
251.87875691288991
 33
0.0
210
0.0
220
0.0
230
-1.0
  0
SOLID
  5
6EC
  8
0
  6
CONTINUOUS
 10
-135.1461201052611
 20
251.87875691288991
 30
0.0
 11
-135.2531488140923
 21
251.67020863784319
 31
0.0
 12
-134.13807356910451
 22
251.67020863784319
 32
0.0
 13
-134.13807356910451
 23
251.67020863784319
 33
0.0
210
0.0
220
0.0
230
1.0
  0
SOLID
  5
6ED
  8
0
  6
CONTINUOUS
 10
135.1461201052611
 20
251.87875691288991
 30
0.0
 11
134.03114912905539
 21
251.87875691288991
 31
0.0
 12
134.13807356910451
 22
251.67020863784319
 32
0.0
 13
134.13807356910451
 23
251.67020863784319
 33
0.0
210
0.0
220
0.0
230
-1.0
  0
SOLID
  5
6EE
  8
0
  6
CONTINUOUS
 10
-135.2531488140923
 20
251.67020863784319
 30
0.0
 11
-135.6631945715026
 21
251.20515688000009
 31
0.0
 12
-134.37650948419449
 22
251.20515688000009
 32
0.0
 13
-134.37650948419449
 23
251.20515688000009
 33
0.0
  0
SOLID
  5
6EF
  8
0
  6
CONTINUOUS
 10
135.2531488140923
 20
251.67020863784319
 30
0.0
 11
134.13807356910451
 21
251.67020863784319
 31
0.0
 12
134.37650948419449
 22
251.20515688000009
 32
0.0
 13
134.37650948419449
 23
251.20515688000009
 33
0.0
210
0.0
220
0.0
230
-1.0
  0
SOLID
  5
6F0
  8
0
  6
CONTINUOUS
 10
-135.6631945715026
 20
251.20515688000009
 30
0.0
 11
-135.80668625862299
 21
251.10699260162801
 31
0.0
 12
-134.42683912847181
 22
251.10699260162801
 32
0.0
 13
-134.42683912847181
 23
251.10699260162801
 33
0.0
210
0.0
220
0.0
230
1.0
  0
SOLID
  5
6F1
  8
0
  6
CONTINUOUS
 10
135.6631945715026
 20
251.20515688000009
 30
0.0
 11
134.37650948419449
 21
251.20515688000009
 31
0.0
 12
134.42683912847181
 22
251.10699260162801
 32
0.0
 13
134.42683912847181
 23
251.10699260162801
 33
0.0
210
0.0
220
0.0
230
-1.0
  0
SOLID
  5
6F2
  8
0
  6
CONTINUOUS
 10
-135.80668625862299
 20
251.10699260162801
 30
0.0
 11
-136.17511813351319
 21
250.8549442087652
 31
0.0
 12
-134.6491703007276
 22
250.8549442087652
 32
0.0
 13
-134.6491703007276
 23
250.8549442087652
 33
0.0
210
0.0
220
0.0
230
1.0
  0
SOLID
  5
6F3
  8
0
  6
CONTINUOUS
 10
135.80668625862299
 20
251.10699260162801
 30
0.0
 11
134.42683912847181
 21
251.10699260162801
 31
0.0
 12
134.6491703007276
 22
250.8549442087652
 32
0.0
 13
134.6491703007276
 23
250.8549442087652
 33
0.0
210
0.0
220
0.0
230
-1.0
  0
SOLID
  5
6F4
  8
0
  6
CONTINUOUS
 10
-136.17511813351319
 20
250.8549442087652
 30
0.0
 11
-136.75692760902021
 21
250.6404627720562
 31
0.0
 12
-134.83836376754169
 22
250.6404627720562
 32
0.0
 13
-134.83836376754169
 23
250.6404627720562
 33
0.0
  0
SOLID
  5
6F5
  8
0
  6
CONTINUOUS
 10
136.17511813351319
 20
250.8549442087652
 30
0.0
 11
134.6491703007276
 21
250.8549442087652
 31
0.0
 12
134.83836376754169
 22
250.6404627720562
 32
0.0
 13
134.83836376754169
 23
250.6404627720562
 33
0.0
210
0.0
220
0.0
230
-1.0
  0
SOLID
  5
6F6
  8
0
  6
CONTINUOUS
 10
-136.75692760902021
 20
250.6404627720562
 30
0.0
 11
-137.5424694869948
 21
250.45621382225599
 31
0.0
 12
-135.00088924342629
 22
250.45621382225599
 32
0.0
 13
-135.00088924342629
 23
250.45621382225599
 33
0.0
210
0.0
220
0.0
230
1.0
  0
SOLID
  5
6F7
  8
0
  6
CONTINUOUS
 10
136.75692760902021
 20
250.6404627720562
 30
0.0
 11
134.83836376754169
 21
250.6404627720562
 31
0.0
 12
135.00088924342629
 22
250.45621382225599
 32
0.0
 13
135.00088924342629
 23
250.45621382225599
 33
0.0
210
0.0
220
0.0
230
-1.0
  0
SOLID
  5
6F8
  8
0
  6
CONTINUOUS
 10
-137.5424694869948
 20
250.45621382225599
 30
0.0
 11
-139.6296900392224
 21
249.96665596985861
 31
0.0
 12
-135.71596227474001
 22
249.96665596985861
 32
0.0
 13
-135.71596227474001
 23
249.96665596985861
 33
0.0
  0
SOLID
  5
6F9
  8
0
  6
CONTINUOUS
 10
137.5424694869948
 20
250.45621382225599
 30
0.0
 11
135.00088924342629
 21
250.45621382225599
 31
0.0
 12
135.71596227474001
 22
249.96665596985861
 32
0.0
 13
135.71596227474001
 23
249.96665596985861
 33
0.0
210
0.0
220
0.0
230
-1.0
  0
SOLID
  5
6FA
  8
0
  6
CONTINUOUS
 10
-139.6296900392224
 20
249.96665596985861
 30
0.0
 11
-140.9077605899204
 21
249.66688435571641
 31
0.0
 12
-136.52857466463729
 22
249.66688435571641
 32
0.0
 13
-136.52857466463729
 23
249.66688435571641
 33
0.0
210
0.0
220
0.0
230
1.0
  0
SOLID
  5
6FB
  8
0
  6
CONTINUOUS
 10
139.6296900392224
 20
249.96665596985861
 30
0.0
 11
135.71596227474001
 21
249.96665596985861
 31
0.0
 12
136.52857466463729
 22
249.66688435571641
 32
0.0
 13
136.52857466463729
 23
249.66688435571641
 33
0.0
210
0.0
220
0.0
230
-1.0
  0
SOLID
  5
6FC
  8
0
  6
CONTINUOUS
 10
-140.9077605899204
 20
249.66688435571641
 30
0.0
 11
-490.4493778914142
 21
167.68185248786449
 31
0.0
 12
-486.07019196600572
 22
167.68185248786449
 32
0.0
 13
-486.07019196600572
 23
167.68185248786449
 33
0.0
210
0.0
220
0.0
230
1.0
  0
SOLID
  5
6FD
  8
0
  6
CONTINUOUS
 10
140.9077605899204
 20
249.66688435571641
 30
0.0
 11
136.52857466463729
 21
249.66688435571641
 31
0.0
 12
486.07019196600572
 22
167.68185248786449
 32
0.0
 13
486.07019196600572
 23
167.68185248786449
 33
0.0
210
0.0
220
0.0
230
-1.0
  0
SOLID
  5
6FE
  8
0
  6
CONTINUOUS
 10
-490.4493778914142
 20
167.68185248786449
 30
0.0
 11
-491.13962615632221
 21
167.42623814368039
 31
0.0
 12
-487.15999883972302
 22
167.42623814368039
 32
0.0
 13
-487.15999883972302
 23
167.42623814368039
 33
0.0
  0
SOLID
  5
6FF
  8
0
  6
CONTINUOUS
 10
490.4493778914142
 20
167.68185248786449
 30
0.0
 11
486.07019196600572
 21
167.68185248786449
 31
0.0
 12
487.15999883972302
 22
167.42623814368039
 32
0.0
 13
487.15999883972302
 23
167.42623814368039
 33
0.0
210
0.0
220
0.0
230
-1.0
  0
SOLID
  5
700
  8
0
  6
CONTINUOUS
 10
-491.13962615632221
 20
167.42623814368039
 30
0.0
 11
-491.74687683827221
 21
167.00867116788879
 31
0.0
 12
-488.94028766470171
 22
167.00867116788879
 32
0.0
 13
-488.94028766470171
 23
167.00867116788879
 33
0.0
210
0.0
220
0.0
230
1.0
  0
SOLID
  5
701
  8
0
  6
CONTINUOUS
 10
491.13962615632221
 20
167.42623814368039
 30
0.0
 11
487.15999883972302
 21
167.42623814368039
 31
0.0
 12
488.94028766470171
 22
167.00867116788879
 32
0.0
 13
488.94028766470171
 23
167.00867116788879
 33
0.0
210
0.0
220
0.0
230
-1.0
  0
SOLID
  5
702
  8
0
  6
CONTINUOUS
 10
-491.74687683827221
 20
167.00867116788879
 30
0.0
 11
-492.01136826127021
 21
166.7082740714892
 31
0.0
 12
-490.2210249470557
 22
166.7082740714892
 32
0.0
 13
-490.2210249470557
 23
166.7082740714892
 33
0.0
210
0.0
220
0.0
230
1.0
  0
SOLID
  5
703
  8
0
  6
CONTINUOUS
 10
491.74687683827221
 20
167.00867116788879
 30
0.0
 11
488.94028766470171
 21
167.00867116788879
 31
0.0
 12
490.2210249470557
 22
166.7082740714892
 32
0.0
 13
490.2210249470557
 23
166.7082740714892
 33
0.0
210
0.0
220
0.0
230
-1.0
  0
SOLID
  5
704
  8
0
  6
CONTINUOUS
 10
-492.01136826127021
 20
166.7082740714892
 30
0.0
 11
-492.16089227559161
 21
166.53845162796719
 31
0.0
 12
-490.67934188115521
 22
166.53845162796719
 32
0.0
 13
-490.67934188115521
 23
166.53845162796719
 33
0.0
210
0.0
220
0.0
230
1.0
  0
SOLID
  5
705
  8
0
  6
CONTINUOUS
 10
492.01136826127021
 20
166.7082740714892
 30
0.0
 11
490.2210249470557
 21
166.7082740714892
 31
0.0
 12
490.67934188115521
 22
166.53845162796719
 32
0.0
 13
490.67934188115521
 23
166.53845162796719
 33
0.0
210
0.0
220
0.0
230
-1.0
  0
SOLID
  5
706
  8
0
  6
CONTINUOUS
 10
-492.16089227559161
 20
166.53845162796719
 30
0.0
 11
-492.23313762329173
 21
166.4563987113491
 31
0.0
 12
-490.79860886154739
 22
166.4563987113491
 32
0.0
 13
-490.79860886154739
 23
166.4563987113491
 33
0.0
210
0.0
220
0.0
230
1.0
  0
SOLID
  5
707
  8
0
  6
CONTINUOUS
 10
492.16089227559161
 20
166.53845162796719
 30
0.0
 11
490.67934188115521
 21
166.53845162796719
 31
0.0
 12
490.79860886154739
 22
166.4563987113491
 32
0.0
 13
490.79860886154739
 23
166.4563987113491
 33
0.0
210
0.0
220
0.0
230
-1.0
  0
SOLID
  5
708
  8
0
  6
CONTINUOUS
 10
-492.23313762329173
 20
166.4563987113491
 30
0.0
 11
-492.33383597031292
 21
166.2610068098607
 31
0.0
 12
-491.08261829160921
 22
166.2610068098607
 32
0.0
 13
-491.08261829160921
 23
166.2610068098607
 33
0.0
210
0.0
220
0.0
230
1.0
  0
SOLID
  5
709
  8
0
  6
CONTINUOUS
 10
492.23313762329173
 20
166.4563987113491
 30
0.0
 11
490.79860886154739
 21
166.4563987113491
 31
0.0
 12
491.08261829160921
 22
166.2610068098607
 32
0.0
 13
491.08261829160921
 23
166.2610068098607
 33
0.0
210
0.0
220
0.0
230
-1.0
  0
SOLID
  5
70A
  8
0
  6
CONTINUOUS
 10
-492.33383597031292
 20
166.2610068098607
 30
0.0
 11
-492.52370837618889
 21
165.8925843727331
 31
0.0
 12
-491.40723606040962
 22
165.8925843727331
 32
0.0
 13
-491.40723606040962
 23
165.8925843727331
 33
0.0
210
0.0
220
0.0
230
1.0
  0
SOLID
  5
70B
  8
0
  6
CONTINUOUS
 10
492.33383597031292
 20
166.2610068098607
 30
0.0
 11
491.08261829160921
 21
166.2610068098607
 31
0.0
 12
491.40723606040962
 22
165.8925843727331
 32
0.0
 13
491.40723606040962
 23
165.8925843727331
 33
0.0
210
0.0
220
0.0
230
-1.0
  0
SOLID
  5
70C
  8
0
  6
CONTINUOUS
 10
-492.52370837618889
 20
165.8925843727331
 30
0.0
 11
-492.57079241428539
 21
165.8012239879248
 31
0.0
 12
-491.45429967665649
 22
165.8012239879248
 32
0.0
 13
-491.45429967665649
 23
165.8012239879248
 33
0.0
210
0.0
220
0.0
230
1.0
  0
SOLID
  5
70D
  8
0
  6
CONTINUOUS
 10
492.52370837618889
 20
165.8925843727331
 30
0.0
 11
491.40723606040962
 21
165.8925843727331
 31
0.0
 12
491.45429967665649
 22
165.8012239879248
 32
0.0
 13
491.45429967665649
 23
165.8012239879248
 33
0.0
210
0.0
220
0.0
230
-1.0
  0
SOLID
  5
70E
  8
0
  6
CONTINUOUS
 10
-492.57079241428539
 20
165.8012239879248
 30
0.0
 11
-492.65134294680053
 21
165.4558565558213
 31
0.0
 12
-491.63221311608379
 22
165.4558565558213
 32
0.0
 13
-491.63221311608379
 23
165.4558565558213
 33
0.0
210
0.0
220
0.0
230
1.0
  0
SOLID
  5
70F
  8
0
  6
CONTINUOUS
 10
492.57079241428539
 20
165.8012239879248
 30
0.0
 11
491.45429967665649
 21
165.8012239879248
 31
0.0
 12
491.63221311608379
 22
165.4558565558213
 32
0.0
 13
491.63221311608379
 23
165.4558565558213
 33
0.0
210
0.0
220
0.0
230
-1.0
  0
SOLID
  5
710
  8
0
  6
CONTINUOUS
 10
-492.65134294680053
 20
165.4558565558213
 30
0.0
 11
-492.73823583588182
 21
165.0832957168908
 31
0.0
 12
-491.71922656199922
 22
165.0832957168908
 32
0.0
 13
-491.71922656199922
 23
165.0832957168908
 33
0.0
  0
SOLID
  5
711
  8
0
  6
CONTINUOUS
 10
492.65134294680053
 20
165.4558565558213
 30
0.0
 11
491.63221311608379
 21
165.4558565558213
 31
0.0
 12
491.71922656199922
 22
165.0832957168908
 32
0.0
 13
491.71922656199922
 23
165.0832957168908
 33
0.0
210
0.0
220
0.0
230
-1.0
  0
SOLID
  5
712
  8
0
  6
CONTINUOUS
 10
-492.73823583588182
 20
165.0832957168908
 30
0.0
 11
-492.73627327520381
 21
164.97850877162571
 31
0.0
 12
-491.7437000767697
 22
164.97850877162571
 32
0.0
 13
-491.7437000767697
 23
164.97850877162571
 33
0.0
210
0.0
220
0.0
230
1.0
  0
SOLID
  5
713
  8
0
  6
CONTINUOUS
 10
492.73823583588182
 20
165.0832957168908
 30
0.0
 11
491.71922656199922
 21
165.0832957168908
 31
0.0
 12
491.7437000767697
 22
164.97850877162571
 32
0.0
 13
491.7437000767697
 23
164.97850877162571
 33
0.0
210
0.0
220
0.0
230
-1.0
  0
SOLID
  5
714
  8
0
  6
CONTINUOUS
 10
-492.73627327520381
 20
164.97850877162571
 30
0.0
 11
-492.7271105903352
 21
164.48928580463721
 31
0.0
 12
-491.73466331840422
 22
164.48928580463721
 32
0.0
 13
-491.73466331840422
 23
164.48928580463721
 33
0.0
210
0.0
220
0.0
230
1.0
  0
SOLID
  5
715
  8
0
  6
CONTINUOUS
 10
492.73627327520381
 20
164.97850877162571
 30
0.0
 11
491.7437000767697
 21
164.97850877162571
 31
0.0
 12
491.73466331840422
 22
164.48928580463721
 32
0.0
 13
491.73466331840422
 23
164.48928580463721
 33
0.0
210
0.0
220
0.0
230
-1.0
  0
SOLID
  5
716
  8
0
  6
CONTINUOUS
 10
-492.7271105903352
 20
164.48928580463721
 30
0.0
 11
-492.72443924540067
 21
164.34665476215321
 31
0.0
 12
-491.71410956100999
 22
164.34665476215321
 32
0.0
 13
-491.71410956100999
 23
164.34665476215321
 33
0.0
210
0.0
220
0.0
230
1.0
  0
SOLID
  5
717
  8
0
  6
CONTINUOUS
 10
492.7271105903352
 20
164.48928580463721
 30
0.0
 11
491.73466331840422
 21
164.48928580463721
 31
0.0
 12
491.71410956100999
 22
164.34665476215321
 32
0.0
 13
491.71410956100999
 23
164.34665476215321
 33
0.0
210
0.0
220
0.0
230
-1.0
  0
SOLID
  5
718
  8
0
  6
CONTINUOUS
 10
-492.72443924540067
 20
164.34665476215321
 30
0.0
 11
-489.61791718206808
 21
142.78921045170361
 31
0.0
 12
-488.6075874976483
 22
142.78921045170361
 32
0.0
 13
-488.6075874976483
 23
142.78921045170361
 33
0.0
210
0.0
220
0.0
230
1.0
  0
SOLID
  5
719
  8
0
  6
CONTINUOUS
 10
492.72443924540067
 20
164.34665476215321
 30
0.0
 11
491.71410956100999
 21
164.34665476215321
 31
0.0
 12
488.6075874976483
 22
142.78921045170361
 32
0.0
 13
488.6075874976483
 23
142.78921045170361
 33
0.0
210
0.0
220
0.0
230
-1.0
  0
SOLID
  5
71A
  8
0
  6
CONTINUOUS
 10
-489.61791718206808
 20
142.78921045170361
 30
0.0
 11
-489.62664024238148
 21
142.75018488031921
 31
0.0
 12
-488.60196374203082
 22
142.75018488031921
 32
0.0
 13
-488.60196374203082
 23
142.75018488031921
 33
0.0
210
0.0
220
0.0
230
1.0
  0
SOLID
  5
71B
  8
0
  6
CONTINUOUS
 10
489.61791718206808
 20
142.78921045170361
 30
0.0
 11
488.6075874976483
 21
142.78921045170361
 31
0.0
 12
488.60196374203082
 22
142.75018488031921
 32
0.0
 13
488.60196374203082
 23
142.75018488031921
 33
0.0
210
0.0
220
0.0
230
-1.0
  0
SOLID
  5
71C
  8
0
  6
CONTINUOUS
 10
490.3956553894775
 20
139.30973457498629
 30
0.0
 11
489.37097888912677
 21
139.30973457498629
 31
0.0
 12
489.50191071728079
 22
138.72396659648561
 32
0.0
 13
489.50191071728079
 23
138.72396659648561
 33
0.0
210
0.0
220
0.0
230
-1.0
  0
SOLID
  5
71D
  8
0
  6
CONTINUOUS
 10
-489.62664024238148
 20
142.75018488031921
 30
0.0
 11
-490.3956553894775
 21
139.30973457498629
 31
0.0
 12
-489.37097888912677
 22
139.30973457498629
 32
0.0
 13
-489.37097888912677
 23
139.30973457498629
 33
0.0
210
0.0
220
0.0
230
1.0
  0
SOLID
  5
71E
  8
0
  6
CONTINUOUS
 10
489.62664024238148
 20
142.75018488031921
 30
0.0
 11
488.60196374203082
 21
142.75018488031921
 31
0.0
 12
489.37097888912677
 22
139.30973457498629
 32
0.0
 13
489.37097888912677
 23
139.30973457498629
 33
0.0
210
0.0
220
0.0
230
-1.0
  0
LINE
  5
71F
  8
0
  6
CONTINUOUS
 10
-106.4894632585199
 20
287.5267207248902
 30
0.0
 11
-110.6402962395223
 21
286.5531423085327
 31
0.0
  0
LINE
  5
720
  8
0
  6
CONTINUOUS
 10
-106.2611103141486
 20
286.5531423085327
 30
0.0
 11
-106.4894632585199
 21
287.5267207248902
 31
0.0
  0
LINE
  5
721
  8
0
  6
CONTINUOUS
 10
-110.6402962395223
 20
286.5531423085327
 30
0.0
 11
-136.0023665204738
 21
280.60446542061999
 31
0.0
  0
LINE
  5
722
  8
0
  6
CONTINUOUS
 10
-106.2611103141486
 20
286.5531423085327
 30
0.0
 11
-131.62318059488089
 21
280.60446542061999
 31
0.0
  0
LINE
  5
723
  8
0
  6
CONTINUOUS
 10
-136.0023665204738
 20
280.60446542061999
 30
0.0
 11
-136.69261471188841
 21
280.34885109357822
 31
0.0
  0
LINE
  5
724
  8
0
  6
CONTINUOUS
 10
-131.62318059488089
 20
280.60446542061999
 30
0.0
 11
-132.71298739551079
 21
280.34885109357822
 31
0.0
  0
LINE
  5
725
  8
0
  6
CONTINUOUS
 10
-136.69261471188841
 20
280.34885109357822
 30
0.0
 11
-137.2998653897985
 21
279.93128411865888
 31
0.0
  0
LINE
  5
726
  8
0
  6
CONTINUOUS
 10
-132.71298739551079
 20
280.34885109357822
 30
0.0
 11
-134.4932762167671
 21
279.93128411865888
 31
0.0
  0
LINE
  5
727
  8
0
  6
CONTINUOUS
 10
-137.2998653897985
 20
279.93128411865888
 30
0.0
 11
-137.56435682860791
 21
279.630887004241
 31
0.0
  0
LINE
  5
728
  8
0
  6
CONTINUOUS
 10
-134.4932762167671
 20
279.93128411865888
 30
0.0
 11
-135.77401357593959
 21
279.630887004241
 31
0.0
  0
LINE
  5
729
  8
0
  6
CONTINUOUS
 10
-137.56435682860791
 20
279.630887004241
 30
0.0
 11
-137.71388082597099
 21
279.46106457994517
 31
0.0
  0
LINE
  5
72A
  8
0
  6
CONTINUOUS
 10
-135.77401357593959
 20
279.630887004241
 30
0.0
 11
-136.2323304283789
 21
279.46106457994517
 31
0.0
  0
LINE
  5
72B
  8
0
  6
CONTINUOUS
 10
-137.71388082597099
 20
279.46106457994517
 30
0.0
 11
-137.78612617468721
 21
279.3790116621563
 31
0.0
  0
LINE
  5
72C
  8
0
  6
CONTINUOUS
 10
-136.2323304283789
 20
279.46106457994517
 30
0.0
 11
-136.35159741177199
 21
279.3790116621563
 31
0.0
  0
LINE
  5
72D
  8
0
  6
CONTINUOUS
 10
-137.78612617468721
 20
279.3790116621563
 30
0.0
 11
-137.8868245219256
 21
279.18361976023499
 31
0.0
  0
LINE
  5
72E
  8
0
  6
CONTINUOUS
 10
-136.35159741177199
 20
279.3790116621563
 30
0.0
 11
-136.63560684555691
 21
279.18361976023499
 31
0.0
  0
LINE
  5
72F
  8
0
  6
CONTINUOUS
 10
-137.8868245219256
 20
279.18361976023499
 30
0.0
 11
-138.07669692751099
 21
278.8151973236491
 31
0.0
  0
LINE
  5
730
  8
0
  6
CONTINUOUS
 10
-136.63560684555691
 20
279.18361976023499
 30
0.0
 11
-136.96022461173109
 21
278.8151973236491
 31
0.0
  0
LINE
  5
731
  8
0
  6
CONTINUOUS
 10
-138.07669692751099
 20
278.8151973236491
 30
0.0
 11
-138.1237809655982
 21
278.72383693885342
 31
0.0
  0
LINE
  5
732
  8
0
  6
CONTINUOUS
 10
-136.96022461173109
 20
278.8151973236491
 30
0.0
 11
-137.00728822788531
 21
278.72383693885342
 31
0.0
  0
LINE
  5
733
  8
0
  6
CONTINUOUS
 10
-138.1237809655982
 20
278.72383693885342
 30
0.0
 11
-138.2043314980825
 21
278.3784695068602
 31
0.0
  0
LINE
  5
734
  8
0
  6
CONTINUOUS
 10
-137.00728822788531
 20
278.72383693885342
 30
0.0
 11
-137.18520166693051
 21
278.3784695068602
 31
0.0
  0
LINE
  5
735
  8
0
  6
CONTINUOUS
 10
-138.2043314980825
 20
278.3784695068602
 30
0.0
 11
-138.29122438719821
 21
278.00590866775917
 31
0.0
  0
LINE
  5
736
  8
0
  6
CONTINUOUS
 10
-137.18520166693051
 20
278.3784695068602
 30
0.0
 11
-137.27221511334611
 21
278.00590866775917
 31
0.0
  0
LINE
  5
737
  8
0
  6
CONTINUOUS
 10
-138.29122438719821
 20
278.00590866775917
 30
0.0
 11
-138.28926182652231
 21
277.90112172254987
 31
0.0
  0
LINE
  5
738
  8
0
  6
CONTINUOUS
 10
-137.27221511334611
 20
278.00590866775917
 30
0.0
 11
-137.296688628233
 21
277.90112172254987
 31
0.0
  0
LINE
  5
739
  8
0
  6
CONTINUOUS
 10
-138.28926182652231
 20
277.90112172254987
 30
0.0
 11
-138.2800991416596
 21
277.41189875559343
 31
0.0
  0
LINE
  5
73A
  8
0
  6
CONTINUOUS
 10
-137.296688628233
 20
277.90112172254987
 30
0.0
 11
-137.28765186970529
 21
277.41189875559343
 31
0.0
  0
LINE
  5
73B
  8
0
  6
CONTINUOUS
 10
-138.2800991416596
 20
277.41189875559343
 30
0.0
 11
-138.27742779672599
 21
277.26926771308302
 31
0.0
  0
LINE
  5
73C
  8
0
  6
CONTINUOUS
 10
-137.28765186970529
 20
277.41189875559343
 30
0.0
 11
-137.26709811230731
 21
277.26926771308302
 31
0.0
  0
LINE
  5
73D
  8
0
  6
CONTINUOUS
 10
-138.27742779672599
 20
277.26926771308302
 30
0.0
 11
-134.86471631573551
 21
253.58704811230561
 31
0.0
  0
LINE
  5
73E
  8
0
  6
CONTINUOUS
 10
-137.26709811230731
 20
277.26926771308302
 30
0.0
 11
-133.85438663131421
 21
253.58704811230561
 31
0.0
  0
LINE
  5
73F
  8
0
  6
CONTINUOUS
 10
-134.86471631573551
 20
253.58704811230561
 30
0.0
 11
-134.84416255835509
 21
253.44441706991699
 31
0.0
  0
LINE
  5
740
  8
0
  6
CONTINUOUS
 10
-133.85438663131421
 20
253.58704811230561
 30
0.0
 11
-133.85149551104689
 21
253.44441706991699
 31
0.0
  0
LINE
  5
741
  8
0
  6
CONTINUOUS
 10
-134.84416255835509
 20
253.44441706991699
 30
0.0
 11
-134.8315098068669
 21
252.82503914347481
 31
0.0
  0
LINE
  5
742
  8
0
  6
CONTINUOUS
 10
-133.85149551104689
 20
253.44441706991699
 30
0.0
 11
-133.8389407680805
 21
252.82503914347481
 31
0.0
  0
LINE
  5
743
  8
0
  6
CONTINUOUS
 10
-134.8315098068669
 20
252.82503914347481
 30
0.0
 11
-134.85522952859611
 21
252.7219866732091
 31
0.0
  0
LINE
  5
744
  8
0
  6
CONTINUOUS
 10
-133.8389407680805
 20
252.82503914347481
 30
0.0
 11
-133.83685190242829
 21
252.7219866732091
 31
0.0
  0
LINE
  5
745
  8
0
  6
CONTINUOUS
 10
-134.85522952859611
 20
252.7219866732091
 30
0.0
 11
-134.97059447702469
 21
252.22077325032811
 31
0.0
  0
LINE
  5
746
  8
0
  6
CONTINUOUS
 10
-133.83685190242829
 20
252.7219866732091
 30
0.0
 11
-133.95234163321911
 21
252.22077325032811
 31
0.0
  0
LINE
  5
747
  8
0
  6
CONTINUOUS
 10
-134.97059447702469
 20
252.22077325032811
 30
0.0
 11
-135.1461201052611
 21
251.87875691288991
 31
0.0
  0
LINE
  5
748
  8
0
  6
CONTINUOUS
 10
-133.95234163321911
 20
252.22077325032811
 30
0.0
 11
-134.03114912905539
 21
251.87875691288991
 31
0.0
  0
LINE
  5
749
  8
0
  6
CONTINUOUS
 10
-135.1461201052611
 20
251.87875691288991
 30
0.0
 11
-135.2531488140923
 21
251.67020863784319
 31
0.0
  0
LINE
  5
74A
  8
0
  6
CONTINUOUS
 10
-134.03114912905539
 20
251.87875691288991
 30
0.0
 11
-134.13807356910451
 21
251.67020863784319
 31
0.0
  0
LINE
  5
74B
  8
0
  6
CONTINUOUS
 10
-135.2531488140923
 20
251.67020863784319
 30
0.0
 11
-135.6631945715026
 21
251.20515688000009
 31
0.0
  0
LINE
  5
74C
  8
0
  6
CONTINUOUS
 10
-134.13807356910451
 20
251.67020863784319
 30
0.0
 11
-134.37650948419449
 21
251.20515688000009
 31
0.0
  0
LINE
  5
74D
  8
0
  6
CONTINUOUS
 10
-135.6631945715026
 20
251.20515688000009
 30
0.0
 11
-135.80668625862299
 21
251.10699260162801
 31
0.0
  0
LINE
  5
74E
  8
0
  6
CONTINUOUS
 10
-134.37650948419449
 20
251.20515688000009
 30
0.0
 11
-134.42683912847181
 21
251.10699260162801
 31
0.0
  0
LINE
  5
74F
  8
0
  6
CONTINUOUS
 10
-135.80668625862299
 20
251.10699260162801
 30
0.0
 11
-136.17511813351319
 21
250.8549442087652
 31
0.0
  0
LINE
  5
750
  8
0
  6
CONTINUOUS
 10
-134.42683912847181
 20
251.10699260162801
 30
0.0
 11
-134.6491703007276
 21
250.8549442087652
 31
0.0
  0
LINE
  5
751
  8
0
  6
CONTINUOUS
 10
-136.17511813351319
 20
250.8549442087652
 30
0.0
 11
-136.75692760902021
 21
250.6404627720562
 31
0.0
  0
LINE
  5
752
  8
0
  6
CONTINUOUS
 10
-134.6491703007276
 20
250.8549442087652
 30
0.0
 11
-134.83836376754169
 21
250.6404627720562
 31
0.0
  0
LINE
  5
753
  8
0
  6
CONTINUOUS
 10
-136.75692760902021
 20
250.6404627720562
 30
0.0
 11
-137.5424694869948
 21
250.45621382225599
 31
0.0
  0
LINE
  5
754
  8
0
  6
CONTINUOUS
 10
-134.83836376754169
 20
250.6404627720562
 30
0.0
 11
-135.00088924342629
 21
250.45621382225599
 31
0.0
  0
LINE
  5
755
  8
0
  6
CONTINUOUS
 10
-137.5424694869948
 20
250.45621382225599
 30
0.0
 11
-139.6296900392224
 21
249.96665596985861
 31
0.0
  0
LINE
  5
756
  8
0
  6
CONTINUOUS
 10
-135.00088924342629
 20
250.45621382225599
 30
0.0
 11
-135.71596227474001
 21
249.96665596985861
 31
0.0
  0
LINE
  5
757
  8
0
  6
CONTINUOUS
 10
-139.6296900392224
 20
249.96665596985861
 30
0.0
 11
-140.9077605899204
 21
249.66688435571641
 31
0.0
  0
LINE
  5
758
  8
0
  6
CONTINUOUS
 10
-135.71596227474001
 20
249.96665596985861
 30
0.0
 11
-136.52857466463729
 21
249.66688435571641
 31
0.0
  0
LINE
  5
759
  8
0
  6
CONTINUOUS
 10
-140.9077605899204
 20
249.66688435571641
 30
0.0
 11
-490.4493778914142
 21
167.68185248786449
 31
0.0
  0
LINE
  5
75A
  8
0
  6
CONTINUOUS
 10
-136.52857466463729
 20
249.66688435571641
 30
0.0
 11
-486.07019196600572
 21
167.68185248786449
 31
0.0
  0
LINE
  5
75B
  8
0
  6
CONTINUOUS
 10
-490.4493778914142
 20
167.68185248786449
 30
0.0
 11
-491.13962615632221
 21
167.42623814368039
 31
0.0
  0
LINE
  5
75C
  8
0
  6
CONTINUOUS
 10
-486.07019196600572
 20
167.68185248786449
 30
0.0
 11
-487.15999883972302
 21
167.42623814368039
 31
0.0
  0
LINE
  5
75D
  8
0
  6
CONTINUOUS
 10
-491.13962615632221
 20
167.42623814368039
 30
0.0
 11
-491.74687683827221
 21
167.00867116788879
 31
0.0
  0
LINE
  5
75E
  8
0
  6
CONTINUOUS
 10
-487.15999883972302
 20
167.42623814368039
 30
0.0
 11
-488.94028766470171
 21
167.00867116788879
 31
0.0
  0
LINE
  5
75F
  8
0
  6
CONTINUOUS
 10
-491.74687683827221
 20
167.00867116788879
 30
0.0
 11
-492.01136826127021
 21
166.7082740714892
 31
0.0
  0
LINE
  5
760
  8
0
  6
CONTINUOUS
 10
-488.94028766470171
 20
167.00867116788879
 30
0.0
 11
-490.2210249470557
 21
166.7082740714892
 31
0.0
  0
LINE
  5
761
  8
0
  6
CONTINUOUS
 10
-492.01136826127021
 20
166.7082740714892
 30
0.0
 11
-492.16089227559161
 21
166.53845162796719
 31
0.0
  0
LINE
  5
762
  8
0
  6
CONTINUOUS
 10
-490.2210249470557
 20
166.7082740714892
 30
0.0
 11
-490.67934188115521
 21
166.53845162796719
 31
0.0
  0
LINE
  5
763
  8
0
  6
CONTINUOUS
 10
-492.16089227559161
 20
166.53845162796719
 30
0.0
 11
-492.23313762329173
 21
166.4563987113491
 31
0.0
  0
LINE
  5
764
  8
0
  6
CONTINUOUS
 10
-490.67934188115521
 20
166.53845162796719
 30
0.0
 11
-490.79860886154739
 21
166.4563987113491
 31
0.0
  0
LINE
  5
765
  8
0
  6
CONTINUOUS
 10
-492.23313762329173
 20
166.4563987113491
 30
0.0
 11
-492.33383597031292
 21
166.2610068098607
 31
0.0
  0
LINE
  5
766
  8
0
  6
CONTINUOUS
 10
-490.79860886154739
 20
166.4563987113491
 30
0.0
 11
-491.08261829160921
 21
166.2610068098607
 31
0.0
  0
LINE
  5
767
  8
0
  6
CONTINUOUS
 10
-492.33383597031292
 20
166.2610068098607
 30
0.0
 11
-492.52370837618889
 21
165.8925843727331
 31
0.0
  0
LINE
  5
768
  8
0
  6
CONTINUOUS
 10
-491.08261829160921
 20
166.2610068098607
 30
0.0
 11
-491.40723606040962
 21
165.8925843727331
 31
0.0
  0
LINE
  5
769
  8
0
  6
CONTINUOUS
 10
-492.52370837618889
 20
165.8925843727331
 30
0.0
 11
-492.57079241428539
 21
165.8012239879248
 31
0.0
  0
LINE
  5
76A
  8
0
  6
CONTINUOUS
 10
-491.40723606040962
 20
165.8925843727331
 30
0.0
 11
-491.45429967665649
 21
165.8012239879248
 31
0.0
  0
LINE
  5
76B
  8
0
  6
CONTINUOUS
 10
-492.57079241428539
 20
165.8012239879248
 30
0.0
 11
-492.65134294680053
 21
165.4558565558213
 31
0.0
  0
LINE
  5
76C
  8
0
  6
CONTINUOUS
 10
-491.45429967665649
 20
165.8012239879248
 30
0.0
 11
-491.63221311608379
 21
165.4558565558213
 31
0.0
  0
LINE
  5
76D
  8
0
  6
CONTINUOUS
 10
-492.65134294680053
 20
165.4558565558213
 30
0.0
 11
-492.73823583588182
 21
165.0832957168908
 31
0.0
  0
LINE
  5
76E
  8
0
  6
CONTINUOUS
 10
-491.63221311608379
 20
165.4558565558213
 30
0.0
 11
-491.71922656199922
 21
165.0832957168908
 31
0.0
  0
LINE
  5
76F
  8
0
  6
CONTINUOUS
 10
-492.73823583588182
 20
165.0832957168908
 30
0.0
 11
-492.73627327520381
 21
164.97850877162571
 31
0.0
  0
LINE
  5
770
  8
0
  6
CONTINUOUS
 10
-491.71922656199922
 20
165.0832957168908
 30
0.0
 11
-491.7437000767697
 21
164.97850877162571
 31
0.0
  0
LINE
  5
771
  8
0
  6
CONTINUOUS
 10
-492.73627327520381
 20
164.97850877162571
 30
0.0
 11
-492.7271105903352
 21
164.48928580463721
 31
0.0
  0
LINE
  5
772
  8
0
  6
CONTINUOUS
 10
-491.7437000767697
 20
164.97850877162571
 30
0.0
 11
-491.73466331840422
 21
164.48928580463721
 31
0.0
  0
LINE
  5
773
  8
0
  6
CONTINUOUS
 10
-492.7271105903352
 20
164.48928580463721
 30
0.0
 11
-492.72443924540067
 21
164.34665476215321
 31
0.0
  0
LINE
  5
774
  8
0
  6
CONTINUOUS
 10
-491.73466331840422
 20
164.48928580463721
 30
0.0
 11
-491.71410956100999
 21
164.34665476215321
 31
0.0
  0
LINE
  5
775
  8
0
  6
CONTINUOUS
 10
-492.72443924540067
 20
164.34665476215321
 30
0.0
 11
-489.61791718206808
 21
142.78921045170361
 31
0.0
  0
LINE
  5
776
  8
0
  6
CONTINUOUS
 10
-491.71410956100999
 20
164.34665476215321
 30
0.0
 11
-488.6075874976483
 21
142.78921045170361
 31
0.0
  0
LINE
  5
777
  8
0
  6
CONTINUOUS
 10
-489.61791718206808
 20
142.78921045170361
 30
0.0
 11
-489.62664024238148
 21
142.75018488031921
 31
0.0
  0
LINE
  5
778
  8
0
  6
CONTINUOUS
 10
-488.6075874976483
 20
142.78921045170361
 30
0.0
 11
-488.60196374203082
 21
142.75018488031921
 31
0.0
  0
LINE
  5
779
  8
0
  6
CONTINUOUS
 10
-489.37097888912677
 20
139.30973457498629
 30
0.0
 11
-489.50191071728079
 21
138.72396659648561
 31
0.0
  0
LINE
  5
77A
  8
0
  6
CONTINUOUS
 10
-489.50191071728079
 20
138.72396659648561
 30
0.0
 11
-490.3956553894775
 21
139.30973457498629
 31
0.0
  0
LINE
  5
77B
  8
0
  6
CONTINUOUS
 10
-489.62664024238148
 20
142.75018488031921
 30
0.0
 11
-490.3956553894775
 21
139.30973457498629
 31
0.0
  0
LINE
  5
77C
  8
0
  6
CONTINUOUS
 10
-488.60196374203082
 20
142.75018488031921
 30
0.0
 11
-489.37097888912677
 21
139.30973457498629
 31
0.0
  0
ENDBLK
  5
77E
  8
0
  0
BLOCK
  8
0
  2
*U48
 70
     1
 10
0.0
 20
0.0
 30
0.0
  3
*U48
  1

  0
SOLID
  5
780
  8
0
  6
CONTINUOUS
 10
-471.46203177262169
 20
160.1461465067417
 30
0.0
 11
-471.46203177262191
 21
141.5689415850425
 31
0.0
 12
-469.4620317726218
 22
141.5689415850425
 32
0.0
 13
-469.4620317726218
 23
141.5689415850425
 33
0.0
210
0.0
220
0.0
230
1.0
  0
SOLID
  5
781
  8
0
  6
CONTINUOUS
 10
471.46203177262169
 20
160.1461465067417
 30
0.0
 11
469.46203177262169
 21
160.1461465067417
 31
0.0
 12
469.4620317726218
 22
141.5689415850425
 32
0.0
 13
469.4620317726218
 23
141.5689415850425
 33
0.0
210
0.0
220
0.0
230
-1.0
  0
SOLID
  5
782
  8
0
  6
CONTINUOUS
 10
-471.46203177262191
 20
140.5689415850425
 30
0.0
 11
-471.46203177262242
 21
53.308025051088492
 31
0.0
 12
-469.46203177262242
 22
53.308025051088492
 32
0.0
 13
-469.46203177262242
 23
53.308025051088492
 33
0.0
210
0.0
220
0.0
230
1.0
  0
SOLID
  5
783
  8
0
  6
CONTINUOUS
 10
471.46203177262191
 20
140.5689415850425
 30
0.0
 11
469.4620317726218
 21
140.5689415850425
 31
0.0
 12
469.46203177262242
 22
53.308025051088492
 32
0.0
 13
469.46203177262242
 23
53.308025051088492
 33
0.0
210
0.0
220
0.0
230
-1.0
  0
SOLID
  5
784
  8
0
  6
CONTINUOUS
 10
-471.46203177262242
 20
52.308025051088578
 30
0.0
 11
-471.46203177262248
 21
44.498173886636842
 31
0.0
 12
-469.46203177262248
 22
44.498173886636842
 32
0.0
 13
-469.46203177262248
 23
44.498173886636842
 33
0.0
210
0.0
220
0.0
230
1.0
  0
SOLID
  5
785
  8
0
  6
CONTINUOUS
 10
471.46203177262242
 20
52.308025051088578
 30
0.0
 11
469.46203177262242
 21
52.308025051088578
 31
0.0
 12
469.46203177262248
 22
44.498173886636842
 32
0.0
 13
469.46203177262248
 23
44.498173886636842
 33
0.0
210
0.0
220
0.0
230
-1.0
  0
SOLID
  5
786
  8
0
  6
CONTINUOUS
 10
-471.46203177262248
 20
44.498173886636842
 30
0.0
 11
-471.46203177262248
 21
30.146146506741701
 31
0.0
 12
-469.46203177262259
 22
30.146146506741701
 32
0.0
 13
-469.46203177262259
 23
30.146146506741701
 33
0.0
210
0.0
220
0.0
230
1.0
  0
SOLID
  5
787
  8
0
  6
CONTINUOUS
 10
471.46203177262248
 20
44.498173886636842
 30
0.0
 11
469.46203177262248
 21
44.498173886636842
 31
0.0
 12
469.46203177262259
 22
30.146146506741701
 32
0.0
 13
469.46203177262259
 23
30.146146506741701
 33
0.0
210
0.0
220
0.0
230
-1.0
  0
LINE
  5
788
  8
0
  6
CONTINUOUS
 10
-471.46203177262169
 20
160.1461465067417
 30
0.0
 11
-471.46203177262191
 21
141.5689415850425
 31
0.0
  0
LINE
  5
789
  8
0
  6
CONTINUOUS
 10
-469.46203177262169
 20
160.1461465067417
 30
0.0
 11
-469.4620317726218
 21
141.5689415850425
 31
0.0
  0
LINE
  5
78A
  8
0
  6
CONTINUOUS
 10
-471.46203177262191
 20
140.5689415850425
 30
0.0
 11
-471.46203177262242
 21
53.308025051088492
 31
0.0
  0
LINE
  5
78B
  8
0
  6
CONTINUOUS
 10
-469.4620317726218
 20
140.5689415850425
 30
0.0
 11
-469.46203177262242
 21
53.308025051088492
 31
0.0
  0
LINE
  5
78C
  8
0
  6
CONTINUOUS
 10
-471.46203177262242
 20
52.308025051088578
 30
0.0
 11
-471.46203177262248
 21
44.498173886636842
 31
0.0
  0
LINE
  5
78D
  8
0
  6
CONTINUOUS
 10
-469.46203177262242
 20
52.308025051088578
 30
0.0
 11
-469.46203177262248
 21
44.498173886636842
 31
0.0
  0
LINE
  5
78E
  8
0
  6
CONTINUOUS
 10
-471.46203177262248
 20
44.498173886636842
 30
0.0
 11
-471.46203177262248
 21
30.146146506741701
 31
0.0
  0
LINE
  5
78F
  8
0
  6
CONTINUOUS
 10
-469.46203177262248
 20
44.498173886636842
 30
0.0
 11
-469.46203177262259
 21
30.146146506741701
 31
0.0
  0
ENDBLK
  5
791
  8
0
  0
BLOCK
  8
0
  2
*U49
 70
     1
 10
0.0
 20
0.0
 30
0.0
  3
*U49
  1

  0
SOLID
  5
793
  8
0
  6
CONTINUOUS
 10
-577.46130677724011
 20
80.411464191428948
 30
0.0
 11
-590.69149628925118
 21
80.364864120592856
 31
0.0
 12
-577.1073440975332
 22
80.364864120592856
 32
0.0
 13
-577.1073440975332
 23
80.364864120592856
 33
0.0
210
0.0
220
0.0
230
1.0
  0
SOLID
  5
794
  8
0
  6
CONTINUOUS
 10
-590.69149628925118
 20
80.364864120592856
 30
0.0
 11
-590.72753385466069
 21
80.351834387434863
 31
0.0
 12
-577.00837344831075
 22
80.351834387434863
 32
0.0
 13
-577.00837344831075
 23
80.351834387434863
 33
0.0
210
0.0
220
0.0
230
1.0
  0
SOLID
  5
795
  8
0
  6
CONTINUOUS
 10
590.69149628925118
 20
80.364864120592856
 30
0.0
 11
577.1073440975332
 21
80.364864120592856
 31
0.0
 12
577.00837344831075
 22
80.351834387434863
 32
0.0
 13
577.00837344831075
 23
80.351834387434863
 33
0.0
210
0.0
220
0.0
230
-1.0
  0
SOLID
  5
796
  8
0
  6
CONTINUOUS
 10
-590.72753385466069
 20
80.351834387434863
 30
0.0
 11
-591.07129083749032
 21
80.227545698491696
 31
0.0
 12
-576.70831400981456
 22
80.227545698491696
 32
0.0
 13
-576.70831400981456
 23
80.227545698491696
 33
0.0
210
0.0
220
0.0
230
1.0
  0
SOLID
  5
797
  8
0
  6
CONTINUOUS
 10
590.72753385466069
 20
80.351834387434863
 30
0.0
 11
577.00837344831075
 21
80.351834387434863
 31
0.0
 12
576.70831400981456
 22
80.227545698491696
 32
0.0
 13
576.70831400981456
 23
80.227545698491696
 33
0.0
210
0.0
220
0.0
230
-1.0
  0
SOLID
  5
798
  8
0
  6
CONTINUOUS
 10
-591.07129083749032
 20
80.227545698491696
 30
0.0
 11
-591.14872610085285
 21
80.177008648051711
 31
0.0
 12
-576.58630677724011
 22
80.177008648051711
 32
0.0
 13
-576.58630677724011
 23
80.177008648051711
 33
0.0
210
0.0
220
0.0
230
1.0
  0
SOLID
  5
799
  8
0
  6
CONTINUOUS
 10
591.07129083749032
 20
80.227545698491696
 30
0.0
 11
576.70831400981456
 21
80.227545698491696
 31
0.0
 12
576.58630677724011
 22
80.177008648051711
 32
0.0
 13
576.58630677724011
 23
80.177008648051711
 33
0.0
210
0.0
220
0.0
230
-1.0
  0
SOLID
  5
79A
  8
0
  6
CONTINUOUS
 10
-591.14872610085285
 20
80.177008648051711
 30
0.0
 11
-591.4094939586621
 21
80.006822123063145
 31
0.0
 12
-576.36451537975915
 22
80.006822123063145
 32
0.0
 13
-576.36451537975915
 23
80.006822123063145
 33
0.0
210
0.0
220
0.0
230
1.0
  0
SOLID
  5
79B
  8
0
  6
CONTINUOUS
 10
591.14872610085285
 20
80.177008648051711
 30
0.0
 11
576.58630677724011
 21
80.177008648051711
 31
0.0
 12
576.36451537975915
 22
80.006822123063145
 32
0.0
 13
576.36451537975915
 23
80.006822123063145
 33
0.0
210
0.0
220
0.0
230
-1.0
  0
SOLID
  5
79C
  8
0
  6
CONTINUOUS
 10
-591.4094939586621
 20
80.006822123063145
 30
0.0
 11
-591.51233088082927
 21
79.898901058505487
 31
0.0
 12
-576.22386991016356
 22
79.898901058505487
 32
0.0
 13
-576.22386991016356
 23
79.898901058505487
 33
0.0
210
0.0
220
0.0
230
1.0
  0
SOLID
  5
79D
  8
0
  6
CONTINUOUS
 10
591.4094939586621
 20
80.006822123063145
 30
0.0
 11
576.36451537975915
 21
80.006822123063145
 31
0.0
 12
576.22386991016356
 22
79.898901058505487
 32
0.0
 13
576.22386991016356
 23
79.898901058505487
 33
0.0
210
0.0
220
0.0
230
-1.0
  0
SOLID
  5
79E
  8
0
  6
CONTINUOUS
 10
-591.51233088082927
 20
79.898901058505487
 30
0.0
 11
-591.68809389344915
 21
79.714448519163952
 31
0.0
 12
-576.08233449872557
 22
79.714448519163952
 32
0.0
 13
-576.08233449872557
 23
79.714448519163952
 33
0.0
210
0.0
220
0.0
230
1.0
  0
SOLID
  5
79F
  8
0
  6
CONTINUOUS
 10
591.51233088082927
 20
79.898901058505487
 30
0.0
 11
576.22386991016356
 21
79.898901058505487
 31
0.0
 12
576.08233449872557
 22
79.714448519163952
 32
0.0
 13
576.08233449872557
 23
79.714448519163952
 33
0.0
210
0.0
220
0.0
230
-1.0
  0
SOLID
  5
7A0
  8
0
  6
CONTINUOUS
 10
-591.68809389344915
 20
79.714448519163952
 30
0.0
 11
-591.79237536863036
 21
79.536464191429019
 31
0.0
 12
-575.9457623206174
 22
79.536464191429019
 32
0.0
 13
-575.9457623206174
 23
79.536464191429019
 33
0.0
  0
SOLID
  5
7A1
  8
0
  6
CONTINUOUS
 10
591.68809389344915
 20
79.714448519163952
 30
0.0
 11
576.08233449872557
 21
79.714448519163952
 31
0.0
 12
575.9457623206174
 22
79.536464191429019
 32
0.0
 13
575.9457623206174
 23
79.536464191429019
 33
0.0
210
0.0
220
0.0
230
-1.0
  0
SOLID
  5
7A2
  8
0
  6
CONTINUOUS
 10
-591.79237536863036
 20
79.536464191429019
 30
0.0
 11
-591.86561318997985
 21
79.411464191429047
 31
0.0
 12
-575.89398562532074
 22
79.411464191429047
 32
0.0
 13
-575.89398562532074
 23
79.411464191429047
 33
0.0
210
0.0
220
0.0
230
1.0
  0
SOLID
  5
7A3
  8
0
  6
CONTINUOUS
 10
591.79237536863036
 20
79.536464191429019
 30
0.0
 11
575.9457623206174
 21
79.536464191429019
 31
0.0
 12
575.89398562532074
 22
79.411464191429047
 32
0.0
 13
575.89398562532074
 23
79.411464191429047
 33
0.0
210
0.0
220
0.0
230
-1.0
  0
SOLID
  5
7A4
  8
0
  6
CONTINUOUS
 10
-590.29033711720274
 20
79.411464191429047
 30
0.0
 11
-580.11288521627375
 21
79.391492732498207
 31
0.0
 12
-575.88571317617107
 22
79.391492732498207
 32
0.0
 13
-575.88571317617107
 23
79.391492732498207
 33
0.0
210
0.0
220
0.0
230
1.0
  0
SOLID
  5
7A5
  8
0
  6
CONTINUOUS
 10
590.29033711720274
 20
79.411464191429047
 30
0.0
 11
575.89398562532074
 21
79.411464191429047
 31
0.0
 12
575.88571317617107
 22
79.391492732498207
 32
0.0
 13
575.88571317617107
 23
79.391492732498207
 33
0.0
210
0.0
220
0.0
230
-1.0
  0
SOLID
  5
7A6
  8
0
  6
CONTINUOUS
 10
-591.86561318997985
 20
79.411464191429047
 30
0.0
 11
-591.87731451910997
 21
79.391492732498207
 31
0.0
 12
-590.46226247665231
 22
79.391492732498207
 32
0.0
 13
-590.46226247665231
 23
79.391492732498207
 33
0.0
  0
SOLID
  5
7A7
  8
0
  6
CONTINUOUS
 10
591.86561318997985
 20
79.411464191429047
 30
0.0
 11
590.29033711720274
 21
79.411464191429047
 31
0.0
 12
590.46226247665231
 22
79.391492732498207
 32
0.0
 13
590.46226247665231
 23
79.391492732498207
 33
0.0
210
0.0
220
0.0
230
-1.0
  0
SOLID
  5
7A8
  8
0
  6
CONTINUOUS
 10
-580.11288521627375
 20
79.391492732498207
 30
0.0
 11
-577.26719249341318
 21
79.385908561145925
 31
0.0
 12
-575.88340013666243
 22
79.385908561145925
 32
0.0
 13
-575.88340013666243
 23
79.385908561145925
 33
0.0
210
0.0
220
0.0
230
1.0
  0
SOLID
  5
7A9
  8
0
  6
CONTINUOUS
 10
580.11288521627375
 20
79.391492732498207
 30
0.0
 11
575.88571317617107
 21
79.391492732498207
 31
0.0
 12
575.88340013666243
 22
79.385908561145925
 32
0.0
 13
575.88340013666243
 23
79.385908561145925
 33
0.0
210
0.0
220
0.0
230
-1.0
  0
SOLID
  5
7AA
  8
0
  6
CONTINUOUS
 10
-591.87731451910997
 20
79.391492732498207
 30
0.0
 11
-591.8922531827709
 21
79.365995893253242
 31
0.0
 12
-590.5133924314664
 22
79.365995893253242
 32
0.0
 13
-590.5133924314664
 23
79.365995893253242
 33
0.0
210
0.0
220
0.0
230
1.0
  0
SOLID
  5
7AB
  8
0
  6
CONTINUOUS
 10
591.87731451910997
 20
79.391492732498207
 30
0.0
 11
590.46226247665231
 21
79.391492732498207
 31
0.0
 12
590.5133924314664
 22
79.365995893253242
 32
0.0
 13
590.5133924314664
 23
79.365995893253242
 33
0.0
210
0.0
220
0.0
230
-1.0
  0
SOLID
  5
7AC
  8
0
  6
CONTINUOUS
 10
-591.8922531827709
 20
79.365995893253242
 30
0.0
 11
-591.93165032496916
 21
79.238046162128185
 31
0.0
 12
-590.7699757635429
 22
79.238046162128185
 32
0.0
 13
-590.7699757635429
 23
79.238046162128185
 33
0.0
210
0.0
220
0.0
230
1.0
  0
SOLID
  5
7AD
  8
0
  6
CONTINUOUS
 10
591.8922531827709
 20
79.365995893253242
 30
0.0
 11
590.5133924314664
 21
79.365995893253242
 31
0.0
 12
590.7699757635429
 22
79.238046162128185
 32
0.0
 13
590.7699757635429
 23
79.238046162128185
 33
0.0
210
0.0
220
0.0
230
-1.0
  0
SOLID
  5
7AE
  8
0
  6
CONTINUOUS
 10
-577.26719249341318
 20
79.385908561145925
 30
0.0
 11
-576.93097669135022
 21
79.191794277318891
 31
0.0
 12
-575.80299536765085
 22
79.191794277318891
 32
0.0
 13
-575.80299536765085
 23
79.191794277318891
 33
0.0
210
0.0
220
0.0
230
1.0
  0
SOLID
  5
7AF
  8
0
  6
CONTINUOUS
 10
577.26719249341318
 20
79.385908561145925
 30
0.0
 11
575.88340013666243
 21
79.385908561145925
 31
0.0
 12
575.80299536765085
 22
79.191794277318891
 32
0.0
 13
575.80299536765085
 23
79.191794277318891
 33
0.0
210
0.0
220
0.0
230
-1.0
  0
SOLID
  5
7B0
  8
0
  6
CONTINUOUS
 10
-576.93097669135022
 20
79.191794277318891
 30
0.0
 11
-576.88629165288455
 21
79.114397520358466
 31
0.0
 12
-575.7709365812342
 22
79.114397520358466
 32
0.0
 13
-575.7709365812342
 23
79.114397520358466
 33
0.0
  0
SOLID
  5
7B1
  8
0
  6
CONTINUOUS
 10
576.93097669135022
 20
79.191794277318891
 30
0.0
 11
575.80299536765085
 21
79.191794277318891
 31
0.0
 12
575.7709365812342
 22
79.114397520358466
 32
0.0
 13
575.7709365812342
 23
79.114397520358466
 33
0.0
210
0.0
220
0.0
230
-1.0
  0
SOLID
  5
7B2
  8
0
  6
CONTINUOUS
 10
-591.93165032496916
 20
79.238046162128185
 30
0.0
 11
-592.01109886966265
 21
78.980021864816734
 31
0.0
 12
-590.96435546240173
 22
78.980021864816734
 32
0.0
 13
-590.96435546240173
 23
78.980021864816734
 33
0.0
210
0.0
220
0.0
230
1.0
  0
SOLID
  5
7B3
  8
0
  6
CONTINUOUS
 10
591.93165032496916
 20
79.238046162128185
 30
0.0
 11
590.7699757635429
 21
79.238046162128185
 31
0.0
 12
590.96435546240173
 22
78.980021864816734
 32
0.0
 13
590.96435546240173
 23
78.980021864816734
 33
0.0
210
0.0
220
0.0
230
-1.0
  0
SOLID
  5
7B4
  8
0
  6
CONTINUOUS
 10
-592.01109886966265
 20
78.980021864816734
 30
0.0
 11
-592.01417483293346
 21
78.963406349352169
 31
0.0
 12
-590.97687257387554
 22
78.963406349352169
 32
0.0
 13
-590.97687257387554
 23
78.963406349352169
 33
0.0
210
0.0
220
0.0
230
1.0
  0
SOLID
  5
7B5
  8
0
  6
CONTINUOUS
 10
592.01109886966265
 20
78.980021864816734
 30
0.0
 11
590.96435546240173
 21
78.980021864816734
 31
0.0
 12
590.97687257387554
 22
78.963406349352169
 32
0.0
 13
590.97687257387554
 23
78.963406349352169
 33
0.0
210
0.0
220
0.0
230
-1.0
  0
SOLID
  5
7B6
  8
0
  6
CONTINUOUS
 10
-576.88629165288455
 20
79.114397520358466
 30
0.0
 11
-576.73686240752318
 21
78.855578475255854
 31
0.0
 12
-575.73686240752318
 22
78.855578475255854
 32
0.0
 13
-575.73686240752318
 23
78.855578475255854
 33
0.0
210
0.0
220
0.0
230
1.0
  0
SOLID
  5
7B7
  8
0
  6
CONTINUOUS
 10
576.88629165288455
 20
79.114397520358466
 30
0.0
 11
575.7709365812342
 21
79.114397520358466
 31
0.0
 12
575.73686240752318
 22
78.855578475255854
 32
0.0
 13
575.73686240752318
 23
78.855578475255854
 33
0.0
210
0.0
220
0.0
230
-1.0
  0
SOLID
  5
7B8
  8
0
  6
CONTINUOUS
 10
-576.73686240752318
 20
78.855578475255854
 30
0.0
 11
-576.71130677724011
 21
78.661464191428948
 31
0.0
 12
-575.71130677724011
 22
78.661464191428948
 32
0.0
 13
-575.71130677724011
 23
78.661464191428948
 33
0.0
  0
SOLID
  5
7B9
  8
0
  6
CONTINUOUS
 10
576.73686240752318
 20
78.855578475255854
 30
0.0
 11
575.73686240752318
 21
78.855578475255854
 31
0.0
 12
575.71130677724011
 22
78.661464191428948
 32
0.0
 13
575.71130677724011
 23
78.661464191428948
 33
0.0
210
0.0
220
0.0
230
-1.0
  0
SOLID
  5
7BA
  8
0
  6
CONTINUOUS
 10
-576.71130677724011
 20
78.661464191428948
 30
0.0
 11
-576.71130677724011
 21
76.000740090304674
 31
0.0
 12
-575.71130677724011
 22
76.000740090304674
 32
0.0
 13
-575.71130677724011
 23
76.000740090304674
 33
0.0
210
0.0
220
0.0
230
1.0
  0
SOLID
  5
7BB
  8
0
  6
CONTINUOUS
 10
576.71130677724011
 20
78.661464191428948
 30
0.0
 11
575.71130677724011
 21
78.661464191428948
 31
0.0
 12
575.71130677724011
 22
76.000740090304674
 32
0.0
 13
575.71130677724011
 23
76.000740090304674
 33
0.0
210
0.0
220
0.0
230
-1.0
  0
SOLID
  5
7BC
  8
0
  6
CONTINUOUS
 10
-592.01417483293346
 20
78.963406349352169
 30
0.0
 11
-594.00174963831159
 21
68.227068816365446
 31
0.0
 12
-592.9847581823476
 22
68.227068816365446
 32
0.0
 13
-592.9847581823476
 23
68.227068816365446
 33
0.0
  0
SOLID
  5
7BD
  8
0
  6
CONTINUOUS
 10
592.01417483293346
 20
78.963406349352169
 30
0.0
 11
590.97687257387554
 21
78.963406349352169
 31
0.0
 12
592.9847581823476
 22
68.227068816365446
 32
0.0
 13
592.9847581823476
 23
68.227068816365446
 33
0.0
210
0.0
220
0.0
230
-1.0
  0
SOLID
  5
7BE
  8
0
  6
CONTINUOUS
 10
-594.00174963831159
 20
68.227068816365446
 30
0.0
 11
-594.0461253218167
 21
67.987363465362748
 31
0.0
 12
-593.01473365983566
 22
67.987363465362748
 32
0.0
 13
-593.01473365983566
 23
67.987363465362748
 33
0.0
210
0.0
220
0.0
230
1.0
  0
SOLID
  5
7BF
  8
0
  6
CONTINUOUS
 10
594.00174963831159
 20
68.227068816365446
 30
0.0
 11
592.9847581823476
 21
68.227068816365446
 31
0.0
 12
593.01473365983566
 22
67.987363465362748
 32
0.0
 13
593.01473365983566
 23
67.987363465362748
 33
0.0
210
0.0
220
0.0
230
-1.0
  0
SOLID
  5
7C0
  8
0
  6
CONTINUOUS
 10
-594.0461253218167
 20
67.987363465362748
 30
0.0
 11
-594.08435155780137
 21
67.390229448232617
 31
0.0
 12
-593.08940607416889
 22
67.390229448232617
 32
0.0
 13
-593.08940607416889
 23
67.390229448232617
 33
0.0
210
0.0
220
0.0
230
1.0
  0
SOLID
  5
7C1
  8
0
  6
CONTINUOUS
 10
594.0461253218167
 20
67.987363465362748
 30
0.0
 11
593.01473365983566
 21
67.987363465362748
 31
0.0
 12
593.08940607416889
 22
67.390229448232617
 32
0.0
 13
593.08940607416889
 23
67.390229448232617
 33
0.0
210
0.0
220
0.0
230
-1.0
  0
SOLID
  5
7C2
  8
0
  6
CONTINUOUS
 10
-594.08435155780137
 20
67.390229448232617
 30
0.0
 11
-594.08788317976143
 21
67.335061798223563
 31
0.0
 12
-593.07969062408483
 22
67.335061798223563
 32
0.0
 13
-593.07969062408483
 23
67.335061798223563
 33
0.0
210
0.0
220
0.0
230
1.0
  0
SOLID
  5
7C3
  8
0
  6
CONTINUOUS
 10
594.08435155780137
 20
67.390229448232617
 30
0.0
 11
593.08940607416889
 21
67.390229448232617
 31
0.0
 12
593.07969062408483
 22
67.335061798223563
 32
0.0
 13
593.07969062408483
 23
67.335061798223563
 33
0.0
210
0.0
220
0.0
230
-1.0
  0
SOLID
  5
7C4
  8
0
  6
CONTINUOUS
 10
-594.08788317976143
 20
67.335061798223563
 30
0.0
 11
-594.02545664579043
 21
66.980582577230706
 31
0.0
 12
-593.01726409011383
 22
66.980582577230706
 32
0.0
 13
-593.01726409011383
 23
66.980582577230706
 33
0.0
210
0.0
220
0.0
230
1.0
  0
SOLID
  5
7C5
  8
0
  6
CONTINUOUS
 10
594.08788317976143
 20
67.335061798223563
 30
0.0
 11
593.07969062408483
 21
67.335061798223563
 31
0.0
 12
593.01726409011383
 22
66.980582577230706
 32
0.0
 13
593.01726409011383
 23
66.980582577230706
 33
0.0
210
0.0
220
0.0
230
-1.0
  0
SOLID
  5
7C6
  8
0
  6
CONTINUOUS
 10
-594.02545664579043
 20
66.980582577230706
 30
0.0
 11
-593.97451720481774
 21
66.691331000934738
 31
0.0
 12
-592.89066170266312
 22
66.691331000934738
 32
0.0
 13
-592.89066170266312
 23
66.691331000934738
 33
0.0
  0
SOLID
  5
7C7
  8
0
  6
CONTINUOUS
 10
594.02545664579043
 20
66.980582577230706
 30
0.0
 11
593.01726409011383
 21
66.980582577230706
 31
0.0
 12
592.89066170266312
 22
66.691331000934738
 32
0.0
 13
592.89066170266312
 23
66.691331000934738
 33
0.0
210
0.0
220
0.0
230
-1.0
  0
SOLID
  5
7C8
  8
0
  6
CONTINUOUS
 10
-593.97451720481774
 20
66.691331000934738
 30
0.0
 11
-593.93433808171835
 21
66.599532774024041
 31
0.0
 12
-592.85048257956385
 22
66.599532774024041
 32
0.0
 13
-592.85048257956385
 23
66.599532774024041
 33
0.0
210
0.0
220
0.0
230
1.0
  0
SOLID
  5
7C9
  8
0
  6
CONTINUOUS
 10
593.97451720481774
 20
66.691331000934738
 30
0.0
 11
592.89066170266312
 21
66.691331000934738
 31
0.0
 12
592.85048257956385
 22
66.599532774024041
 32
0.0
 13
592.85048257956385
 23
66.599532774024041
 33
0.0
210
0.0
220
0.0
230
-1.0
  0
SOLID
  5
7CA
  8
0
  6
CONTINUOUS
 10
-593.93433808171835
 20
66.599532774024041
 30
0.0
 11
-593.78949548015964
 21
66.268607333680819
 31
0.0
 12
-592.59848381425149
 22
66.268607333680819
 32
0.0
 13
-592.59848381425149
 23
66.268607333680819
 33
0.0
210
0.0
220
0.0
230
1.0
  0
SOLID
  5
7CB
  8
0
  6
CONTINUOUS
 10
593.93433808171835
 20
66.599532774024041
 30
0.0
 11
592.85048257956385
 21
66.599532774024041
 31
0.0
 12
592.59848381425149
 22
66.268607333680819
 32
0.0
 13
592.59848381425149
 23
66.268607333680819
 33
0.0
210
0.0
220
0.0
230
-1.0
  0
SOLID
  5
7CC
  8
0
  6
CONTINUOUS
 10
-593.78949548015964
 20
66.268607333680819
 30
0.0
 11
-593.71243197395347
 21
66.092538453038955
 31
0.0
 12
-592.32368785884785
 22
66.092538453038955
 32
0.0
 13
-592.32368785884785
 23
66.092538453038955
 33
0.0
210
0.0
220
0.0
230
1.0
  0
SOLID
  5
7CD
  8
0
  6
CONTINUOUS
 10
593.78949548015964
 20
66.268607333680819
 30
0.0
 11
592.59848381425149
 21
66.268607333680819
 31
0.0
 12
592.32368785884785
 22
66.092538453038955
 32
0.0
 13
592.32368785884785
 23
66.092538453038955
 33
0.0
210
0.0
220
0.0
230
-1.0
  0
SOLID
  5
7CE
  8
0
  6
CONTINUOUS
 10
-593.71243197395347
 20
66.092538453038955
 30
0.0
 11
-593.31643391417742
 21
65.572512761071138
 31
0.0
 12
-591.51206824533165
 22
65.572512761071138
 32
0.0
 13
-591.51206824533165
 23
65.572512761071138
 33
0.0
210
0.0
220
0.0
230
1.0
  0
SOLID
  5
7CF
  8
0
  6
CONTINUOUS
 10
593.71243197395347
 20
66.092538453038955
 30
0.0
 11
592.32368785884785
 21
66.092538453038955
 31
0.0
 12
591.51206824533165
 22
65.572512761071138
 32
0.0
 13
591.51206824533165
 23
65.572512761071138
 33
0.0
210
0.0
220
0.0
230
-1.0
  0
SOLID
  5
7D0
  8
0
  6
CONTINUOUS
 10
-593.31643391417742
 20
65.572512761071138
 30
0.0
 11
-592.80889481785732
 21
65.160632621516612
 31
0.0
 12
-590.86923462221728
 22
65.160632621516612
 32
0.0
 13
-590.86923462221728
 23
65.160632621516612
 33
0.0
  0
SOLID
  5
7D1
  8
0
  6
CONTINUOUS
 10
593.31643391417742
 20
65.572512761071138
 30
0.0
 11
591.51206824533165
 21
65.572512761071138
 31
0.0
 12
590.86923462221728
 22
65.160632621516612
 32
0.0
 13
590.86923462221728
 23
65.160632621516612
 33
0.0
210
0.0
220
0.0
230
-1.0
  0
SOLID
  5
7D2
  8
0
  6
CONTINUOUS
 10
-462.30000000000121
 20
63.996774167516072
 30
0.0
 11
-462.88234285148218
 21
63.920107276666428
 31
0.0
 12
-461.7176571485204
 22
63.920107276666428
 32
0.0
 13
-461.7176571485204
 23
63.920107276666428
 33
0.0
210
0.0
220
0.0
230
1.0
  0
SOLID
  5
7D3
  8
0
  6
CONTINUOUS
 10
-462.88234285148218
 20
63.920107276666428
 30
0.0
 11
-463.42500000000172
 21
63.695331326030889
 31
0.0
 12
-461.17500000000092
 22
63.695331326030889
 32
0.0
 13
-461.17500000000092
 23
63.695331326030889
 33
0.0
210
0.0
220
0.0
230
1.0
  0
SOLID
  5
7D4
  8
0
  6
CONTINUOUS
 10
462.88234285148218
 20
63.920107276666428
 30
0.0
 11
461.7176571485204
 21
63.920107276666428
 31
0.0
 12
461.17500000000092
 22
63.695331326030889
 32
0.0
 13
461.17500000000092
 23
63.695331326030889
 33
0.0
210
0.0
220
0.0
230
-1.0
  0
SOLID
  5
7D5
  8
0
  6
CONTINUOUS
 10
-463.42500000000172
 20
63.695331326030889
 30
0.0
 11
-463.8909902576716
 21
63.33776442518559
 31
0.0
 12
-460.70900974233081
 22
63.33776442518559
 32
0.0
 13
-460.70900974233081
 23
63.33776442518559
 33
0.0
210
0.0
220
0.0
230
1.0
  0
SOLID
  5
7D6
  8
0
  6
CONTINUOUS
 10
463.42500000000172
 20
63.695331326030889
 30
0.0
 11
461.17500000000092
 21
63.695331326030889
 31
0.0
 12
460.70900974233081
 22
63.33776442518559
 32
0.0
 13
460.70900974233081
 23
63.33776442518559
 33
0.0
210
0.0
220
0.0
230
-1.0
  0
SOLID
  5
7D7
  8
0
  6
CONTINUOUS
 10
-463.8909902576716
 20
63.33776442518559
 30
0.0
 11
-464.15264128501917
 21
62.996774167516151
 31
0.0
 12
-460.44735871498318
 22
62.996774167516151
 32
0.0
 13
-460.44735871498318
 23
62.996774167516151
 33
0.0
210
0.0
220
0.0
230
1.0
  0
SOLID
  5
7D8
  8
0
  6
CONTINUOUS
 10
463.8909902576716
 20
63.33776442518559
 30
0.0
 11
460.70900974233081
 21
63.33776442518559
 31
0.0
 12
460.44735871498318
 22
62.996774167516151
 32
0.0
 13
460.44735871498318
 23
62.996774167516151
 33
0.0
210
0.0
220
0.0
230
-1.0
  0
SOLID
  5
7D9
  8
0
  6
CONTINUOUS
 10
-462.30000000000121
 20
62.996774167516151
 30
0.0
 11
-461.97647619362289
 21
62.954181450377348
 31
0.0
 12
-460.41467617363128
 22
62.954181450377348
 32
0.0
 13
-460.41467617363128
 23
62.954181450377348
 33
0.0
210
0.0
220
0.0
230
1.0
  0
SOLID
  5
7DA
  8
0
  6
CONTINUOUS
 10
462.30000000000121
 20
62.996774167516151
 30
0.0
 11
460.44735871498318
 21
62.996774167516151
 31
0.0
 12
460.41467617363128
 22
62.954181450377348
 32
0.0
 13
460.41467617363128
 23
62.954181450377348
 33
0.0
210
0.0
220
0.0
230
-1.0
  0
SOLID
  5
7DB
  8
0
  6
CONTINUOUS
 10
-464.15264128501917
 20
62.996774167516151
 30
0.0
 11
-464.18532382637119
 21
62.954181450377348
 31
0.0
 12
-462.62352380637969
 22
62.954181450377348
 32
0.0
 13
-462.62352380637969
 23
62.954181450377348
 33
0.0
210
0.0
220
0.0
230
1.0
  0
SOLID
  5
7DC
  8
0
  6
CONTINUOUS
 10
464.15264128501917
 20
62.996774167516151
 30
0.0
 11
462.30000000000121
 21
62.996774167516151
 31
0.0
 12
462.62352380637969
 22
62.954181450377348
 32
0.0
 13
462.62352380637969
 23
62.954181450377348
 33
0.0
210
0.0
220
0.0
230
-1.0
  0
SOLID
  5
7DD
  8
0
  6
CONTINUOUS
 10
-461.97647619362289
 20
62.954181450377348
 30
0.0
 11
-461.77752741369972
 21
62.871774167515639
 31
0.0
 12
-460.35144284148549
 22
62.871774167515639
 32
0.0
 13
-460.35144284148549
 23
62.871774167515639
 33
0.0
210
0.0
220
0.0
230
1.0
  0
SOLID
  5
7DE
  8
0
  6
CONTINUOUS
 10
461.97647619362289
 20
62.954181450377348
 30
0.0
 11
460.41467617363128
 21
62.954181450377348
 31
0.0
 12
460.35144284148549
 22
62.871774167515639
 32
0.0
 13
460.35144284148549
 23
62.871774167515639
 33
0.0
210
0.0
220
0.0
230
-1.0
  0
SOLID
  5
7DF
  8
0
  6
CONTINUOUS
 10
-464.18532382637119
 20
62.954181450377348
 30
0.0
 11
-464.24855715851697
 21
62.871774167515639
 31
0.0
 12
-462.82247258630292
 22
62.871774167515639
 32
0.0
 13
-462.82247258630292
 23
62.871774167515639
 33
0.0
210
0.0
220
0.0
230
1.0
  0
SOLID
  5
7E0
  8
0
  6
CONTINUOUS
 10
464.18532382637119
 20
62.954181450377348
 30
0.0
 11
462.62352380637969
 21
62.954181450377348
 31
0.0
 12
462.82247258630292
 22
62.871774167515639
 32
0.0
 13
462.82247258630292
 23
62.871774167515639
 33
0.0
210
0.0
220
0.0
230
-1.0
  0
SOLID
  5
7E1
  8
0
  6
CONTINUOUS
 10
-461.77752741369972
 20
62.871774167515639
 30
0.0
 11
-461.67500000000081
 21
62.829305922246562
 31
0.0
 12
-460.3338519183248
 22
62.829305922246562
 32
0.0
 13
-460.3338519183248
 23
62.829305922246562
 33
0.0
210
0.0
220
0.0
230
1.0
  0
SOLID
  5
7E2
  8
0
  6
CONTINUOUS
 10
461.77752741369972
 20
62.871774167515639
 30
0.0
 11
460.35144284148549
 21
62.871774167515639
 31
0.0
 12
460.3338519183248
 22
62.829305922246562
 32
0.0
 13
460.3338519183248
 23
62.829305922246562
 33
0.0
210
0.0
220
0.0
230
-1.0
  0
SOLID
  5
7E3
  8
0
  6
CONTINUOUS
 10
-464.24855715851697
 20
62.871774167515639
 30
0.0
 11
-464.26614808167761
 21
62.829305922246562
 31
0.0
 12
-462.92500000000189
 22
62.829305922246562
 32
0.0
 13
-462.92500000000189
 23
62.829305922246562
 33
0.0
210
0.0
220
0.0
230
1.0
  0
SOLID
  5
7E4
  8
0
  6
CONTINUOUS
 10
464.24855715851697
 20
62.871774167515639
 30
0.0
 11
462.82247258630292
 21
62.871774167515639
 31
0.0
 12
462.92500000000189
 22
62.829305922246562
 32
0.0
 13
462.92500000000189
 23
62.829305922246562
 33
0.0
210
0.0
220
0.0
230
-1.0
  0
SOLID
  5
7E5
  8
0
  6
CONTINUOUS
 10
-461.67500000000081
 20
62.829305922246562
 30
0.0
 11
-461.41611652351747
 21
62.630657643999001
 31
0.0
 12
-460.25156910733261
 22
62.630657643999001
 32
0.0
 13
-460.25156910733261
 23
62.630657643999001
 33
0.0
  0
SOLID
  5
7E6
  8
0
  6
CONTINUOUS
 10
461.67500000000081
 20
62.829305922246562
 30
0.0
 11
460.3338519183248
 21
62.829305922246562
 31
0.0
 12
460.25156910733261
 22
62.630657643999001
 32
0.0
 13
460.25156910733261
 23
62.630657643999001
 33
0.0
210
0.0
220
0.0
230
-1.0
  0
SOLID
  5
7E7
  8
0
  6
CONTINUOUS
 10
-464.26614808167761
 20
62.829305922246562
 30
0.0
 11
-464.34843089266991
 21
62.630657643999001
 31
0.0
 12
-463.18388347648511
 22
62.630657643999001
 32
0.0
 13
-463.18388347648511
 23
62.630657643999001
 33
0.0
210
0.0
220
0.0
230
1.0
  0
SOLID
  5
7E8
  8
0
  6
CONTINUOUS
 10
464.26614808167761
 20
62.829305922246562
 30
0.0
 11
462.92500000000189
 21
62.829305922246562
 31
0.0
 12
463.18388347648511
 22
62.630657643999001
 32
0.0
 13
463.18388347648511
 23
62.630657643999001
 33
0.0
210
0.0
220
0.0
230
-1.0
  0
SOLID
  5
7E9
  8
0
  6
CONTINUOUS
 10
-592.80889481785732
 20
65.160632621516612
 30
0.0
 11
-588.71176953181839
 21
62.577056469710357
 31
0.0
 12
-586.83697023565651
 22
62.577056469710357
 32
0.0
 13
-586.83697023565651
 23
62.577056469710357
 33
0.0
210
0.0
220
0.0
230
1.0
  0
SOLID
  5
7EA
  8
0
  6
CONTINUOUS
 10
592.80889481785732
 20
65.160632621516612
 30
0.0
 11
590.86923462221728
 21
65.160632621516612
 31
0.0
 12
586.83697023565651
 22
62.577056469710357
 32
0.0
 13
586.83697023565651
 23
62.577056469710357
 33
0.0
210
0.0
220
0.0
230
-1.0
  0
SOLID
  5
7EB
  8
0
  6
CONTINUOUS
 10
-461.41611652351747
 20
62.630657643999001
 30
0.0
 11
-461.21746824527003
 21
62.371774167515611
 31
0.0
 12
-460.14433606029888
 22
62.371774167515611
 32
0.0
 13
-460.14433606029888
 23
62.371774167515611
 33
0.0
210
0.0
220
0.0
230
1.0
  0
SOLID
  5
7EC
  8
0
  6
CONTINUOUS
 10
461.41611652351747
 20
62.630657643999001
 30
0.0
 11
460.25156910733261
 21
62.630657643999001
 31
0.0
 12
460.14433606029888
 22
62.371774167515611
 32
0.0
 13
460.14433606029888
 23
62.371774167515611
 33
0.0
210
0.0
220
0.0
230
-1.0
  0
SOLID
  5
7ED
  8
0
  6
CONTINUOUS
 10
-464.34843089266991
 20
62.630657643999001
 30
0.0
 11
-464.45566393970358
 21
62.371774167515611
 31
0.0
 12
-463.38253175473261
 22
62.371774167515611
 32
0.0
 13
-463.38253175473261
 23
62.371774167515611
 33
0.0
210
0.0
220
0.0
230
1.0
  0
SOLID
  5
7EE
  8
0
  6
CONTINUOUS
 10
464.34843089266991
 20
62.630657643999001
 30
0.0
 11
463.18388347648511
 21
62.630657643999001
 31
0.0
 12
463.38253175473261
 22
62.371774167515611
 32
0.0
 13
463.38253175473261
 23
62.371774167515611
 33
0.0
210
0.0
220
0.0
230
-1.0
  0
SOLID
  5
7EF
  8
0
  6
CONTINUOUS
 10
-461.21746824527003
 20
62.371774167515611
 30
0.0
 11
-461.19979907582098
 21
62.329117018996058
 31
0.0
 12
-460.12666689085
 22
62.329117018996058
 32
0.0
 13
-460.12666689085
 23
62.329117018996058
 33
0.0
210
0.0
220
0.0
230
1.0
  0
SOLID
  5
7F0
  8
0
  6
CONTINUOUS
 10
461.21746824527003
 20
62.371774167515611
 30
0.0
 11
460.14433606029888
 21
62.371774167515611
 31
0.0
 12
460.12666689085
 22
62.329117018996058
 32
0.0
 13
460.12666689085
 23
62.329117018996058
 33
0.0
210
0.0
220
0.0
230
-1.0
  0
SOLID
  5
7F1
  8
0
  6
CONTINUOUS
 10
-464.45566393970358
 20
62.371774167515611
 30
0.0
 11
-464.47333310915258
 21
62.329117018996058
 31
0.0
 12
-463.40020092418149
 22
62.329117018996058
 32
0.0
 13
-463.40020092418149
 23
62.329117018996058
 33
0.0
210
0.0
220
0.0
230
1.0
  0
SOLID
  5
7F2
  8
0
  6
CONTINUOUS
 10
464.45566393970358
 20
62.371774167515611
 30
0.0
 11
463.38253175473261
 21
62.371774167515611
 31
0.0
 12
463.40020092418149
 22
62.329117018996058
 32
0.0
 13
463.40020092418149
 23
62.329117018996058
 33
0.0
210
0.0
220
0.0
230
-1.0
  0
SOLID
  5
7F3
  8
0
  6
CONTINUOUS
 10
-461.19979907582098
 20
62.329117018996058
 30
0.0
 11
-461.0925927171391
 21
62.07029797389356
 31
0.0
 12
-460.0925927171391
 22
62.07029797389356
 32
0.0
 13
-460.0925927171391
 23
62.07029797389356
 33
0.0
210
0.0
220
0.0
230
1.0
  0
SOLID
  5
7F4
  8
0
  6
CONTINUOUS
 10
461.19979907582098
 20
62.329117018996058
 30
0.0
 11
460.12666689085
 21
62.329117018996058
 31
0.0
 12
460.0925927171391
 22
62.07029797389356
 32
0.0
 13
460.0925927171391
 23
62.07029797389356
 33
0.0
210
0.0
220
0.0
230
-1.0
  0
SOLID
  5
7F5
  8
0
  6
CONTINUOUS
 10
-464.47333310915258
 20
62.329117018996058
 30
0.0
 11
-464.50740728286348
 21
62.07029797389356
 31
0.0
 12
-463.50740728286348
 22
62.07029797389356
 32
0.0
 13
-463.50740728286348
 23
62.07029797389356
 33
0.0
210
0.0
220
0.0
230
1.0
  0
SOLID
  5
7F6
  8
0
  6
CONTINUOUS
 10
464.47333310915258
 20
62.329117018996058
 30
0.0
 11
463.40020092418149
 21
62.329117018996058
 31
0.0
 12
463.50740728286348
 22
62.07029797389356
 32
0.0
 13
463.50740728286348
 23
62.07029797389356
 33
0.0
210
0.0
220
0.0
230
-1.0
  0
SOLID
  5
7F7
  8
0
  6
CONTINUOUS
 10
-461.0925927171391
 20
62.07029797389356
 30
0.0
 11
-461.05000000000041
 21
61.746774167515213
 31
0.0
 12
-460.0500000000003
 22
61.746774167515213
 32
0.0
 13
-460.0500000000003
 23
61.746774167515213
 33
0.0
210
0.0
220
0.0
230
1.0
  0
SOLID
  5
7F8
  8
0
  6
CONTINUOUS
 10
461.0925927171391
 20
62.07029797389356
 30
0.0
 11
460.0925927171391
 21
62.07029797389356
 31
0.0
 12
460.0500000000003
 22
61.746774167515213
 32
0.0
 13
460.0500000000003
 23
61.746774167515213
 33
0.0
210
0.0
220
0.0
230
-1.0
  0
SOLID
  5
7F9
  8
0
  6
CONTINUOUS
 10
-464.50740728286348
 20
62.07029797389356
 30
0.0
 11
-464.55000000000229
 21
61.746774167515213
 31
0.0
 12
-463.50999574841262
 22
61.746774167515213
 32
0.0
 13
-463.50999574841262
 23
61.746774167515213
 33
0.0
210
0.0
220
0.0
230
1.0
  0
SOLID
  5
7FA
  8
0
  6
CONTINUOUS
 10
464.50740728286348
 20
62.07029797389356
 30
0.0
 11
463.50740728286348
 21
62.07029797389356
 31
0.0
 12
463.50999574841262
 22
61.746774167515213
 32
0.0
 13
463.50999574841262
 23
61.746774167515213
 33
0.0
210
0.0
220
0.0
230
-1.0
  0
SOLID
  5
7FB
  8
0
  6
CONTINUOUS
 10
-588.71176953181839
 20
62.577056469710357
 30
0.0
 11
-587.37036066419319
 21
61.731187300898959
 31
0.0
 12
-585.66951618625092
 22
61.731187300898959
 32
0.0
 13
-585.66951618625092
 23
61.731187300898959
 33
0.0
210
0.0
220
0.0
230
1.0
  0
SOLID
  5
7FC
  8
0
  6
CONTINUOUS
 10
588.71176953181839
 20
62.577056469710357
 30
0.0
 11
586.83697023565651
 21
62.577056469710357
 31
0.0
 12
585.66951618625092
 22
61.731187300898959
 32
0.0
 13
585.66951618625092
 23
61.731187300898959
 33
0.0
210
0.0
220
0.0
230
-1.0
  0
SOLID
  5
7FD
  8
0
  6
CONTINUOUS
 10
-587.37036066419319
 20
61.731187300898959
 30
0.0
 11
-585.42109144315145
 21
60.318860420340897
 31
0.0
 12
-583.72024696520941
 22
60.318860420340897
 32
0.0
 13
-583.72024696520941
 23
60.318860420340897
 33
0.0
210
0.0
220
0.0
230
1.0
  0
SOLID
  5
7FE
  8
0
  6
CONTINUOUS
 10
587.37036066419319
 20
61.731187300898959
 30
0.0
 11
585.66951618625092
 21
61.731187300898959
 31
0.0
 12
583.72024696520941
 22
60.318860420340897
 32
0.0
 13
583.72024696520941
 23
60.318860420340897
 33
0.0
210
0.0
220
0.0
230
-1.0
  0
SOLID
  5
7FF
  8
0
  6
CONTINUOUS
 10
-585.42109144315145
 20
60.318860420340897
 30
0.0
 11
-584.35666956797581
 21
59.547642360599909
 31
0.0
 12
-582.89544810790096
 22
59.547642360599909
 32
0.0
 13
-582.89544810790096
 23
59.547642360599909
 33
0.0
  0
SOLID
  5
800
  8
0
  6
CONTINUOUS
 10
585.42109144315145
 20
60.318860420340897
 30
0.0
 11
583.72024696520941
 21
60.318860420340897
 31
0.0
 12
582.89544810790096
 22
59.547642360599909
 32
0.0
 13
582.89544810790096
 23
59.547642360599909
 33
0.0
210
0.0
220
0.0
230
-1.0
  0
SOLID
  5
801
  8
0
  6
CONTINUOUS
 10
-584.35666956797581
 20
59.547642360599909
 30
0.0
 11
-582.4142626739424
 21
57.731418607656451
 31
0.0
 12
-580.95304121386744
 22
57.731418607656451
 32
0.0
 13
-580.95304121386744
 23
57.731418607656451
 33
0.0
210
0.0
220
0.0
230
1.0
  0
SOLID
  5
802
  8
0
  6
CONTINUOUS
 10
584.35666956797581
 20
59.547642360599909
 30
0.0
 11
582.89544810790096
 21
59.547642360599909
 31
0.0
 12
580.95304121386744
 22
57.731418607656451
 32
0.0
 13
580.95304121386744
 23
57.731418607656451
 33
0.0
210
0.0
220
0.0
230
-1.0
  0
SOLID
  5
803
  8
0
  6
CONTINUOUS
 10
-582.4142626739424
 20
57.731418607656451
 30
0.0
 11
-581.68094169271149
 21
57.045735814450381
 31
0.0
 12
-580.38524380978288
 22
57.045735814450381
 32
0.0
 13
-580.38524380978288
 23
57.045735814450381
 33
0.0
210
0.0
220
0.0
230
1.0
  0
SOLID
  5
804
  8
0
  6
CONTINUOUS
 10
582.4142626739424
 20
57.731418607656451
 30
0.0
 11
580.95304121386744
 21
57.731418607656451
 31
0.0
 12
580.38524380978288
 22
57.045735814450381
 32
0.0
 13
580.38524380978288
 23
57.045735814450381
 33
0.0
210
0.0
220
0.0
230
-1.0
  0
SOLID
  5
805
  8
0
  6
CONTINUOUS
 10
-464.55000000000229
 20
61.746774167515213
 30
0.0
 11
-464.55000000000229
 21
56.746774167515142
 31
0.0
 12
-463.55000000000223
 22
56.746774167515142
 32
0.0
 13
-463.55000000000223
 23
56.746774167515142
 33
0.0
  0
SOLID
  5
806
  8
0
  6
CONTINUOUS
 10
464.55000000000229
 20
61.746774167515213
 30
0.0
 11
463.50999574841262
 21
61.746774167515213
 31
0.0
 12
463.55000000000223
 22
56.746774167515142
 32
0.0
 13
463.55000000000223
 23
56.746774167515142
 33
0.0
210
0.0
220
0.0
230
-1.0
  0
SOLID
  5
807
  8
0
  6
CONTINUOUS
 10
-581.68094169271149
 20
57.045735814450381
 30
0.0
 11
-579.81324934043926
 21
54.790275504588081
 31
0.0
 12
-578.51755145751076
 22
54.790275504588081
 32
0.0
 13
-578.51755145751076
 23
54.790275504588081
 33
0.0
210
0.0
220
0.0
230
1.0
  0
SOLID
  5
808
  8
0
  6
CONTINUOUS
 10
581.68094169271149
 20
57.045735814450381
 30
0.0
 11
580.38524380978288
 21
57.045735814450381
 31
0.0
 12
578.51755145751076
 22
54.790275504588081
 32
0.0
 13
578.51755145751076
 23
54.790275504588081
 33
0.0
210
0.0
220
0.0
230
-1.0
  0
SOLID
  5
809
  8
0
  6
CONTINUOUS
 10
-579.81324934043926
 20
54.790275504588081
 30
0.0
 11
-579.32596399441616
 21
54.201820582557822
 31
0.0
 12
-578.14301842901477
 22
54.201820582557822
 32
0.0
 13
-578.14301842901477
 23
54.201820582557822
 33
0.0
210
0.0
220
0.0
230
1.0
  0
SOLID
  5
80A
  8
0
  6
CONTINUOUS
 10
579.81324934043926
 20
54.790275504588081
 30
0.0
 11
578.51755145751076
 21
54.790275504588081
 31
0.0
 12
578.14301842901477
 22
54.201820582557822
 32
0.0
 13
578.14301842901477
 23
54.201820582557822
 33
0.0
210
0.0
220
0.0
230
-1.0
  0
SOLID
  5
80B
  8
0
  6
CONTINUOUS
 10
-461.05000000000041
 20
61.746774167515213
 30
0.0
 11
-461.05000000000041
 21
53.308025051088308
 31
0.0
 12
-460.0500000000003
 22
53.308025051088308
 32
0.0
 13
-460.0500000000003
 23
53.308025051088308
 33
0.0
210
0.0
220
0.0
230
1.0
  0
SOLID
  5
80C
  8
0
  6
CONTINUOUS
 10
461.05000000000041
 20
61.746774167515213
 30
0.0
 11
460.0500000000003
 21
61.746774167515213
 31
0.0
 12
460.0500000000003
 22
53.308025051088308
 32
0.0
 13
460.0500000000003
 23
53.308025051088308
 33
0.0
210
0.0
220
0.0
230
-1.0
  0
SOLID
  5
80D
  8
0
  6
CONTINUOUS
 10
-579.32596399441616
 20
54.201820582557822
 30
0.0
 11
-577.65012783390011
 21
51.56879769234191
 31
0.0
 12
-576.46718226849885
 22
51.56879769234191
 32
0.0
 13
-576.46718226849885
 23
51.56879769234191
 33
0.0
210
0.0
220
0.0
230
1.0
  0
SOLID
  5
80E
  8
0
  6
CONTINUOUS
 10
579.32596399441616
 20
54.201820582557822
 30
0.0
 11
578.14301842901477
 21
54.201820582557822
 31
0.0
 12
576.46718226849885
 22
51.56879769234191
 32
0.0
 13
576.46718226849885
 23
51.56879769234191
 33
0.0
210
0.0
220
0.0
230
-1.0
  0
SOLID
  5
80F
  8
0
  6
CONTINUOUS
 10
-577.65012783390011
 20
51.56879769234191
 30
0.0
 11
-577.34337560504071
 21
51.086837904600699
 31
0.0
 12
-576.24059447058028
 22
51.086837904600699
 32
0.0
 13
-576.24059447058028
 23
51.086837904600699
 33
0.0
210
0.0
220
0.0
230
1.0
  0
SOLID
  5
810
  8
0
  6
CONTINUOUS
 10
577.65012783390011
 20
51.56879769234191
 30
0.0
 11
576.46718226849885
 21
51.56879769234191
 31
0.0
 12
576.24059447058028
 22
51.086837904600699
 32
0.0
 13
576.24059447058028
 23
51.086837904600699
 33
0.0
210
0.0
220
0.0
230
-1.0
  0
SOLID
  5
811
  8
0
  6
CONTINUOUS
 10
-577.34337560504071
 20
51.086837904600699
 30
0.0
 11
-576.1066627691016
 21
48.456308540788953
 31
0.0
 12
-575.00388163464117
 22
48.456308540788953
 32
0.0
 13
-575.00388163464117
 23
48.456308540788953
 33
0.0
210
0.0
220
0.0
230
1.0
  0
SOLID
  5
812
  8
0
  6
CONTINUOUS
 10
577.34337560504071
 20
51.086837904600699
 30
0.0
 11
576.24059447058028
 21
51.086837904600699
 31
0.0
 12
575.00388163464117
 22
48.456308540788953
 32
0.0
 13
575.00388163464117
 23
48.456308540788953
 33
0.0
210
0.0
220
0.0
230
-1.0
  0
SOLID
  5
813
  8
0
  6
CONTINUOUS
 10
-576.1066627691016
 20
48.456308540788953
 30
0.0
 11
-575.78481565653613
 21
47.77172902025778
 31
0.0
 12
-574.77248465125626
 22
47.77172902025778
 32
0.0
 13
-574.77248465125626
 23
47.77172902025778
 33
0.0
210
0.0
220
0.0
230
1.0
  0
SOLID
  5
814
  8
0
  6
CONTINUOUS
 10
576.1066627691016
 20
48.456308540788953
 30
0.0
 11
575.00388163464117
 21
48.456308540788953
 31
0.0
 12
574.77248465125626
 22
47.77172902025778
 32
0.0
 13
574.77248465125626
 23
47.77172902025778
 33
0.0
210
0.0
220
0.0
230
-1.0
  0
SOLID
  5
815
  8
0
  6
CONTINUOUS
 10
-575.78481565653613
 20
47.77172902025778
 30
0.0
 11
-574.82297987289905
 21
44.816365783680382
 31
0.0
 12
-573.77353256864069
 22
44.816365783680382
 32
0.0
 13
-573.77353256864069
 23
44.816365783680382
 33
0.0
210
0.0
220
0.0
230
1.0
  0
SOLID
  5
816
  8
0
  6
CONTINUOUS
 10
575.78481565653613
 20
47.77172902025778
 30
0.0
 11
574.77248465125626
 21
47.77172902025778
 31
0.0
 12
573.77353256864069
 22
44.816365783680382
 32
0.0
 13
573.77353256864069
 23
44.816365783680382
 33
0.0
210
0.0
220
0.0
230
-1.0
  0
SOLID
  5
817
  8
0
  6
CONTINUOUS
 10
-574.82297987289905
 20
44.816365783680382
 30
0.0
 11
-574.63307110491826
 21
44.232846849635962
 31
0.0
 12
-573.62374381456834
 22
44.232846849635962
 32
0.0
 13
-573.62374381456834
 23
44.232846849635962
 33
0.0
210
0.0
220
0.0
230
1.0
  0
SOLID
  5
818
  8
0
  6
CONTINUOUS
 10
574.82297987289905
 20
44.816365783680382
 30
0.0
 11
573.77353256864069
 21
44.816365783680382
 31
0.0
 12
573.62374381456834
 22
44.232846849635962
 32
0.0
 13
573.62374381456834
 23
44.232846849635962
 33
0.0
210
0.0
220
0.0
230
-1.0
  0
SOLID
  5
819
  8
0
  6
CONTINUOUS
 10
-574.63307110491826
 20
44.232846849635962
 30
0.0
 11
-569.34373791779637
 21
23.538754099449172
 31
0.0
 12
-568.31158993427562
 22
23.538754099449172
 32
0.0
 13
-568.31158993427562
 23
23.538754099449172
 33
0.0
210
0.0
220
0.0
230
1.0
  0
SOLID
  5
81A
  8
0
  6
CONTINUOUS
 10
574.63307110491826
 20
44.232846849635962
 30
0.0
 11
573.62374381456834
 21
44.232846849635962
 31
0.0
 12
568.31158993427562
 22
23.538754099449172
 32
0.0
 13
568.31158993427562
 23
23.538754099449172
 33
0.0
210
0.0
220
0.0
230
-1.0
  0
SOLID
  5
81B
  8
0
  6
CONTINUOUS
 10
-569.34373791779637
 20
23.538754099449172
 30
0.0
 11
-569.18550125762431
 21
22.91966583137507
 31
0.0
 12
-568.08835855907034
 22
22.91966583137507
 32
0.0
 13
-568.08835855907034
 23
22.91966583137507
 33
0.0
210
0.0
220
0.0
230
1.0
  0
SOLID
  5
81C
  8
0
  6
CONTINUOUS
 10
569.34373791779637
 20
23.538754099449172
 30
0.0
 11
568.31158993427562
 21
23.538754099449172
 31
0.0
 12
568.08835855907034
 22
22.91966583137507
 32
0.0
 13
568.08835855907034
 23
22.91966583137507
 33
0.0
210
0.0
220
0.0
230
-1.0
  0
SOLID
  5
81D
  8
0
  6
CONTINUOUS
 10
-569.18550125762431
 20
22.91966583137507
 30
0.0
 11
-567.18912495653456
 21
17.48654477382312
 31
0.0
 12
-566.12927913876888
 22
17.48654477382312
 32
0.0
 13
-566.12927913876888
 23
17.48654477382312
 33
0.0
210
0.0
220
0.0
230
1.0
  0
SOLID
  5
81E
  8
0
  6
CONTINUOUS
 10
569.18550125762431
 20
22.91966583137507
 30
0.0
 11
568.08835855907034
 21
22.91966583137507
 31
0.0
 12
566.12927913876888
 22
17.48654477382312
 32
0.0
 13
566.12927913876888
 23
17.48654477382312
 33
0.0
210
0.0
220
0.0
230
-1.0
  0
SOLID
  5
81F
  8
0
  6
CONTINUOUS
 10
-567.18912495653456
 20
17.48654477382312
 30
0.0
 11
-567.02796880109827
 21
17.047959672819442
 31
0.0
 12
-565.85679722226814
 22
17.047959672819442
 32
0.0
 13
-565.85679722226814
 23
17.047959672819442
 33
0.0
210
0.0
220
0.0
230
1.0
  0
SOLID
  5
820
  8
0
  6
CONTINUOUS
 10
567.18912495653456
 20
17.48654477382312
 30
0.0
 11
566.12927913876888
 21
17.48654477382312
 31
0.0
 12
565.85679722226814
 22
17.047959672819442
 32
0.0
 13
565.85679722226814
 23
17.047959672819442
 33
0.0
210
0.0
220
0.0
230
-1.0
  0
SOLID
  5
821
  8
0
  6
CONTINUOUS
 10
-567.02796880109827
 20
17.047959672819442
 30
0.0
 11
-564.10661818503218
 21
12.34577293151704
 31
0.0
 12
-562.93544660620216
 22
12.34577293151704
 32
0.0
 13
-562.93544660620216
 23
12.34577293151704
 33
0.0
210
0.0
220
0.0
230
1.0
  0
SOLID
  5
822
  8
0
  6
CONTINUOUS
 10
567.02796880109827
 20
17.047959672819442
 30
0.0
 11
565.85679722226814
 21
17.047959672819442
 31
0.0
 12
562.93544660620216
 22
12.34577293151704
 32
0.0
 13
562.93544660620216
 23
12.34577293151704
 33
0.0
210
0.0
220
0.0
230
-1.0
  0
SOLID
  5
823
  8
0
  6
CONTINUOUS
 10
-564.10661818503218
 20
12.34577293151704
 30
0.0
 11
-563.72678055315123
 21
11.7343887769905
 31
0.0
 12
-562.35470349060211
 22
11.7343887769905
 32
0.0
 13
-562.35470349060211
 23
11.7343887769905
 33
0.0
210
0.0
220
0.0
230
1.0
  0
SOLID
  5
824
  8
0
  6
CONTINUOUS
 10
564.10661818503218
 20
12.34577293151704
 30
0.0
 11
562.93544660620216
 21
12.34577293151704
 31
0.0
 12
562.35470349060211
 22
11.7343887769905
 32
0.0
 13
562.35470349060211
 23
11.7343887769905
 33
0.0
210
0.0
220
0.0
230
-1.0
  0
SOLID
  5
825
  8
0
  6
CONTINUOUS
 10
-563.72678055315123
 20
11.7343887769905
 30
0.0
 11
-560.1394034039206
 21
7.9577352335664191
 31
0.0
 12
-558.76732634137136
 22
7.9577352335664191
 32
0.0
 13
-558.76732634137136
 23
7.9577352335664191
 33
0.0
210
0.0
220
0.0
230
1.0
  0
SOLID
  5
826
  8
0
  6
CONTINUOUS
 10
563.72678055315123
 20
11.7343887769905
 30
0.0
 11
562.35470349060211
 21
11.7343887769905
 31
0.0
 12
558.76732634137136
 22
7.9577352335664191
 32
0.0
 13
558.76732634137136
 23
7.9577352335664191
 33
0.0
210
0.0
220
0.0
230
-1.0
  0
SOLID
  5
827
  8
0
  6
CONTINUOUS
 10
-560.1394034039206
 20
7.9577352335664191
 30
0.0
 11
-559.41855540546896
 21
7.1988540135624826
 31
0.0
 12
-557.8829974042518
 22
7.1988540135624826
 32
0.0
 13
-557.8829974042518
 23
7.1988540135624826
 33
0.0
210
0.0
220
0.0
230
1.0
  0
SOLID
  5
828
  8
0
  6
CONTINUOUS
 10
560.1394034039206
 20
7.9577352335664191
 30
0.0
 11
558.76732634137136
 21
7.9577352335664191
 31
0.0
 12
557.8829974042518
 22
7.1988540135624826
 32
0.0
 13
557.8829974042518
 23
7.1988540135624826
 33
0.0
210
0.0
220
0.0
230
-1.0
  0
SOLID
  5
829
  8
0
  6
CONTINUOUS
 10
-559.41855540546896
 20
7.1988540135624826
 30
0.0
 11
-556.40982853723256
 21
4.6169342995445009
 31
0.0
 12
-554.87427053601527
 22
4.6169342995445009
 32
0.0
 13
-554.87427053601527
 23
4.6169342995445009
 33
0.0
210
0.0
220
0.0
230
1.0
  0
SOLID
  5
82A
  8
0
  6
CONTINUOUS
 10
559.41855540546896
 20
7.1988540135624826
 30
0.0
 11
557.8829974042518
 21
7.1988540135624826
 31
0.0
 12
554.87427053601527
 22
4.6169342995445009
 32
0.0
 13
554.87427053601527
 23
4.6169342995445009
 33
0.0
210
0.0
220
0.0
230
-1.0
  0
SOLID
  5
82B
  8
0
  6
CONTINUOUS
 10
-556.40982853723256
 20
4.6169342995445009
 30
0.0
 11
-555.52549960011265
 21
3.8580530795404311
 31
0.0
 12
-554.08631069543844
 22
3.8580530795404311
 32
0.0
 13
-554.08631069543844
 23
3.8580530795404311
 33
0.0
210
0.0
220
0.0
230
1.0
  0
SOLID
  5
82C
  8
0
  6
CONTINUOUS
 10
556.40982853723256
 20
4.6169342995445009
 30
0.0
 11
554.87427053601527
 21
4.6169342995445009
 31
0.0
 12
554.08631069543844
 22
3.8580530795404311
 32
0.0
 13
554.08631069543844
 23
3.8580530795404311
 33
0.0
210
0.0
220
0.0
230
-1.0
  0
SOLID
  5
82D
  8
0
  6
CONTINUOUS
 10
-555.52549960011265
 20
3.8580530795404311
 30
0.0
 11
-554.89356305433193
 21
3.246127752762539
 31
0.0
 12
-553.45093776720842
 22
3.246127752762539
 32
0.0
 13
-553.45093776720842
 23
3.246127752762539
 33
0.0
210
0.0
220
0.0
230
1.0
  0
SOLID
  5
82E
  8
0
  6
CONTINUOUS
 10
555.52549960011265
 20
3.8580530795404311
 30
0.0
 11
554.08631069543844
 21
3.8580530795404311
 31
0.0
 12
553.45093776720842
 22
3.246127752762539
 32
0.0
 13
553.45093776720842
 23
3.246127752762539
 33
0.0
210
0.0
220
0.0
230
-1.0
  0
SOLID
  5
82F
  8
0
  6
CONTINUOUS
 10
-554.89356305433193
 20
3.246127752762539
 30
0.0
 11
-553.90064184144535
 21
2.28464888005443
 31
0.0
 12
-552.63399644701985
 22
2.28464888005443
 32
0.0
 13
-552.63399644701985
 23
2.28464888005443
 33
0.0
210
0.0
220
0.0
230
1.0
  0
SOLID
  5
830
  8
0
  6
CONTINUOUS
 10
554.89356305433193
 20
3.246127752762539
 30
0.0
 11
553.45093776720842
 21
3.246127752762539
 31
0.0
 12
552.63399644701985
 22
2.28464888005443
 32
0.0
 13
552.63399644701985
 23
2.28464888005443
 33
0.0
210
0.0
220
0.0
230
-1.0
  0
SOLID
  5
831
  8
0
  6
CONTINUOUS
 10
-553.90064184144535
 20
2.28464888005443
 30
0.0
 11
-553.0167993855996
 21
1.2124448834022981
 31
0.0
 12
-551.72297513037972
 22
1.2124448834022981
 32
0.0
 13
-551.72297513037972
 23
1.2124448834022981
 33
0.0
210
0.0
220
0.0
230
1.0
  0
SOLID
  5
832
  8
0
  6
CONTINUOUS
 10
553.90064184144535
 20
2.28464888005443
 30
0.0
 11
552.63399644701985
 21
2.28464888005443
 31
0.0
 12
551.72297513037972
 22
1.2124448834022981
 32
0.0
 13
551.72297513037972
 23
1.2124448834022981
 33
0.0
210
0.0
220
0.0
230
-1.0
  0
SOLID
  5
833
  8
0
  6
CONTINUOUS
 10
-553.0167993855996
 20
1.2124448834022981
 30
0.0
 11
-552.52982372068152
 21
0.6216865975289423
 31
0.0
 12
-551.29043381281031
 22
0.6216865975289423
 32
0.0
 13
-551.29043381281031
 23
0.6216865975289423
 33
0.0
210
0.0
220
0.0
230
1.0
  0
SOLID
  5
834
  8
0
  6
CONTINUOUS
 10
553.0167993855996
 20
1.2124448834022981
 30
0.0
 11
551.72297513037972
 21
1.2124448834022981
 31
0.0
 12
551.29043381281031
 22
0.6216865975289423
 32
0.0
 13
551.29043381281031
 23
0.6216865975289423
 33
0.0
210
0.0
220
0.0
230
-1.0
  0
SOLID
  5
835
  8
0
  6
CONTINUOUS
 10
-552.52982372068152
 20
0.6216865975289423
 30
0.0
 11
-552.25099161407923
 21
0.2181559307878516
 31
0.0
 12
-550.99497678673788
 22
0.2181559307878516
 32
0.0
 13
-550.99497678673788
 23
0.2181559307878516
 33
0.0
210
0.0
220
0.0
230
1.0
  0
SOLID
  5
836
  8
0
  6
CONTINUOUS
 10
552.52982372068152
 20
0.6216865975289423
 30
0.0
 11
551.29043381281031
 21
0.6216865975289423
 31
0.0
 12
550.99497678673788
 22
0.2181559307878516
 32
0.0
 13
550.99497678673788
 23
0.2181559307878516
 33
0.0
210
0.0
220
0.0
230
-1.0
  0
SOLID
  5
837
  8
0
  6
CONTINUOUS
 10
-552.25099161407923
 20
0.2181559307878516
 30
0.0
 11
-551.89517232271851
 21
-0.2967919266583596
 31
0.0
 12
-550.71289155138209
 22
-0.2967919266583596
 32
0.0
 13
-550.71289155138209
 23
-0.2967919266583596
 33
0.0
210
0.0
220
0.0
230
1.0
  0
SOLID
  5
838
  8
0
  6
CONTINUOUS
 10
552.25099161407923
 20
0.2181559307878516
 30
0.0
 11
550.99497678673788
 21
0.2181559307878516
 31
0.0
 12
550.71289155138209
 22
-0.2967919266583596
 32
0.0
 13
550.71289155138209
 23
-0.2967919266583596
 33
0.0
210
0.0
220
0.0
230
-1.0
  0
SOLID
  5
839
  8
0
  6
CONTINUOUS
 10
-551.89517232271851
 20
-0.2967919266583596
 30
0.0
 11
-551.64511135739747
 21
-0.6586844981112066
 31
0.0
 12
-550.62454257538423
 22
-0.6586844981112066
 32
0.0
 13
-550.62454257538423
 23
-0.6586844981112066
 33
0.0
210
0.0
220
0.0
230
1.0
  0
SOLID
  5
83A
  8
0
  6
CONTINUOUS
 10
551.89517232271851
 20
-0.2967919266583596
 30
0.0
 11
550.71289155138209
 21
-0.2967919266583596
 31
0.0
 12
550.62454257538423
 22
-0.6586844981112066
 32
0.0
 13
550.62454257538423
 23
-0.6586844981112066
 33
0.0
210
0.0
220
0.0
230
-1.0
  0
SOLID
  5
83B
  8
0
  6
CONTINUOUS
 10
-551.64511135739747
 20
-0.6586844981112066
 30
0.0
 11
-551.59420914381815
 21
-0.8671887026794635
 31
0.0
 12
-550.57364036180479
 22
-0.8671887026794635
 32
0.0
 13
-550.57364036180479
 23
-0.8671887026794635
 33
0.0
210
0.0
220
0.0
230
1.0
  0
SOLID
  5
83C
  8
0
  6
CONTINUOUS
 10
551.64511135739747
 20
-0.6586844981112066
 30
0.0
 11
550.62454257538423
 21
-0.6586844981112066
 31
0.0
 12
550.57364036180479
 22
-0.8671887026794635
 32
0.0
 13
550.57364036180479
 23
-0.8671887026794635
 33
0.0
210
0.0
220
0.0
230
-1.0
  0
SOLID
  5
83D
  8
0
  6
CONTINUOUS
 10
-551.59420914381815
 20
-0.8671887026794635
 30
0.0
 11
-551.56774958541007
 21
-0.9755715959006199
 31
0.0
 12
-550.57605274686512
 22
-0.9755715959006199
 32
0.0
 13
-550.57605274686512
 23
-0.9755715959006199
 33
0.0
  0
SOLID
  5
83E
  8
0
  6
CONTINUOUS
 10
551.59420914381815
 20
-0.8671887026794635
 30
0.0
 11
550.57364036180479
 21
-0.8671887026794635
 31
0.0
 12
550.57605274686512
 22
-0.9755715959006199
 32
0.0
 13
550.57605274686512
 23
-0.9755715959006199
 33
0.0
210
0.0
220
0.0
230
-1.0
  0
SOLID
  5
83F
  8
0
  6
CONTINUOUS
 10
-551.56774958541007
 20
-0.9755715959006199
 30
0.0
 11
-551.57500820101609
 21
-1.301684442948895
 31
0.0
 12
-550.58331136247114
 22
-1.301684442948895
 32
0.0
 13
-550.58331136247114
 23
-1.301684442948895
 33
0.0
210
0.0
220
0.0
230
1.0
  0
SOLID
  5
840
  8
0
  6
CONTINUOUS
 10
551.56774958541007
 20
-0.9755715959006199
 30
0.0
 11
550.57605274686512
 21
-0.9755715959006199
 31
0.0
 12
550.58331136247114
 22
-1.301684442948895
 32
0.0
 13
550.58331136247114
 23
-1.301684442948895
 33
0.0
210
0.0
220
0.0
230
-1.0
  0
SOLID
  5
841
  8
0
  6
CONTINUOUS
 10
-551.57500820101609
 20
-1.301684442948895
 30
0.0
 11
-551.59854199383381
 21
-1.4541918273664951
 31
0.0
 12
-550.5867058698957
 22
-1.4541918273664951
 32
0.0
 13
-550.5867058698957
 23
-1.4541918273664951
 33
0.0
210
0.0
220
0.0
230
1.0
  0
SOLID
  5
842
  8
0
  6
CONTINUOUS
 10
551.57500820101609
 20
-1.301684442948895
 30
0.0
 11
550.58331136247114
 21
-1.301684442948895
 31
0.0
 12
550.5867058698957
 22
-1.4541918273664951
 32
0.0
 13
550.5867058698957
 23
-1.4541918273664951
 33
0.0
210
0.0
220
0.0
230
-1.0
  0
SOLID
  5
843
  8
0
  6
CONTINUOUS
 10
-551.59854199383381
 20
-1.4541918273664951
 30
0.0
 11
-552.049905861154
 21
-4.3791909279641397
 31
0.0
 12
-551.03806973721578
 22
-4.3791909279641397
 32
0.0
 13
-551.03806973721578
 23
-4.3791909279641397
 33
0.0
210
0.0
220
0.0
230
1.0
  0
SOLID
  5
844
  8
0
  6
CONTINUOUS
 10
551.59854199383381
 20
-1.4541918273664951
 30
0.0
 11
550.5867058698957
 21
-1.4541918273664951
 31
0.0
 12
551.03806973721578
 22
-4.3791909279641397
 32
0.0
 13
551.03806973721578
 23
-4.3791909279641397
 33
0.0
210
0.0
220
0.0
230
-1.0
  0
SOLID
  5
845
  8
0
  6
CONTINUOUS
 10
-552.049905861154
 20
-4.3791909279641397
 30
0.0
 11
-552.05695908776818
 21
-4.5316983123817396
 31
0.0
 12
-551.06160353003361
 22
-4.5316983123817396
 32
0.0
 13
-551.06160353003361
 23
-4.5316983123817396
 33
0.0
  0
SOLID
  5
846
  8
0
  6
CONTINUOUS
 10
552.049905861154
 20
-4.3791909279641397
 30
0.0
 11
551.03806973721578
 21
-4.3791909279641397
 31
0.0
 12
551.06160353003361
 22
-4.5316983123817396
 32
0.0
 13
551.06160353003361
 23
-4.5316983123817396
 33
0.0
210
0.0
220
0.0
230
-1.0
  0
SOLID
  5
847
  8
0
  6
CONTINUOUS
 10
-552.05695908776818
 20
-4.5316983123817396
 30
0.0
 11
-552.10378257093691
 21
-5.544132385157333
 31
0.0
 12
-551.10842701320212
 22
-5.544132385157333
 32
0.0
 13
-551.10842701320212
 23
-5.544132385157333
 33
0.0
210
0.0
220
0.0
230
1.0
  0
SOLID
  5
848
  8
0
  6
CONTINUOUS
 10
552.05695908776818
 20
-4.5316983123817396
 30
0.0
 11
551.06160353003361
 21
-4.5316983123817396
 31
0.0
 12
551.10842701320212
 22
-5.544132385157333
 32
0.0
 13
551.10842701320212
 23
-5.544132385157333
 33
0.0
210
0.0
220
0.0
230
-1.0
  0
SOLID
  5
849
  8
0
  6
CONTINUOUS
 10
-552.10378257093691
 20
-5.544132385157333
 30
0.0
 11
-552.10658691972651
 21
-5.604769016060926
 31
0.0
 12
-551.09817037197536
 22
-5.604769016060926
 32
0.0
 13
-551.09817037197536
 23
-5.604769016060926
 33
0.0
210
0.0
220
0.0
230
1.0
  0
SOLID
  5
84A
  8
0
  6
CONTINUOUS
 10
552.10378257093691
 20
-5.544132385157333
 30
0.0
 11
551.10842701320212
 21
-5.544132385157333
 31
0.0
 12
551.09817037197536
 22
-5.604769016060926
 32
0.0
 13
551.09817037197536
 23
-5.604769016060926
 33
0.0
210
0.0
220
0.0
230
-1.0
  0
SOLID
  5
84B
  8
0
  6
CONTINUOUS
 10
-552.10658691972651
 20
-5.604769016060926
 30
0.0
 11
-551.94780914552723
 21
-6.5434534330165954
 31
0.0
 12
-550.93939259777619
 22
-6.5434534330165954
 32
0.0
 13
-550.93939259777619
 23
-6.5434534330165954
 33
0.0
210
0.0
220
0.0
230
1.0
  0
SOLID
  5
84C
  8
0
  6
CONTINUOUS
 10
552.10658691972651
 20
-5.604769016060926
 30
0.0
 11
551.09817037197536
 21
-5.604769016060926
 31
0.0
 12
550.93939259777619
 22
-6.5434534330165954
 32
0.0
 13
550.93939259777619
 23
-6.5434534330165954
 33
0.0
210
0.0
220
0.0
230
-1.0
  0
SOLID
  5
84D
  8
0
  6
CONTINUOUS
 10
-551.94780914552723
 20
-6.5434534330165954
 30
0.0
 11
-551.90196631157914
 21
-6.8144734424169018
 31
0.0
 12
-550.83072183541003
 22
-6.8144734424169018
 32
0.0
 13
-550.83072183541003
 23
-6.8144734424169018
 33
0.0
  0
SOLID
  5
84E
  8
0
  6
CONTINUOUS
 10
551.94780914552723
 20
-6.5434534330165954
 30
0.0
 11
550.93939259777619
 21
-6.5434534330165954
 31
0.0
 12
550.83072183541003
 22
-6.8144734424169018
 32
0.0
 13
550.83072183541003
 23
-6.8144734424169018
 33
0.0
210
0.0
220
0.0
230
-1.0
  0
SOLID
  5
84F
  8
0
  6
CONTINUOUS
 10
-551.90196631157914
 20
-6.8144734424169018
 30
0.0
 11
-551.63344048155193
 21
-7.4841648239223284
 31
0.0
 12
-550.5621960053827
 22
-7.4841648239223284
 32
0.0
 13
-550.5621960053827
 23
-7.4841648239223284
 33
0.0
210
0.0
220
0.0
230
1.0
  0
SOLID
  5
850
  8
0
  6
CONTINUOUS
 10
551.90196631157914
 20
-6.8144734424169018
 30
0.0
 11
550.83072183541003
 21
-6.8144734424169018
 31
0.0
 12
550.5621960053827
 22
-7.4841648239223284
 32
0.0
 13
550.5621960053827
 23
-7.4841648239223284
 33
0.0
210
0.0
220
0.0
230
-1.0
  0
SOLID
  5
851
  8
0
  6
CONTINUOUS
 10
-551.63344048155193
 20
-7.4841648239223284
 30
0.0
 11
-551.44535991026078
 21
-7.9532293366712317
 31
0.0
 12
-550.31306725826664
 22
-7.9532293366712317
 32
0.0
 13
-550.31306725826664
 23
-7.9532293366712317
 33
0.0
210
0.0
220
0.0
230
1.0
  0
SOLID
  5
852
  8
0
  6
CONTINUOUS
 10
551.63344048155193
 20
-7.4841648239223284
 30
0.0
 11
550.5621960053827
 21
-7.4841648239223284
 31
0.0
 12
550.31306725826664
 22
-7.9532293366712317
 32
0.0
 13
550.31306725826664
 23
-7.9532293366712317
 33
0.0
210
0.0
220
0.0
230
-1.0
  0
SOLID
  5
853
  8
0
  6
CONTINUOUS
 10
-461.05000000000041
 20
52.3080250510884
 30
0.0
 11
-461.05000000000041
 21
-9.7532258324850432
 31
0.0
 12
-460.0500000000003
 22
-9.7532258324850432
 32
0.0
 13
-460.0500000000003
 23
-9.7532258324850432
 33
0.0
210
0.0
220
0.0
230
1.0
  0
SOLID
  5
854
  8
0
  6
CONTINUOUS
 10
461.05000000000041
 20
52.3080250510884
 30
0.0
 11
460.0500000000003
 21
52.3080250510884
 31
0.0
 12
460.0500000000003
 22
-9.7532258324850432
 32
0.0
 13
460.0500000000003
 23
-9.7532258324850432
 33
0.0
210
0.0
220
0.0
230
-1.0
  0
SOLID
  5
855
  8
0
  6
CONTINUOUS
 10
-461.05000000000041
 20
-9.7532258324850432
 30
0.0
 11
-461.10962980399449
 21
-10.20615916141443
 31
0.0
 12
-460.10962980399449
 22
-10.20615916141443
 32
0.0
 13
-460.10962980399449
 23
-10.20615916141443
 33
0.0
  0
SOLID
  5
856
  8
0
  6
CONTINUOUS
 10
461.05000000000041
 20
-9.7532258324850432
 30
0.0
 11
460.0500000000003
 21
-9.7532258324850432
 31
0.0
 12
460.10962980399449
 22
-10.20615916141443
 32
0.0
 13
460.10962980399449
 23
-10.20615916141443
 33
0.0
210
0.0
220
0.0
230
-1.0
  0
SOLID
  5
857
  8
0
  6
CONTINUOUS
 10
-551.44535991026078
 20
-7.9532293366712317
 30
0.0
 11
-550.21395194822639
 21
-10.271748505547951
 31
0.0
 12
-549.08165929623215
 22
-10.271748505547951
 32
0.0
 13
-549.08165929623215
 23
-10.271748505547951
 33
0.0
210
0.0
220
0.0
230
1.0
  0
SOLID
  5
858
  8
0
  6
CONTINUOUS
 10
551.44535991026078
 20
-7.9532293366712317
 30
0.0
 11
550.31306725826664
 21
-7.9532293366712317
 31
0.0
 12
549.08165929623215
 22
-10.271748505547951
 32
0.0
 13
549.08165929623215
 23
-10.271748505547951
 33
0.0
210
0.0
220
0.0
230
-1.0
  0
SOLID
  5
859
  8
0
  6
CONTINUOUS
 10
-461.10962980399449
 20
-10.20615916141443
 30
0.0
 11
-461.21683616267637
 21
-10.464978206516919
 31
0.0
 12
-460.1437039777054
 22
-10.464978206516919
 32
0.0
 13
-460.1437039777054
 23
-10.464978206516919
 33
0.0
  0
SOLID
  5
85A
  8
0
  6
CONTINUOUS
 10
461.10962980399449
 20
-10.20615916141443
 30
0.0
 11
460.10962980399449
 21
-10.20615916141443
 31
0.0
 12
460.1437039777054
 22
-10.464978206516919
 32
0.0
 13
460.1437039777054
 23
-10.464978206516919
 33
0.0
210
0.0
220
0.0
230
-1.0
  0
SOLID
  5
85B
  8
0
  6
CONTINUOUS
 10
-461.21683616267637
 20
-10.464978206516919
 30
0.0
 11
-461.28445554337759
 21
-10.628225832484979
 31
0.0
 12
-460.2113233584065
 22
-10.628225832484979
 32
0.0
 13
-460.2113233584065
 23
-10.628225832484979
 33
0.0
  0
SOLID
  5
85C
  8
0
  6
CONTINUOUS
 10
461.21683616267637
 20
-10.464978206516919
 30
0.0
 11
460.1437039777054
 21
-10.464978206516919
 31
0.0
 12
460.2113233584065
 22
-10.628225832484979
 32
0.0
 13
460.2113233584065
 23
-10.628225832484979
 33
0.0
210
0.0
220
0.0
230
-1.0
  0
SOLID
  5
85D
  8
0
  6
CONTINUOUS
 10
-550.21395194822639
 20
-10.271748505547951
 30
0.0
 11
-549.88721029220847
 21
-10.8869441321024
 31
0.0
 12
-548.70865424085378
 22
-10.8869441321024
 32
0.0
 13
-548.70865424085378
 23
-10.8869441321024
 33
0.0
210
0.0
220
0.0
230
1.0
  0
SOLID
  5
85E
  8
0
  6
CONTINUOUS
 10
550.21395194822639
 20
-10.271748505547951
 30
0.0
 11
549.08165929623215
 21
-10.271748505547951
 31
0.0
 12
548.70865424085378
 22
-10.8869441321024
 32
0.0
 13
548.70865424085378
 23
-10.8869441321024
 33
0.0
210
0.0
220
0.0
230
-1.0
  0
SOLID
  5
85F
  8
0
  6
CONTINUOUS
 10
-461.28445554337759
 20
-10.628225832484979
 30
0.0
 11
-461.56256313292369
 21
-10.990662699561179
 31
0.0
 12
-460.36144962425362
 22
-10.990662699561179
 32
0.0
 13
-460.36144962425362
 23
-10.990662699561179
 33
0.0
210
0.0
220
0.0
230
1.0
  0
SOLID
  5
860
  8
0
  6
CONTINUOUS
 10
461.28445554337759
 20
-10.628225832484979
 30
0.0
 11
460.2113233584065
 21
-10.628225832484979
 31
0.0
 12
460.36144962425362
 22
-10.990662699561179
 32
0.0
 13
460.36144962425362
 23
-10.990662699561179
 33
0.0
210
0.0
220
0.0
230
-1.0
  0
SOLID
  5
861
  8
0
  6
CONTINUOUS
 10
-549.88721029220847
 20
-10.8869441321024
 30
0.0
 11
-549.8042447748544
 21
-11.043153242544969
 31
0.0
 12
-548.54357446936399
 22
-11.043153242544969
 32
0.0
 13
-548.54357446936399
 23
-11.043153242544969
 33
0.0
  0
SOLID
  5
862
  8
0
  6
CONTINUOUS
 10
549.88721029220847
 20
-10.8869441321024
 30
0.0
 11
548.70865424085378
 21
-10.8869441321024
 31
0.0
 12
548.54357446936399
 22
-11.043153242544969
 32
0.0
 13
548.54357446936399
 23
-11.043153242544969
 33
0.0
210
0.0
220
0.0
230
-1.0
  0
SOLID
  5
863
  8
0
  6
CONTINUOUS
 10
-461.56256313292369
 20
-10.990662699561179
 30
0.0
 11
-461.74183889811729
 21
-11.128225832484871
 31
0.0
 12
-460.41843013959311
 22
-11.128225832484871
 32
0.0
 13
-460.41843013959311
 23
-11.128225832484871
 33
0.0
210
0.0
220
0.0
230
1.0
  0
SOLID
  5
864
  8
0
  6
CONTINUOUS
 10
461.56256313292369
 20
-10.990662699561179
 30
0.0
 11
460.36144962425362
 21
-10.990662699561179
 31
0.0
 12
460.41843013959311
 22
-11.128225832484871
 32
0.0
 13
460.41843013959311
 23
-11.128225832484871
 33
0.0
210
0.0
220
0.0
230
-1.0
  0
SOLID
  5
865
  8
0
  6
CONTINUOUS
 10
-549.8042447748544
 20
-11.043153242544969
 30
0.0
 11
-549.73382826771217
 21
-11.146860507316839
 31
0.0
 12
-548.43397797065893
 22
-11.146860507316839
 32
0.0
 13
-548.43397797065893
 23
-11.146860507316839
 33
0.0
210
0.0
220
0.0
230
1.0
  0
SOLID
  5
866
  8
0
  6
CONTINUOUS
 10
549.8042447748544
 20
-11.043153242544969
 30
0.0
 11
548.54357446936399
 21
-11.043153242544969
 31
0.0
 12
548.43397797065893
 22
-11.146860507316839
 32
0.0
 13
548.43397797065893
 23
-11.146860507316839
 33
0.0
210
0.0
220
0.0
230
-1.0
  0
SOLID
  5
867
  8
0
  6
CONTINUOUS
 10
-549.73382826771217
 20
-11.146860507316839
 30
0.0
 11
-549.65876852158465
 21
-11.257406191578619
 31
0.0
 12
-548.25009506864058
 22
-11.257406191578619
 32
0.0
 13
-548.25009506864058
 23
-11.257406191578619
 33
0.0
210
0.0
220
0.0
230
1.0
  0
SOLID
  5
868
  8
0
  6
CONTINUOUS
 10
549.73382826771217
 20
-11.146860507316839
 30
0.0
 11
548.43397797065893
 21
-11.146860507316839
 31
0.0
 12
548.25009506864058
 22
-11.257406191578619
 32
0.0
 13
548.25009506864058
 23
-11.257406191578619
 33
0.0
210
0.0
220
0.0
230
-1.0
  0
SOLID
  5
869
  8
0
  6
CONTINUOUS
 10
-461.74183889811729
 20
-11.128225832484871
 30
0.0
 11
-461.92500000000001
 21
-11.26877028910754
 31
0.0
 12
-460.52627369417053
 22
-11.26877028910754
 32
0.0
 13
-460.52627369417053
 23
-11.26877028910754
 33
0.0
210
0.0
220
0.0
230
1.0
  0
SOLID
  5
86A
  8
0
  6
CONTINUOUS
 10
461.74183889811729
 20
-11.128225832484871
 30
0.0
 11
460.41843013959311
 21
-11.128225832484871
 31
0.0
 12
460.52627369417053
 22
-11.26877028910754
 32
0.0
 13
460.52627369417053
 23
-11.26877028910754
 33
0.0
210
0.0
220
0.0
230
-1.0
  0
SOLID
  5
86B
  8
0
  6
CONTINUOUS
 10
-461.92500000000001
 20
-11.26877028910754
 30
0.0
 11
-462.34706667107059
 21
-11.443596028490569
 31
0.0
 12
-460.66042220219242
 22
-11.443596028490569
 32
0.0
 13
-460.66042220219242
 23
-11.443596028490569
 33
0.0
210
0.0
220
0.0
230
1.0
  0
SOLID
  5
86C
  8
0
  6
CONTINUOUS
 10
461.92500000000001
 20
-11.26877028910754
 30
0.0
 11
460.52627369417053
 21
-11.26877028910754
 31
0.0
 12
460.66042220219242
 22
-11.443596028490569
 32
0.0
 13
460.66042220219242
 23
-11.443596028490569
 33
0.0
210
0.0
220
0.0
230
-1.0
  0
SOLID
  5
86D
  8
0
  6
CONTINUOUS
 10
-462.34706667107059
 20
-11.443596028490569
 30
0.0
 11
-462.4896514294756
 21
-11.462367668052471
 31
0.0
 12
-460.67482618783691
 22
-11.462367668052471
 32
0.0
 13
-460.67482618783691
 23
-11.462367668052471
 33
0.0
210
0.0
220
0.0
230
1.0
  0
SOLID
  5
86E
  8
0
  6
CONTINUOUS
 10
462.34706667107059
 20
-11.443596028490569
 30
0.0
 11
460.66042220219242
 21
-11.443596028490569
 31
0.0
 12
460.67482618783691
 22
-11.462367668052471
 32
0.0
 13
460.67482618783691
 23
-11.462367668052471
 33
0.0
210
0.0
220
0.0
230
-1.0
  0
SOLID
  5
86F
  8
0
  6
CONTINUOUS
 10
-549.65876852158465
 20
-11.257406191578619
 30
0.0
 11
-549.51960111317055
 21
-11.462367668052471
 31
0.0
 12
-547.75148842848807
 22
-11.462367668052471
 32
0.0
 13
-547.75148842848807
 23
-11.462367668052471
 33
0.0
210
0.0
220
0.0
230
1.0
  0
SOLID
  5
870
  8
0
  6
CONTINUOUS
 10
549.65876852158465
 20
-11.257406191578619
 30
0.0
 11
548.25009506864058
 21
-11.257406191578619
 31
0.0
 12
547.75148842848807
 22
-11.462367668052471
 32
0.0
 13
547.75148842848807
 23
-11.462367668052471
 33
0.0
210
0.0
220
0.0
230
-1.0
  0
SOLID
  5
871
  8
0
  6
CONTINUOUS
 10
-462.4896514294756
 20
-11.462367668052471
 30
0.0
 11
-462.80000000000013
 21
-11.50322583248464
 31
0.0
 12
-460.70617776008498
 22
-11.50322583248464
 32
0.0
 13
-460.70617776008498
 23
-11.50322583248464
 33
0.0
  0
SOLID
  5
872
  8
0
  6
CONTINUOUS
 10
462.4896514294756
 20
-11.462367668052471
 30
0.0
 11
460.67482618783691
 21
-11.462367668052471
 31
0.0
 12
460.70617776008498
 22
-11.50322583248464
 32
0.0
 13
460.70617776008498
 23
-11.50322583248464
 33
0.0
210
0.0
220
0.0
230
-1.0
  0
SOLID
  5
873
  8
0
  6
CONTINUOUS
 10
-549.51960111317055
 20
-11.462367668052471
 30
0.0
 11
-549.49185870540498
 21
-11.50322583248464
 31
0.0
 12
-462.80000000000013
 22
-11.50322583248464
 32
0.0
 13
-462.80000000000013
 23
-11.50322583248464
 33
0.0
210
0.0
220
0.0
230
1.0
  0
SOLID
  5
874
  8
0
  6
CONTINUOUS
 10
549.51960111317055
 20
-11.462367668052471
 30
0.0
 11
547.75148842848807
 21
-11.462367668052471
 31
0.0
 12
462.80000000000013
 22
-11.50322583248464
 32
0.0
 13
462.80000000000013
 23
-11.50322583248464
 33
0.0
210
0.0
220
0.0
230
-1.0
  0
SOLID
  5
875
  8
0
  6
CONTINUOUS
 10
-549.49185870540498
 20
-11.50322583248464
 30
0.0
 11
-549.47043150051877
 21
-11.534783160455319
 31
0.0
 12
-460.73039254950532
 22
-11.534783160455319
 32
0.0
 13
-460.73039254950532
 23
-11.534783160455319
 33
0.0
210
0.0
220
0.0
230
1.0
  0
SOLID
  5
876
  8
0
  6
CONTINUOUS
 10
549.49185870540498
 20
-11.50322583248464
 30
0.0
 11
460.70617776008498
 21
-11.50322583248464
 31
0.0
 12
460.73039254950532
 22
-11.534783160455319
 32
0.0
 13
460.73039254950532
 23
-11.534783160455319
 33
0.0
210
0.0
220
0.0
230
-1.0
  0
SOLID
  5
877
  8
0
  6
CONTINUOUS
 10
-549.47043150051877
 20
-11.534783160455319
 30
0.0
 11
-549.29818966114317
 21
-11.69776948074791
 31
0.0
 12
-460.85545635173719
 22
-11.69776948074791
 32
0.0
 13
-460.85545635173719
 23
-11.69776948074791
 33
0.0
210
0.0
220
0.0
230
1.0
  0
SOLID
  5
878
  8
0
  6
CONTINUOUS
 10
549.47043150051877
 20
-11.534783160455319
 30
0.0
 11
460.73039254950532
 21
-11.534783160455319
 31
0.0
 12
460.85545635173719
 22
-11.69776948074791
 32
0.0
 13
460.85545635173719
 23
-11.69776948074791
 33
0.0
210
0.0
220
0.0
230
-1.0
  0
SOLID
  5
879
  8
0
  6
CONTINUOUS
 10
-549.29818966114317
 20
-11.69776948074791
 30
0.0
 11
-549.03879736164106
 21
-11.94322317864944
 31
0.0
 12
-461.17533783870027
 22
-11.94322317864944
 32
0.0
 13
-461.17533783870027
 23
-11.94322317864944
 33
0.0
210
0.0
220
0.0
230
1.0
  0
SOLID
  5
87A
  8
0
  6
CONTINUOUS
 10
549.29818966114317
 20
-11.69776948074791
 30
0.0
 11
460.85545635173719
 21
-11.69776948074791
 31
0.0
 12
461.17533783870027
 22
-11.94322317864944
 32
0.0
 13
461.17533783870027
 23
-11.94322317864944
 33
0.0
210
0.0
220
0.0
230
-1.0
  0
SOLID
  5
87B
  8
0
  6
CONTINUOUS
 10
-549.03879736164106
 20
-11.94322317864944
 30
0.0
 11
-548.7201335431389
 21
-12.134795692891879
 31
0.0
 12
-461.42500000000013
 22
-12.134795692891879
 32
0.0
 13
-461.42500000000013
 23
-12.134795692891879
 33
0.0
210
0.0
220
0.0
230
1.0
  0
SOLID
  5
87C
  8
0
  6
CONTINUOUS
 10
549.03879736164106
 20
-11.94322317864944
 30
0.0
 11
461.17533783870027
 21
-11.94322317864944
 31
0.0
 12
461.42500000000013
 22
-12.134795692891879
 32
0.0
 13
461.42500000000013
 23
-12.134795692891879
 33
0.0
210
0.0
220
0.0
230
-1.0
  0
SOLID
  5
87D
  8
0
  6
CONTINUOUS
 10
-548.7201335431389
 20
-12.134795692891879
 30
0.0
 11
-548.52949753378778
 21
-12.249401172071069
 31
0.0
 12
-461.70168210215672
 22
-12.249401172071069
 32
0.0
 13
-461.70168210215672
 23
-12.249401172071069
 33
0.0
210
0.0
220
0.0
230
1.0
  0
SOLID
  5
87E
  8
0
  6
CONTINUOUS
 10
548.7201335431389
 20
-12.134795692891879
 30
0.0
 11
461.42500000000013
 21
-12.134795692891879
 31
0.0
 12
461.70168210215672
 22
-12.249401172071069
 32
0.0
 13
461.70168210215672
 23
-12.249401172071069
 33
0.0
210
0.0
220
0.0
230
-1.0
  0
SOLID
  5
87F
  8
0
  6
CONTINUOUS
 10
-548.52949753378778
 20
-12.249401172071069
 30
0.0
 11
-548.05392611260913
 21
-12.40952185477965
 31
0.0
 12
-462.08824762596811
 22
-12.40952185477965
 32
0.0
 13
-462.08824762596811
 23
-12.40952185477965
 33
0.0
210
0.0
220
0.0
230
1.0
  0
SOLID
  5
880
  8
0
  6
CONTINUOUS
 10
548.52949753378778
 20
-12.249401172071069
 30
0.0
 11
461.70168210215672
 21
-12.249401172071069
 31
0.0
 12
462.08824762596811
 22
-12.40952185477965
 32
0.0
 13
462.08824762596811
 23
-12.40952185477965
 33
0.0
210
0.0
220
0.0
230
-1.0
  0
SOLID
  5
881
  8
0
  6
CONTINUOUS
 10
-548.05392611260913
 20
-12.40952185477965
 30
0.0
 11
-547.96631379537257
 21
-12.439020145519709
 31
0.0
 12
-462.31230938917531
 22
-12.439020145519709
 32
0.0
 13
-462.31230938917531
 23
-12.439020145519709
 33
0.0
  0
SOLID
  5
882
  8
0
  6
CONTINUOUS
 10
548.05392611260913
 20
-12.40952185477965
 30
0.0
 11
462.08824762596811
 21
-12.40952185477965
 31
0.0
 12
462.31230938917531
 22
-12.439020145519709
 32
0.0
 13
462.31230938917531
 23
-12.439020145519709
 33
0.0
210
0.0
220
0.0
230
-1.0
  0
SOLID
  5
883
  8
0
  6
CONTINUOUS
 10
-547.96631379537257
 20
-12.439020145519709
 30
0.0
 11
-547.37554403644049
 21
-12.50322583248469
 31
0.0
 12
-462.80000000000001
 22
-12.50322583248469
 32
0.0
 13
-462.80000000000001
 23
-12.50322583248469
 33
0.0
210
0.0
220
0.0
230
1.0
  0
SOLID
  5
884
  8
0
  6
CONTINUOUS
 10
547.96631379537257
 20
-12.439020145519709
 30
0.0
 11
462.31230938917531
 21
-12.439020145519709
 31
0.0
 12
462.80000000000001
 22
-12.50322583248469
 32
0.0
 13
462.80000000000001
 23
-12.50322583248469
 33
0.0
210
0.0
220
0.0
230
-1.0
  0
LINE
  5
885
  8
0
  6
CONTINUOUS
 10
-577.46130677724011
 20
80.411464191428948
 30
0.0
 11
-590.69149628925118
 21
80.364864120592856
 31
0.0
  0
LINE
  5
886
  8
0
  6
CONTINUOUS
 10
-577.1073440975332
 20
80.364864120592856
 30
0.0
 11
-577.46130677724011
 21
80.411464191428948
 31
0.0
  0
LINE
  5
887
  8
0
  6
CONTINUOUS
 10
-590.69149628925118
 20
80.364864120592856
 30
0.0
 11
-590.72753385466069
 21
80.351834387434863
 31
0.0
  0
LINE
  5
888
  8
0
  6
CONTINUOUS
 10
-577.1073440975332
 20
80.364864120592856
 30
0.0
 11
-577.00837344831075
 21
80.351834387434863
 31
0.0
  0
LINE
  5
889
  8
0
  6
CONTINUOUS
 10
-590.72753385466069
 20
80.351834387434863
 30
0.0
 11
-591.07129083749032
 21
80.227545698491696
 31
0.0
  0
LINE
  5
88A
  8
0
  6
CONTINUOUS
 10
-577.00837344831075
 20
80.351834387434863
 30
0.0
 11
-576.70831400981456
 21
80.227545698491696
 31
0.0
  0
LINE
  5
88B
  8
0
  6
CONTINUOUS
 10
-591.07129083749032
 20
80.227545698491696
 30
0.0
 11
-591.14872610085285
 21
80.177008648051711
 31
0.0
  0
LINE
  5
88C
  8
0
  6
CONTINUOUS
 10
-576.70831400981456
 20
80.227545698491696
 30
0.0
 11
-576.58630677724011
 21
80.177008648051711
 31
0.0
  0
LINE
  5
88D
  8
0
  6
CONTINUOUS
 10
-591.14872610085285
 20
80.177008648051711
 30
0.0
 11
-591.4094939586621
 21
80.006822123063145
 31
0.0
  0
LINE
  5
88E
  8
0
  6
CONTINUOUS
 10
-576.58630677724011
 20
80.177008648051711
 30
0.0
 11
-576.36451537975915
 21
80.006822123063145
 31
0.0
  0
LINE
  5
88F
  8
0
  6
CONTINUOUS
 10
-591.4094939586621
 20
80.006822123063145
 30
0.0
 11
-591.51233088082927
 21
79.898901058505487
 31
0.0
  0
LINE
  5
890
  8
0
  6
CONTINUOUS
 10
-576.36451537975915
 20
80.006822123063145
 30
0.0
 11
-576.22386991016356
 21
79.898901058505487
 31
0.0
  0
LINE
  5
891
  8
0
  6
CONTINUOUS
 10
-591.51233088082927
 20
79.898901058505487
 30
0.0
 11
-591.68809389344915
 21
79.714448519163952
 31
0.0
  0
LINE
  5
892
  8
0
  6
CONTINUOUS
 10
-576.22386991016356
 20
79.898901058505487
 30
0.0
 11
-576.08233449872557
 21
79.714448519163952
 31
0.0
  0
LINE
  5
893
  8
0
  6
CONTINUOUS
 10
-591.68809389344915
 20
79.714448519163952
 30
0.0
 11
-591.79237536863036
 21
79.536464191429019
 31
0.0
  0
LINE
  5
894
  8
0
  6
CONTINUOUS
 10
-576.08233449872557
 20
79.714448519163952
 30
0.0
 11
-575.9457623206174
 21
79.536464191429019
 31
0.0
  0
LINE
  5
895
  8
0
  6
CONTINUOUS
 10
-591.79237536863036
 20
79.536464191429019
 30
0.0
 11
-591.86561318997985
 21
79.411464191429047
 31
0.0
  0
LINE
  5
896
  8
0
  6
CONTINUOUS
 10
-575.9457623206174
 20
79.536464191429019
 30
0.0
 11
-575.89398562532074
 21
79.411464191429047
 31
0.0
  0
LINE
  5
897
  8
0
  6
CONTINUOUS
 10
-575.89398562532074
 20
79.411464191429047
 30
0.0
 11
-575.88571317617107
 21
79.391492732498207
 31
0.0
  0
LINE
  5
898
  8
0
  6
CONTINUOUS
 10
-591.86561318997985
 20
79.411464191429047
 30
0.0
 11
-591.87731451910997
 21
79.391492732498207
 31
0.0
  0
LINE
  5
899
  8
0
  6
CONTINUOUS
 10
-580.11288521627375
 20
79.391492732498207
 30
0.0
 11
-577.26719249341318
 21
79.385908561145925
 31
0.0
  0
LINE
  5
89A
  8
0
  6
CONTINUOUS
 10
-575.88571317617107
 20
79.391492732498207
 30
0.0
 11
-575.88340013666243
 21
79.385908561145925
 31
0.0
  0
LINE
  5
89B
  8
0
  6
CONTINUOUS
 10
-591.87731451910997
 20
79.391492732498207
 30
0.0
 11
-591.8922531827709
 21
79.365995893253242
 31
0.0
  0
LINE
  5
89C
  8
0
  6
CONTINUOUS
 10
-590.46226247665231
 20
79.391492732498207
 30
0.0
 11
-590.5133924314664
 21
79.365995893253242
 31
0.0
  0
LINE
  5
89D
  8
0
  6
CONTINUOUS
 10
-591.8922531827709
 20
79.365995893253242
 30
0.0
 11
-591.93165032496916
 21
79.238046162128185
 31
0.0
  0
LINE
  5
89E
  8
0
  6
CONTINUOUS
 10
-590.5133924314664
 20
79.365995893253242
 30
0.0
 11
-590.7699757635429
 21
79.238046162128185
 31
0.0
  0
LINE
  5
89F
  8
0
  6
CONTINUOUS
 10
-577.26719249341318
 20
79.385908561145925
 30
0.0
 11
-576.93097669135022
 21
79.191794277318891
 31
0.0
  0
LINE
  5
8A0
  8
0
  6
CONTINUOUS
 10
-575.88340013666243
 20
79.385908561145925
 30
0.0
 11
-575.80299536765085
 21
79.191794277318891
 31
0.0
  0
LINE
  5
8A1
  8
0
  6
CONTINUOUS
 10
-576.93097669135022
 20
79.191794277318891
 30
0.0
 11
-576.88629165288455
 21
79.114397520358466
 31
0.0
  0
LINE
  5
8A2
  8
0
  6
CONTINUOUS
 10
-575.80299536765085
 20
79.191794277318891
 30
0.0
 11
-575.7709365812342
 21
79.114397520358466
 31
0.0
  0
LINE
  5
8A3
  8
0
  6
CONTINUOUS
 10
-591.93165032496916
 20
79.238046162128185
 30
0.0
 11
-592.01109886966265
 21
78.980021864816734
 31
0.0
  0
LINE
  5
8A4
  8
0
  6
CONTINUOUS
 10
-590.7699757635429
 20
79.238046162128185
 30
0.0
 11
-590.96435546240173
 21
78.980021864816734
 31
0.0
  0
LINE
  5
8A5
  8
0
  6
CONTINUOUS
 10
-592.01109886966265
 20
78.980021864816734
 30
0.0
 11
-592.01417483293346
 21
78.963406349352169
 31
0.0
  0
LINE
  5
8A6
  8
0
  6
CONTINUOUS
 10
-590.96435546240173
 20
78.980021864816734
 30
0.0
 11
-590.97687257387554
 21
78.963406349352169
 31
0.0
  0
LINE
  5
8A7
  8
0
  6
CONTINUOUS
 10
-576.88629165288455
 20
79.114397520358466
 30
0.0
 11
-576.73686240752318
 21
78.855578475255854
 31
0.0
  0
LINE
  5
8A8
  8
0
  6
CONTINUOUS
 10
-575.7709365812342
 20
79.114397520358466
 30
0.0
 11
-575.73686240752318
 21
78.855578475255854
 31
0.0
  0
LINE
  5
8A9
  8
0
  6
CONTINUOUS
 10
-576.73686240752318
 20
78.855578475255854
 30
0.0
 11
-576.71130677724011
 21
78.661464191428948
 31
0.0
  0
LINE
  5
8AA
  8
0
  6
CONTINUOUS
 10
-575.73686240752318
 20
78.855578475255854
 30
0.0
 11
-575.71130677724011
 21
78.661464191428948
 31
0.0
  0
LINE
  5
8AB
  8
0
  6
CONTINUOUS
 10
-576.71130677724011
 20
78.661464191428948
 30
0.0
 11
-576.71130677724011
 21
76.000740090304674
 31
0.0
  0
LINE
  5
8AC
  8
0
  6
CONTINUOUS
 10
-575.71130677724011
 20
78.661464191428948
 30
0.0
 11
-575.71130677724011
 21
76.000740090304674
 31
0.0
  0
LINE
  5
8AD
  8
0
  6
CONTINUOUS
 10
-592.01417483293346
 20
78.963406349352169
 30
0.0
 11
-594.00174963831159
 21
68.227068816365446
 31
0.0
  0
LINE
  5
8AE
  8
0
  6
CONTINUOUS
 10
-590.97687257387554
 20
78.963406349352169
 30
0.0
 11
-592.9847581823476
 21
68.227068816365446
 31
0.0
  0
LINE
  5
8AF
  8
0
  6
CONTINUOUS
 10
-594.00174963831159
 20
68.227068816365446
 30
0.0
 11
-594.0461253218167
 21
67.987363465362748
 31
0.0
  0
LINE
  5
8B0
  8
0
  6
CONTINUOUS
 10
-592.9847581823476
 20
68.227068816365446
 30
0.0
 11
-593.01473365983566
 21
67.987363465362748
 31
0.0
  0
LINE
  5
8B1
  8
0
  6
CONTINUOUS
 10
-594.0461253218167
 20
67.987363465362748
 30
0.0
 11
-594.08435155780137
 21
67.390229448232617
 31
0.0
  0
LINE
  5
8B2
  8
0
  6
CONTINUOUS
 10
-593.01473365983566
 20
67.987363465362748
 30
0.0
 11
-593.08940607416889
 21
67.390229448232617
 31
0.0
  0
LINE
  5
8B3
  8
0
  6
CONTINUOUS
 10
-594.08435155780137
 20
67.390229448232617
 30
0.0
 11
-594.08788317976143
 21
67.335061798223563
 31
0.0
  0
LINE
  5
8B4
  8
0
  6
CONTINUOUS
 10
-593.08940607416889
 20
67.390229448232617
 30
0.0
 11
-593.07969062408483
 21
67.335061798223563
 31
0.0
  0
LINE
  5
8B5
  8
0
  6
CONTINUOUS
 10
-594.08788317976143
 20
67.335061798223563
 30
0.0
 11
-594.02545664579043
 21
66.980582577230706
 31
0.0
  0
LINE
  5
8B6
  8
0
  6
CONTINUOUS
 10
-593.07969062408483
 20
67.335061798223563
 30
0.0
 11
-593.01726409011383
 21
66.980582577230706
 31
0.0
  0
LINE
  5
8B7
  8
0
  6
CONTINUOUS
 10
-594.02545664579043
 20
66.980582577230706
 30
0.0
 11
-593.97451720481774
 21
66.691331000934738
 31
0.0
  0
LINE
  5
8B8
  8
0
  6
CONTINUOUS
 10
-593.01726409011383
 20
66.980582577230706
 30
0.0
 11
-592.89066170266312
 21
66.691331000934738
 31
0.0
  0
LINE
  5
8B9
  8
0
  6
CONTINUOUS
 10
-593.97451720481774
 20
66.691331000934738
 30
0.0
 11
-593.93433808171835
 21
66.599532774024041
 31
0.0
  0
LINE
  5
8BA
  8
0
  6
CONTINUOUS
 10
-592.89066170266312
 20
66.691331000934738
 30
0.0
 11
-592.85048257956385
 21
66.599532774024041
 31
0.0
  0
LINE
  5
8BB
  8
0
  6
CONTINUOUS
 10
-593.93433808171835
 20
66.599532774024041
 30
0.0
 11
-593.78949548015964
 21
66.268607333680819
 31
0.0
  0
LINE
  5
8BC
  8
0
  6
CONTINUOUS
 10
-592.85048257956385
 20
66.599532774024041
 30
0.0
 11
-592.59848381425149
 21
66.268607333680819
 31
0.0
  0
LINE
  5
8BD
  8
0
  6
CONTINUOUS
 10
-593.78949548015964
 20
66.268607333680819
 30
0.0
 11
-593.71243197395347
 21
66.092538453038955
 31
0.0
  0
LINE
  5
8BE
  8
0
  6
CONTINUOUS
 10
-592.59848381425149
 20
66.268607333680819
 30
0.0
 11
-592.32368785884785
 21
66.092538453038955
 31
0.0
  0
LINE
  5
8BF
  8
0
  6
CONTINUOUS
 10
-593.71243197395347
 20
66.092538453038955
 30
0.0
 11
-593.31643391417742
 21
65.572512761071138
 31
0.0
  0
LINE
  5
8C0
  8
0
  6
CONTINUOUS
 10
-592.32368785884785
 20
66.092538453038955
 30
0.0
 11
-591.51206824533165
 21
65.572512761071138
 31
0.0
  0
LINE
  5
8C1
  8
0
  6
CONTINUOUS
 10
-593.31643391417742
 20
65.572512761071138
 30
0.0
 11
-592.80889481785732
 21
65.160632621516612
 31
0.0
  0
LINE
  5
8C2
  8
0
  6
CONTINUOUS
 10
-591.51206824533165
 20
65.572512761071138
 30
0.0
 11
-590.86923462221728
 21
65.160632621516612
 31
0.0
  0
LINE
  5
8C3
  8
0
  6
CONTINUOUS
 10
-462.30000000000121
 20
63.996774167516072
 30
0.0
 11
-462.88234285148218
 21
63.920107276666428
 31
0.0
  0
LINE
  5
8C4
  8
0
  6
CONTINUOUS
 10
-461.7176571485204
 20
63.920107276666428
 30
0.0
 11
-462.30000000000121
 21
63.996774167516072
 31
0.0
  0
LINE
  5
8C5
  8
0
  6
CONTINUOUS
 10
-462.88234285148218
 20
63.920107276666428
 30
0.0
 11
-463.42500000000172
 21
63.695331326030889
 31
0.0
  0
LINE
  5
8C6
  8
0
  6
CONTINUOUS
 10
-461.7176571485204
 20
63.920107276666428
 30
0.0
 11
-461.17500000000092
 21
63.695331326030889
 31
0.0
  0
LINE
  5
8C7
  8
0
  6
CONTINUOUS
 10
-463.42500000000172
 20
63.695331326030889
 30
0.0
 11
-463.8909902576716
 21
63.33776442518559
 31
0.0
  0
LINE
  5
8C8
  8
0
  6
CONTINUOUS
 10
-461.17500000000092
 20
63.695331326030889
 30
0.0
 11
-460.70900974233081
 21
63.33776442518559
 31
0.0
  0
LINE
  5
8C9
  8
0
  6
CONTINUOUS
 10
-463.8909902576716
 20
63.33776442518559
 30
0.0
 11
-464.15264128501917
 21
62.996774167516151
 31
0.0
  0
LINE
  5
8CA
  8
0
  6
CONTINUOUS
 10
-460.70900974233081
 20
63.33776442518559
 30
0.0
 11
-460.44735871498318
 21
62.996774167516151
 31
0.0
  0
LINE
  5
8CB
  8
0
  6
CONTINUOUS
 10
-462.30000000000121
 20
62.996774167516151
 30
0.0
 11
-461.97647619362289
 21
62.954181450377348
 31
0.0
  0
LINE
  5
8CC
  8
0
  6
CONTINUOUS
 10
-460.44735871498318
 20
62.996774167516151
 30
0.0
 11
-460.41467617363128
 21
62.954181450377348
 31
0.0
  0
LINE
  5
8CD
  8
0
  6
CONTINUOUS
 10
-464.15264128501917
 20
62.996774167516151
 30
0.0
 11
-464.18532382637119
 21
62.954181450377348
 31
0.0
  0
LINE
  5
8CE
  8
0
  6
CONTINUOUS
 10
-462.30000000000121
 20
62.996774167516151
 30
0.0
 11
-462.62352380637969
 21
62.954181450377348
 31
0.0
  0
LINE
  5
8CF
  8
0
  6
CONTINUOUS
 10
-461.97647619362289
 20
62.954181450377348
 30
0.0
 11
-461.77752741369972
 21
62.871774167515639
 31
0.0
  0
LINE
  5
8D0
  8
0
  6
CONTINUOUS
 10
-460.41467617363128
 20
62.954181450377348
 30
0.0
 11
-460.35144284148549
 21
62.871774167515639
 31
0.0
  0
LINE
  5
8D1
  8
0
  6
CONTINUOUS
 10
-464.18532382637119
 20
62.954181450377348
 30
0.0
 11
-464.24855715851697
 21
62.871774167515639
 31
0.0
  0
LINE
  5
8D2
  8
0
  6
CONTINUOUS
 10
-462.62352380637969
 20
62.954181450377348
 30
0.0
 11
-462.82247258630292
 21
62.871774167515639
 31
0.0
  0
LINE
  5
8D3
  8
0
  6
CONTINUOUS
 10
-461.77752741369972
 20
62.871774167515639
 30
0.0
 11
-461.67500000000081
 21
62.829305922246562
 31
0.0
  0
LINE
  5
8D4
  8
0
  6
CONTINUOUS
 10
-460.35144284148549
 20
62.871774167515639
 30
0.0
 11
-460.3338519183248
 21
62.829305922246562
 31
0.0
  0
LINE
  5
8D5
  8
0
  6
CONTINUOUS
 10
-464.24855715851697
 20
62.871774167515639
 30
0.0
 11
-464.26614808167761
 21
62.829305922246562
 31
0.0
  0
LINE
  5
8D6
  8
0
  6
CONTINUOUS
 10
-462.82247258630292
 20
62.871774167515639
 30
0.0
 11
-462.92500000000189
 21
62.829305922246562
 31
0.0
  0
LINE
  5
8D7
  8
0
  6
CONTINUOUS
 10
-461.67500000000081
 20
62.829305922246562
 30
0.0
 11
-461.41611652351747
 21
62.630657643999001
 31
0.0
  0
LINE
  5
8D8
  8
0
  6
CONTINUOUS
 10
-460.3338519183248
 20
62.829305922246562
 30
0.0
 11
-460.25156910733261
 21
62.630657643999001
 31
0.0
  0
LINE
  5
8D9
  8
0
  6
CONTINUOUS
 10
-464.26614808167761
 20
62.829305922246562
 30
0.0
 11
-464.34843089266991
 21
62.630657643999001
 31
0.0
  0
LINE
  5
8DA
  8
0
  6
CONTINUOUS
 10
-462.92500000000189
 20
62.829305922246562
 30
0.0
 11
-463.18388347648511
 21
62.630657643999001
 31
0.0
  0
LINE
  5
8DB
  8
0
  6
CONTINUOUS
 10
-592.80889481785732
 20
65.160632621516612
 30
0.0
 11
-588.71176953181839
 21
62.577056469710357
 31
0.0
  0
LINE
  5
8DC
  8
0
  6
CONTINUOUS
 10
-590.86923462221728
 20
65.160632621516612
 30
0.0
 11
-586.83697023565651
 21
62.577056469710357
 31
0.0
  0
LINE
  5
8DD
  8
0
  6
CONTINUOUS
 10
-461.41611652351747
 20
62.630657643999001
 30
0.0
 11
-461.21746824527003
 21
62.371774167515611
 31
0.0
  0
LINE
  5
8DE
  8
0
  6
CONTINUOUS
 10
-460.25156910733261
 20
62.630657643999001
 30
0.0
 11
-460.14433606029888
 21
62.371774167515611
 31
0.0
  0
LINE
  5
8DF
  8
0
  6
CONTINUOUS
 10
-464.34843089266991
 20
62.630657643999001
 30
0.0
 11
-464.45566393970358
 21
62.371774167515611
 31
0.0
  0
LINE
  5
8E0
  8
0
  6
CONTINUOUS
 10
-463.18388347648511
 20
62.630657643999001
 30
0.0
 11
-463.38253175473261
 21
62.371774167515611
 31
0.0
  0
LINE
  5
8E1
  8
0
  6
CONTINUOUS
 10
-461.21746824527003
 20
62.371774167515611
 30
0.0
 11
-461.19979907582098
 21
62.329117018996058
 31
0.0
  0
LINE
  5
8E2
  8
0
  6
CONTINUOUS
 10
-460.14433606029888
 20
62.371774167515611
 30
0.0
 11
-460.12666689085
 21
62.329117018996058
 31
0.0
  0
LINE
  5
8E3
  8
0
  6
CONTINUOUS
 10
-464.45566393970358
 20
62.371774167515611
 30
0.0
 11
-464.47333310915258
 21
62.329117018996058
 31
0.0
  0
LINE
  5
8E4
  8
0
  6
CONTINUOUS
 10
-463.38253175473261
 20
62.371774167515611
 30
0.0
 11
-463.40020092418149
 21
62.329117018996058
 31
0.0
  0
LINE
  5
8E5
  8
0
  6
CONTINUOUS
 10
-461.19979907582098
 20
62.329117018996058
 30
0.0
 11
-461.0925927171391
 21
62.07029797389356
 31
0.0
  0
LINE
  5
8E6
  8
0
  6
CONTINUOUS
 10
-460.12666689085
 20
62.329117018996058
 30
0.0
 11
-460.0925927171391
 21
62.07029797389356
 31
0.0
  0
LINE
  5
8E7
  8
0
  6
CONTINUOUS
 10
-464.47333310915258
 20
62.329117018996058
 30
0.0
 11
-464.50740728286348
 21
62.07029797389356
 31
0.0
  0
LINE
  5
8E8
  8
0
  6
CONTINUOUS
 10
-463.40020092418149
 20
62.329117018996058
 30
0.0
 11
-463.50740728286348
 21
62.07029797389356
 31
0.0
  0
LINE
  5
8E9
  8
0
  6
CONTINUOUS
 10
-461.0925927171391
 20
62.07029797389356
 30
0.0
 11
-461.05000000000041
 21
61.746774167515213
 31
0.0
  0
LINE
  5
8EA
  8
0
  6
CONTINUOUS
 10
-460.0925927171391
 20
62.07029797389356
 30
0.0
 11
-460.0500000000003
 21
61.746774167515213
 31
0.0
  0
LINE
  5
8EB
  8
0
  6
CONTINUOUS
 10
-464.50740728286348
 20
62.07029797389356
 30
0.0
 11
-464.55000000000229
 21
61.746774167515213
 31
0.0
  0
LINE
  5
8EC
  8
0
  6
CONTINUOUS
 10
-463.50740728286348
 20
62.07029797389356
 30
0.0
 11
-463.50999574841262
 21
61.746774167515213
 31
0.0
  0
LINE
  5
8ED
  8
0
  6
CONTINUOUS
 10
-588.71176953181839
 20
62.577056469710357
 30
0.0
 11
-587.37036066419319
 21
61.731187300898959
 31
0.0
  0
LINE
  5
8EE
  8
0
  6
CONTINUOUS
 10
-586.83697023565651
 20
62.577056469710357
 30
0.0
 11
-585.66951618625092
 21
61.731187300898959
 31
0.0
  0
LINE
  5
8EF
  8
0
  6
CONTINUOUS
 10
-587.37036066419319
 20
61.731187300898959
 30
0.0
 11
-585.42109144315145
 21
60.318860420340897
 31
0.0
  0
LINE
  5
8F0
  8
0
  6
CONTINUOUS
 10
-585.66951618625092
 20
61.731187300898959
 30
0.0
 11
-583.72024696520941
 21
60.318860420340897
 31
0.0
  0
LINE
  5
8F1
  8
0
  6
CONTINUOUS
 10
-585.42109144315145
 20
60.318860420340897
 30
0.0
 11
-584.35666956797581
 21
59.547642360599909
 31
0.0
  0
LINE
  5
8F2
  8
0
  6
CONTINUOUS
 10
-583.72024696520941
 20
60.318860420340897
 30
0.0
 11
-582.89544810790096
 21
59.547642360599909
 31
0.0
  0
LINE
  5
8F3
  8
0
  6
CONTINUOUS
 10
-584.35666956797581
 20
59.547642360599909
 30
0.0
 11
-582.4142626739424
 21
57.731418607656451
 31
0.0
  0
LINE
  5
8F4
  8
0
  6
CONTINUOUS
 10
-582.89544810790096
 20
59.547642360599909
 30
0.0
 11
-580.95304121386744
 21
57.731418607656451
 31
0.0
  0
LINE
  5
8F5
  8
0
  6
CONTINUOUS
 10
-582.4142626739424
 20
57.731418607656451
 30
0.0
 11
-581.68094169271149
 21
57.045735814450381
 31
0.0
  0
LINE
  5
8F6
  8
0
  6
CONTINUOUS
 10
-580.95304121386744
 20
57.731418607656451
 30
0.0
 11
-580.38524380978288
 21
57.045735814450381
 31
0.0
  0
LINE
  5
8F7
  8
0
  6
CONTINUOUS
 10
-464.55000000000229
 20
61.746774167515213
 30
0.0
 11
-464.55000000000229
 21
56.746774167515142
 31
0.0
  0
LINE
  5
8F8
  8
0
  6
CONTINUOUS
 10
-463.50999574841262
 20
61.746774167515213
 30
0.0
 11
-463.55000000000223
 21
56.746774167515142
 31
0.0
  0
LINE
  5
8F9
  8
0
  6
CONTINUOUS
 10
-581.68094169271149
 20
57.045735814450381
 30
0.0
 11
-579.81324934043926
 21
54.790275504588081
 31
0.0
  0
LINE
  5
8FA
  8
0
  6
CONTINUOUS
 10
-580.38524380978288
 20
57.045735814450381
 30
0.0
 11
-578.51755145751076
 21
54.790275504588081
 31
0.0
  0
LINE
  5
8FB
  8
0
  6
CONTINUOUS
 10
-579.81324934043926
 20
54.790275504588081
 30
0.0
 11
-579.32596399441616
 21
54.201820582557822
 31
0.0
  0
LINE
  5
8FC
  8
0
  6
CONTINUOUS
 10
-578.51755145751076
 20
54.790275504588081
 30
0.0
 11
-578.14301842901477
 21
54.201820582557822
 31
0.0
  0
LINE
  5
8FD
  8
0
  6
CONTINUOUS
 10
-461.05000000000041
 20
61.746774167515213
 30
0.0
 11
-461.05000000000041
 21
53.308025051088308
 31
0.0
  0
LINE
  5
8FE
  8
0
  6
CONTINUOUS
 10
-460.0500000000003
 20
61.746774167515213
 30
0.0
 11
-460.0500000000003
 21
53.308025051088308
 31
0.0
  0
LINE
  5
8FF
  8
0
  6
CONTINUOUS
 10
-579.32596399441616
 20
54.201820582557822
 30
0.0
 11
-577.65012783390011
 21
51.56879769234191
 31
0.0
  0
LINE
  5
900
  8
0
  6
CONTINUOUS
 10
-578.14301842901477
 20
54.201820582557822
 30
0.0
 11
-576.46718226849885
 21
51.56879769234191
 31
0.0
  0
LINE
  5
901
  8
0
  6
CONTINUOUS
 10
-577.65012783390011
 20
51.56879769234191
 30
0.0
 11
-577.34337560504071
 21
51.086837904600699
 31
0.0
  0
LINE
  5
902
  8
0
  6
CONTINUOUS
 10
-576.46718226849885
 20
51.56879769234191
 30
0.0
 11
-576.24059447058028
 21
51.086837904600699
 31
0.0
  0
LINE
  5
903
  8
0
  6
CONTINUOUS
 10
-577.34337560504071
 20
51.086837904600699
 30
0.0
 11
-576.1066627691016
 21
48.456308540788953
 31
0.0
  0
LINE
  5
904
  8
0
  6
CONTINUOUS
 10
-576.24059447058028
 20
51.086837904600699
 30
0.0
 11
-575.00388163464117
 21
48.456308540788953
 31
0.0
  0
LINE
  5
905
  8
0
  6
CONTINUOUS
 10
-576.1066627691016
 20
48.456308540788953
 30
0.0
 11
-575.78481565653613
 21
47.77172902025778
 31
0.0
  0
LINE
  5
906
  8
0
  6
CONTINUOUS
 10
-575.00388163464117
 20
48.456308540788953
 30
0.0
 11
-574.77248465125626
 21
47.77172902025778
 31
0.0
  0
LINE
  5
907
  8
0
  6
CONTINUOUS
 10
-575.78481565653613
 20
47.77172902025778
 30
0.0
 11
-574.82297987289905
 21
44.816365783680382
 31
0.0
  0
LINE
  5
908
  8
0
  6
CONTINUOUS
 10
-574.77248465125626
 20
47.77172902025778
 30
0.0
 11
-573.77353256864069
 21
44.816365783680382
 31
0.0
  0
LINE
  5
909
  8
0
  6
CONTINUOUS
 10
-574.82297987289905
 20
44.816365783680382
 30
0.0
 11
-574.63307110491826
 21
44.232846849635962
 31
0.0
  0
LINE
  5
90A
  8
0
  6
CONTINUOUS
 10
-573.77353256864069
 20
44.816365783680382
 30
0.0
 11
-573.62374381456834
 21
44.232846849635962
 31
0.0
  0
LINE
  5
90B
  8
0
  6
CONTINUOUS
 10
-574.63307110491826
 20
44.232846849635962
 30
0.0
 11
-569.34373791779637
 21
23.538754099449172
 31
0.0
  0
LINE
  5
90C
  8
0
  6
CONTINUOUS
 10
-573.62374381456834
 20
44.232846849635962
 30
0.0
 11
-568.31158993427562
 21
23.538754099449172
 31
0.0
  0
LINE
  5
90D
  8
0
  6
CONTINUOUS
 10
-569.34373791779637
 20
23.538754099449172
 30
0.0
 11
-569.18550125762431
 21
22.91966583137507
 31
0.0
  0
LINE
  5
90E
  8
0
  6
CONTINUOUS
 10
-568.31158993427562
 20
23.538754099449172
 30
0.0
 11
-568.08835855907034
 21
22.91966583137507
 31
0.0
  0
LINE
  5
90F
  8
0
  6
CONTINUOUS
 10
-569.18550125762431
 20
22.91966583137507
 30
0.0
 11
-567.18912495653456
 21
17.48654477382312
 31
0.0
  0
LINE
  5
910
  8
0
  6
CONTINUOUS
 10
-568.08835855907034
 20
22.91966583137507
 30
0.0
 11
-566.12927913876888
 21
17.48654477382312
 31
0.0
  0
LINE
  5
911
  8
0
  6
CONTINUOUS
 10
-567.18912495653456
 20
17.48654477382312
 30
0.0
 11
-567.02796880109827
 21
17.047959672819442
 31
0.0
  0
LINE
  5
912
  8
0
  6
CONTINUOUS
 10
-566.12927913876888
 20
17.48654477382312
 30
0.0
 11
-565.85679722226814
 21
17.047959672819442
 31
0.0
  0
LINE
  5
913
  8
0
  6
CONTINUOUS
 10
-567.02796880109827
 20
17.047959672819442
 30
0.0
 11
-564.10661818503218
 21
12.34577293151704
 31
0.0
  0
LINE
  5
914
  8
0
  6
CONTINUOUS
 10
-565.85679722226814
 20
17.047959672819442
 30
0.0
 11
-562.93544660620216
 21
12.34577293151704
 31
0.0
  0
LINE
  5
915
  8
0
  6
CONTINUOUS
 10
-564.10661818503218
 20
12.34577293151704
 30
0.0
 11
-563.72678055315123
 21
11.7343887769905
 31
0.0
  0
LINE
  5
916
  8
0
  6
CONTINUOUS
 10
-562.93544660620216
 20
12.34577293151704
 30
0.0
 11
-562.35470349060211
 21
11.7343887769905
 31
0.0
  0
LINE
  5
917
  8
0
  6
CONTINUOUS
 10
-563.72678055315123
 20
11.7343887769905
 30
0.0
 11
-560.1394034039206
 21
7.9577352335664191
 31
0.0
  0
LINE
  5
918
  8
0
  6
CONTINUOUS
 10
-562.35470349060211
 20
11.7343887769905
 30
0.0
 11
-558.76732634137136
 21
7.9577352335664191
 31
0.0
  0
LINE
  5
919
  8
0
  6
CONTINUOUS
 10
-560.1394034039206
 20
7.9577352335664191
 30
0.0
 11
-559.41855540546896
 21
7.1988540135624826
 31
0.0
  0
LINE
  5
91A
  8
0
  6
CONTINUOUS
 10
-558.76732634137136
 20
7.9577352335664191
 30
0.0
 11
-557.8829974042518
 21
7.1988540135624826
 31
0.0
  0
LINE
  5
91B
  8
0
  6
CONTINUOUS
 10
-559.41855540546896
 20
7.1988540135624826
 30
0.0
 11
-556.40982853723256
 21
4.6169342995445009
 31
0.0
  0
LINE
  5
91C
  8
0
  6
CONTINUOUS
 10
-557.8829974042518
 20
7.1988540135624826
 30
0.0
 11
-554.87427053601527
 21
4.6169342995445009
 31
0.0
  0
LINE
  5
91D
  8
0
  6
CONTINUOUS
 10
-556.40982853723256
 20
4.6169342995445009
 30
0.0
 11
-555.52549960011265
 21
3.8580530795404311
 31
0.0
  0
LINE
  5
91E
  8
0
  6
CONTINUOUS
 10
-554.87427053601527
 20
4.6169342995445009
 30
0.0
 11
-554.08631069543844
 21
3.8580530795404311
 31
0.0
  0
LINE
  5
91F
  8
0
  6
CONTINUOUS
 10
-555.52549960011265
 20
3.8580530795404311
 30
0.0
 11
-554.89356305433193
 21
3.246127752762539
 31
0.0
  0
LINE
  5
920
  8
0
  6
CONTINUOUS
 10
-554.08631069543844
 20
3.8580530795404311
 30
0.0
 11
-553.45093776720842
 21
3.246127752762539
 31
0.0
  0
LINE
  5
921
  8
0
  6
CONTINUOUS
 10
-554.89356305433193
 20
3.246127752762539
 30
0.0
 11
-553.90064184144535
 21
2.28464888005443
 31
0.0
  0
LINE
  5
922
  8
0
  6
CONTINUOUS
 10
-553.45093776720842
 20
3.246127752762539
 30
0.0
 11
-552.63399644701985
 21
2.28464888005443
 31
0.0
  0
LINE
  5
923
  8
0
  6
CONTINUOUS
 10
-553.90064184144535
 20
2.28464888005443
 30
0.0
 11
-553.0167993855996
 21
1.2124448834022981
 31
0.0
  0
LINE
  5
924
  8
0
  6
CONTINUOUS
 10
-552.63399644701985
 20
2.28464888005443
 30
0.0
 11
-551.72297513037972
 21
1.2124448834022981
 31
0.0
  0
LINE
  5
925
  8
0
  6
CONTINUOUS
 10
-553.0167993855996
 20
1.2124448834022981
 30
0.0
 11
-552.52982372068152
 21
0.6216865975289423
 31
0.0
  0
LINE
  5
926
  8
0
  6
CONTINUOUS
 10
-551.72297513037972
 20
1.2124448834022981
 30
0.0
 11
-551.29043381281031
 21
0.6216865975289423
 31
0.0
  0
LINE
  5
927
  8
0
  6
CONTINUOUS
 10
-552.52982372068152
 20
0.6216865975289423
 30
0.0
 11
-552.25099161407923
 21
0.2181559307878516
 31
0.0
  0
LINE
  5
928
  8
0
  6
CONTINUOUS
 10
-551.29043381281031
 20
0.6216865975289423
 30
0.0
 11
-550.99497678673788
 21
0.2181559307878516
 31
0.0
  0
LINE
  5
929
  8
0
  6
CONTINUOUS
 10
-552.25099161407923
 20
0.2181559307878516
 30
0.0
 11
-551.89517232271851
 21
-0.2967919266583596
 31
0.0
  0
LINE
  5
92A
  8
0
  6
CONTINUOUS
 10
-550.99497678673788
 20
0.2181559307878516
 30
0.0
 11
-550.71289155138209
 21
-0.2967919266583596
 31
0.0
  0
LINE
  5
92B
  8
0
  6
CONTINUOUS
 10
-551.89517232271851
 20
-0.2967919266583596
 30
0.0
 11
-551.64511135739747
 21
-0.6586844981112066
 31
0.0
  0
LINE
  5
92C
  8
0
  6
CONTINUOUS
 10
-550.71289155138209
 20
-0.2967919266583596
 30
0.0
 11
-550.62454257538423
 21
-0.6586844981112066
 31
0.0
  0
LINE
  5
92D
  8
0
  6
CONTINUOUS
 10
-551.64511135739747
 20
-0.6586844981112066
 30
0.0
 11
-551.59420914381815
 21
-0.8671887026794635
 31
0.0
  0
LINE
  5
92E
  8
0
  6
CONTINUOUS
 10
-550.62454257538423
 20
-0.6586844981112066
 30
0.0
 11
-550.57364036180479
 21
-0.8671887026794635
 31
0.0
  0
LINE
  5
92F
  8
0
  6
CONTINUOUS
 10
-551.59420914381815
 20
-0.8671887026794635
 30
0.0
 11
-551.56774958541007
 21
-0.9755715959006199
 31
0.0
  0
LINE
  5
930
  8
0
  6
CONTINUOUS
 10
-550.57364036180479
 20
-0.8671887026794635
 30
0.0
 11
-550.57605274686512
 21
-0.9755715959006199
 31
0.0
  0
LINE
  5
931
  8
0
  6
CONTINUOUS
 10
-551.56774958541007
 20
-0.9755715959006199
 30
0.0
 11
-551.57500820101609
 21
-1.301684442948895
 31
0.0
  0
LINE
  5
932
  8
0
  6
CONTINUOUS
 10
-550.57605274686512
 20
-0.9755715959006199
 30
0.0
 11
-550.58331136247114
 21
-1.301684442948895
 31
0.0
  0
LINE
  5
933
  8
0
  6
CONTINUOUS
 10
-551.57500820101609
 20
-1.301684442948895
 30
0.0
 11
-551.59854199383381
 21
-1.4541918273664951
 31
0.0
  0
LINE
  5
934
  8
0
  6
CONTINUOUS
 10
-550.58331136247114
 20
-1.301684442948895
 30
0.0
 11
-550.5867058698957
 21
-1.4541918273664951
 31
0.0
  0
LINE
  5
935
  8
0
  6
CONTINUOUS
 10
-551.59854199383381
 20
-1.4541918273664951
 30
0.0
 11
-552.049905861154
 21
-4.3791909279641397
 31
0.0
  0
LINE
  5
936
  8
0
  6
CONTINUOUS
 10
-550.5867058698957
 20
-1.4541918273664951
 30
0.0
 11
-551.03806973721578
 21
-4.3791909279641397
 31
0.0
  0
LINE
  5
937
  8
0
  6
CONTINUOUS
 10
-552.049905861154
 20
-4.3791909279641397
 30
0.0
 11
-552.05695908776818
 21
-4.5316983123817396
 31
0.0
  0
LINE
  5
938
  8
0
  6
CONTINUOUS
 10
-551.03806973721578
 20
-4.3791909279641397
 30
0.0
 11
-551.06160353003361
 21
-4.5316983123817396
 31
0.0
  0
LINE
  5
939
  8
0
  6
CONTINUOUS
 10
-552.05695908776818
 20
-4.5316983123817396
 30
0.0
 11
-552.10378257093691
 21
-5.544132385157333
 31
0.0
  0
LINE
  5
93A
  8
0
  6
CONTINUOUS
 10
-551.06160353003361
 20
-4.5316983123817396
 30
0.0
 11
-551.10842701320212
 21
-5.544132385157333
 31
0.0
  0
LINE
  5
93B
  8
0
  6
CONTINUOUS
 10
-552.10378257093691
 20
-5.544132385157333
 30
0.0
 11
-552.10658691972651
 21
-5.604769016060926
 31
0.0
  0
LINE
  5
93C
  8
0
  6
CONTINUOUS
 10
-551.10842701320212
 20
-5.544132385157333
 30
0.0
 11
-551.09817037197536
 21
-5.604769016060926
 31
0.0
  0
LINE
  5
93D
  8
0
  6
CONTINUOUS
 10
-552.10658691972651
 20
-5.604769016060926
 30
0.0
 11
-551.94780914552723
 21
-6.5434534330165954
 31
0.0
  0
LINE
  5
93E
  8
0
  6
CONTINUOUS
 10
-551.09817037197536
 20
-5.604769016060926
 30
0.0
 11
-550.93939259777619
 21
-6.5434534330165954
 31
0.0
  0
LINE
  5
93F
  8
0
  6
CONTINUOUS
 10
-551.94780914552723
 20
-6.5434534330165954
 30
0.0
 11
-551.90196631157914
 21
-6.8144734424169018
 31
0.0
  0
LINE
  5
940
  8
0
  6
CONTINUOUS
 10
-550.93939259777619
 20
-6.5434534330165954
 30
0.0
 11
-550.83072183541003
 21
-6.8144734424169018
 31
0.0
  0
LINE
  5
941
  8
0
  6
CONTINUOUS
 10
-551.90196631157914
 20
-6.8144734424169018
 30
0.0
 11
-551.63344048155193
 21
-7.4841648239223284
 31
0.0
  0
LINE
  5
942
  8
0
  6
CONTINUOUS
 10
-550.83072183541003
 20
-6.8144734424169018
 30
0.0
 11
-550.5621960053827
 21
-7.4841648239223284
 31
0.0
  0
LINE
  5
943
  8
0
  6
CONTINUOUS
 10
-551.63344048155193
 20
-7.4841648239223284
 30
0.0
 11
-551.44535991026078
 21
-7.9532293366712317
 31
0.0
  0
LINE
  5
944
  8
0
  6
CONTINUOUS
 10
-550.5621960053827
 20
-7.4841648239223284
 30
0.0
 11
-550.31306725826664
 21
-7.9532293366712317
 31
0.0
  0
LINE
  5
945
  8
0
  6
CONTINUOUS
 10
-461.05000000000041
 20
52.3080250510884
 30
0.0
 11
-461.05000000000041
 21
-9.7532258324850432
 31
0.0
  0
LINE
  5
946
  8
0
  6
CONTINUOUS
 10
-460.0500000000003
 20
52.3080250510884
 30
0.0
 11
-460.0500000000003
 21
-9.7532258324850432
 31
0.0
  0
LINE
  5
947
  8
0
  6
CONTINUOUS
 10
-461.05000000000041
 20
-9.7532258324850432
 30
0.0
 11
-461.10962980399449
 21
-10.20615916141443
 31
0.0
  0
LINE
  5
948
  8
0
  6
CONTINUOUS
 10
-460.0500000000003
 20
-9.7532258324850432
 30
0.0
 11
-460.10962980399449
 21
-10.20615916141443
 31
0.0
  0
LINE
  5
949
  8
0
  6
CONTINUOUS
 10
-551.44535991026078
 20
-7.9532293366712317
 30
0.0
 11
-550.21395194822639
 21
-10.271748505547951
 31
0.0
  0
LINE
  5
94A
  8
0
  6
CONTINUOUS
 10
-550.31306725826664
 20
-7.9532293366712317
 30
0.0
 11
-549.08165929623215
 21
-10.271748505547951
 31
0.0
  0
LINE
  5
94B
  8
0
  6
CONTINUOUS
 10
-461.10962980399449
 20
-10.20615916141443
 30
0.0
 11
-461.21683616267637
 21
-10.464978206516919
 31
0.0
  0
LINE
  5
94C
  8
0
  6
CONTINUOUS
 10
-460.10962980399449
 20
-10.20615916141443
 30
0.0
 11
-460.1437039777054
 21
-10.464978206516919
 31
0.0
  0
LINE
  5
94D
  8
0
  6
CONTINUOUS
 10
-461.21683616267637
 20
-10.464978206516919
 30
0.0
 11
-461.28445554337759
 21
-10.628225832484979
 31
0.0
  0
LINE
  5
94E
  8
0
  6
CONTINUOUS
 10
-460.1437039777054
 20
-10.464978206516919
 30
0.0
 11
-460.2113233584065
 21
-10.628225832484979
 31
0.0
  0
LINE
  5
94F
  8
0
  6
CONTINUOUS
 10
-550.21395194822639
 20
-10.271748505547951
 30
0.0
 11
-549.88721029220847
 21
-10.8869441321024
 31
0.0
  0
LINE
  5
950
  8
0
  6
CONTINUOUS
 10
-549.08165929623215
 20
-10.271748505547951
 30
0.0
 11
-548.70865424085378
 21
-10.8869441321024
 31
0.0
  0
LINE
  5
951
  8
0
  6
CONTINUOUS
 10
-461.28445554337759
 20
-10.628225832484979
 30
0.0
 11
-461.56256313292369
 21
-10.990662699561179
 31
0.0
  0
LINE
  5
952
  8
0
  6
CONTINUOUS
 10
-460.2113233584065
 20
-10.628225832484979
 30
0.0
 11
-460.36144962425362
 21
-10.990662699561179
 31
0.0
  0
LINE
  5
953
  8
0
  6
CONTINUOUS
 10
-549.88721029220847
 20
-10.8869441321024
 30
0.0
 11
-549.8042447748544
 21
-11.043153242544969
 31
0.0
  0
LINE
  5
954
  8
0
  6
CONTINUOUS
 10
-548.70865424085378
 20
-10.8869441321024
 30
0.0
 11
-548.54357446936399
 21
-11.043153242544969
 31
0.0
  0
LINE
  5
955
  8
0
  6
CONTINUOUS
 10
-461.56256313292369
 20
-10.990662699561179
 30
0.0
 11
-461.74183889811729
 21
-11.128225832484871
 31
0.0
  0
LINE
  5
956
  8
0
  6
CONTINUOUS
 10
-460.36144962425362
 20
-10.990662699561179
 30
0.0
 11
-460.41843013959311
 21
-11.128225832484871
 31
0.0
  0
LINE
  5
957
  8
0
  6
CONTINUOUS
 10
-549.8042447748544
 20
-11.043153242544969
 30
0.0
 11
-549.73382826771217
 21
-11.146860507316839
 31
0.0
  0
LINE
  5
958
  8
0
  6
CONTINUOUS
 10
-548.54357446936399
 20
-11.043153242544969
 30
0.0
 11
-548.43397797065893
 21
-11.146860507316839
 31
0.0
  0
LINE
  5
959
  8
0
  6
CONTINUOUS
 10
-549.73382826771217
 20
-11.146860507316839
 30
0.0
 11
-549.65876852158465
 21
-11.257406191578619
 31
0.0
  0
LINE
  5
95A
  8
0
  6
CONTINUOUS
 10
-548.43397797065893
 20
-11.146860507316839
 30
0.0
 11
-548.25009506864058
 21
-11.257406191578619
 31
0.0
  0
LINE
  5
95B
  8
0
  6
CONTINUOUS
 10
-461.74183889811729
 20
-11.128225832484871
 30
0.0
 11
-461.92500000000001
 21
-11.26877028910754
 31
0.0
  0
LINE
  5
95C
  8
0
  6
CONTINUOUS
 10
-460.41843013959311
 20
-11.128225832484871
 30
0.0
 11
-460.52627369417053
 21
-11.26877028910754
 31
0.0
  0
LINE
  5
95D
  8
0
  6
CONTINUOUS
 10
-461.92500000000001
 20
-11.26877028910754
 30
0.0
 11
-462.34706667107059
 21
-11.443596028490569
 31
0.0
  0
LINE
  5
95E
  8
0
  6
CONTINUOUS
 10
-460.52627369417053
 20
-11.26877028910754
 30
0.0
 11
-460.66042220219242
 21
-11.443596028490569
 31
0.0
  0
LINE
  5
95F
  8
0
  6
CONTINUOUS
 10
-462.34706667107059
 20
-11.443596028490569
 30
0.0
 11
-462.4896514294756
 21
-11.462367668052471
 31
0.0
  0
LINE
  5
960
  8
0
  6
CONTINUOUS
 10
-460.66042220219242
 20
-11.443596028490569
 30
0.0
 11
-460.67482618783691
 21
-11.462367668052471
 31
0.0
  0
LINE
  5
961
  8
0
  6
CONTINUOUS
 10
-549.65876852158465
 20
-11.257406191578619
 30
0.0
 11
-549.51960111317055
 21
-11.462367668052471
 31
0.0
  0
LINE
  5
962
  8
0
  6
CONTINUOUS
 10
-548.25009506864058
 20
-11.257406191578619
 30
0.0
 11
-547.75148842848807
 21
-11.462367668052471
 31
0.0
  0
LINE
  5
963
  8
0
  6
CONTINUOUS
 10
-460.67482618783691
 20
-11.462367668052471
 30
0.0
 11
-460.70617776008498
 21
-11.50322583248464
 31
0.0
  0
LINE
  5
964
  8
0
  6
CONTINUOUS
 10
-549.51960111317055
 20
-11.462367668052471
 30
0.0
 11
-549.49185870540498
 21
-11.50322583248464
 31
0.0
  0
LINE
  5
965
  8
0
  6
CONTINUOUS
 10
-549.49185870540498
 20
-11.50322583248464
 30
0.0
 11
-549.47043150051877
 21
-11.534783160455319
 31
0.0
  0
LINE
  5
966
  8
0
  6
CONTINUOUS
 10
-460.70617776008498
 20
-11.50322583248464
 30
0.0
 11
-460.73039254950532
 21
-11.534783160455319
 31
0.0
  0
LINE
  5
967
  8
0
  6
CONTINUOUS
 10
-549.47043150051877
 20
-11.534783160455319
 30
0.0
 11
-549.29818966114317
 21
-11.69776948074791
 31
0.0
  0
LINE
  5
968
  8
0
  6
CONTINUOUS
 10
-460.73039254950532
 20
-11.534783160455319
 30
0.0
 11
-460.85545635173719
 21
-11.69776948074791
 31
0.0
  0
LINE
  5
969
  8
0
  6
CONTINUOUS
 10
-549.29818966114317
 20
-11.69776948074791
 30
0.0
 11
-549.03879736164106
 21
-11.94322317864944
 31
0.0
  0
LINE
  5
96A
  8
0
  6
CONTINUOUS
 10
-460.85545635173719
 20
-11.69776948074791
 30
0.0
 11
-461.17533783870027
 21
-11.94322317864944
 31
0.0
  0
LINE
  5
96B
  8
0
  6
CONTINUOUS
 10
-549.03879736164106
 20
-11.94322317864944
 30
0.0
 11
-548.7201335431389
 21
-12.134795692891879
 31
0.0
  0
LINE
  5
96C
  8
0
  6
CONTINUOUS
 10
-461.17533783870027
 20
-11.94322317864944
 30
0.0
 11
-461.42500000000013
 21
-12.134795692891879
 31
0.0
  0
LINE
  5
96D
  8
0
  6
CONTINUOUS
 10
-548.7201335431389
 20
-12.134795692891879
 30
0.0
 11
-548.52949753378778
 21
-12.249401172071069
 31
0.0
  0
LINE
  5
96E
  8
0
  6
CONTINUOUS
 10
-461.42500000000013
 20
-12.134795692891879
 30
0.0
 11
-461.70168210215672
 21
-12.249401172071069
 31
0.0
  0
LINE
  5
96F
  8
0
  6
CONTINUOUS
 10
-548.52949753378778
 20
-12.249401172071069
 30
0.0
 11
-548.05392611260913
 21
-12.40952185477965
 31
0.0
  0
LINE
  5
970
  8
0
  6
CONTINUOUS
 10
-461.70168210215672
 20
-12.249401172071069
 30
0.0
 11
-462.08824762596811
 21
-12.40952185477965
 31
0.0
  0
LINE
  5
971
  8
0
  6
CONTINUOUS
 10
-548.05392611260913
 20
-12.40952185477965
 30
0.0
 11
-547.96631379537257
 21
-12.439020145519709
 31
0.0
  0
LINE
  5
972
  8
0
  6
CONTINUOUS
 10
-462.08824762596811
 20
-12.40952185477965
 30
0.0
 11
-462.31230938917531
 21
-12.439020145519709
 31
0.0
  0
LINE
  5
973
  8
0
  6
CONTINUOUS
 10
-547.96631379537257
 20
-12.439020145519709
 30
0.0
 11
-547.37554403644049
 21
-12.50322583248469
 31
0.0
  0
LINE
  5
974
  8
0
  6
CONTINUOUS
 10
-462.31230938917531
 20
-12.439020145519709
 30
0.0
 11
-462.80000000000001
 21
-12.50322583248469
 31
0.0
  0
ENDBLK
  5
976
  8
0
  0
BLOCK
  8
0
  2
*X50
 70
     1
 10
0.0
 20
0.0
 30
0.0
  3
*X50
  1

  0
LINE
  5
978
  8
0
 62
     0
 10
-65.000000000000441
 20
-269.99954087428648
 30
0.0
 11
-25.000000000000458
 21
-269.99954087428648
 31
0.0
  0
LINE
  5
979
  8
0
 62
     0
 10
-65.000000000000483
 20
-254.99954087428651
 30
0.0
 11
-25.000000000000512
 21
-254.99954087428651
 31
0.0
  0
LINE
  5
97A
  8
0
 62
     0
 10
-65.00000000000054
 20
-239.99954087428651
 30
0.0
 11
-25.000000000000568
 21
-239.99954087428651
 31
0.0
  0
LINE
  5
97B
  8
0
 62
     0
 10
-65.000000000000597
 20
-224.99954087428651
 30
0.0
 11
-25.000000000000629
 21
-224.99954087428651
 31
0.0
  0
LINE
  5
97C
  8
0
 62
     0
 10
-65.000000000000654
 20
-209.99954087428659
 30
0.0
 11
-25.000000000000679
 21
-209.99954087428659
 31
0.0
  0
LINE
  5
97D
  8
0
 62
     0
 10
-65.000000000000711
 20
-194.99954087428651
 30
0.0
 11
-25.000000000000739
 21
-194.99954087428651
 31
0.0
  0
LINE
  5
97E
  8
0
 62
     0
 10
-65.000000000000767
 20
-179.99954087428651
 30
0.0
 11
-25.000000000000789
 21
-179.99954087428651
 31
0.0
  0
LINE
  5
97F
  8
0
 62
     0
 10
-65.000000000000824
 20
-164.99954087428651
 30
0.0
 11
-25.000000000000849
 21
-164.99954087428651
 31
0.0
  0
LINE
  5
980
  8
0
 62
     0
 10
-65.000000000000881
 20
-149.99954087428651
 30
0.0
 11
-25.000000000000909
 21
-149.99954087428651
 31
0.0
  0
LINE
  5
981
  8
0
 62
     0
 10
-65.000000000000938
 20
-134.99954087428651
 30
0.0
 11
-25.000000000000959
 21
-134.99954087428651
 31
0.0
  0
LINE
  5
982
  8
0
 62
     0
 10
-65.000000000000995
 20
-119.9995408742865
 30
0.0
 11
-25.000000000001009
 21
-119.9995408742865
 31
0.0
  0
LINE
  5
983
  8
0
 62
     0
 10
-65.000000000001023
 20
-104.9995408742865
 30
0.0
 11
-25.000000000001069
 21
-104.9995408742865
 31
0.0
  0
LINE
  5
984
  8
0
 62
     0
 10
-65.000000000001094
 20
-89.999540874286524
 30
0.0
 11
-25.00000000000113
 21
-89.999540874286524
 31
0.0
  0
LINE
  5
985
  8
0
 62
     0
 10
-65.000000000001151
 20
-74.999540874286538
 30
0.0
 11
-25.00000000000118
 21
-74.999540874286538
 31
0.0
  0
LINE
  5
986
  8
0
 62
     0
 10
-65.000000000001194
 20
-59.999540874286538
 30
0.0
 11
-25.00000000000124
 21
-59.999540874286538
 31
0.0
  0
ENDBLK
  5
988
  8
0
  0
ENDSEC
  0
SECTION
  2
ENTITIES
  0
LINE
  5
E1
  8
0
  6
DASH
 10
-201.16518339091451
 20
31.09999999999954
 30
0.0
 11
-399.99999999999989
 21
31.100000000000179
 31
0.0
1001
REVIT
1002
{
1070
     1
1000
683777
1002
}
1002
{
1070
     2
1000
-2000051
1002
}
1002
{
1070
     3
1000
118704
1002
}
  0
INSERT
  5
29C
  8
0
  2
*U25
 10
0.0
 20
0.0
 30
0.0
  0
CIRCLE
  5
29E
  8
0
 10
36.142075474568713
 20
185.35344479111299
 30
0.0
 40
2.5
1001
REVIT
1002
{
1070
     1
1000
683784
1002
}
1002
{
1070
     5
1000
233013
1002
}
1002
{
1070
     2
1000
-2005028
1002
}
  0
INSERT
  5
29F
  8
0
  6
CONTINUOUS
  2
*U26
 10
0.0
 20
0.0
 30
0.0
1001
REVIT
1002
{
1070
     1
1000
683784
1002
}
1002
{
1070
     5
1000
233013
1002
}
1002
{
1070
     2
1000
-2005028
1002
}
1001
ACAD
1002
{
1000
R14_HATCH_DATA
1000
29F
1011
1.0
1021
1.0668823092635704E+242
1031
6.8280467792868505E+243
1021
0.0
1031
0.0
1011
0.0
1021
1.0668823092635704E+242
1031
6.8280467792868505E+243
1021
1.0
1031
0.0
1011
0.0
1021
1.0668823092635704E+242
1031
6.8280467792868505E+243
1021
0.0
1031
1.0
1040
0.0
1010
0.0
1020
0.0
1030
1.0
1000
SOLID
1070
     1
1070
     0
1071
        1
1071
        0
1071
        1
1070
     2
1040
36.142075474568713
1040
185.35344479111299
1040
2.5
1040
0.0
1040
6.2831853071795862
1070
     1
1071
        0
1070
     0
1070
     1
1071
        1
1040
0.0
1040
0.0
1040
0.0
1002
}
  0
LINE
  5
2A0
  8
0
 10
36.142075474568713
 20
358.23651358731712
 30
0.0
 11
-23.443528884248369
 21
358.23651358731701
 31
0.0
1001
REVIT
1002
{
1070
     1
1000
683784
1002
}
1002
{
1070
     5
1000
233013
1002
}
1002
{
1070
     2
1000
-2005028
1002
}
  0
LINE
  5
2A1
  8
0
 10
36.142075474568713
 20
185.35344479111299
 30
0.0
 11
36.142075474568713
 21
358.23651358731712
 31
0.0
1001
REVIT
1002
{
1070
     1
1000
683784
1002
}
1002
{
1070
     5
1000
233013
1002
}
1002
{
1070
     2
1000
-2005028
1002
}
  0
INSERT
  5
2A2
  8
0
  2
*U27
 10
0.0
 20
0.0
 30
0.0
  0
CIRCLE
  5
2A3
  8
0
 10
-498.74805997483082
 20
-12.723590621372679
 30
0.0
 40
2.4999999999999432
1001
REVIT
1002
{
1070
     1
1000
683785
1002
}
1002
{
1070
     5
1000
233011
1002
}
1002
{
1070
     2
1000
-2005028
1002
}
  0
INSERT
  5
2A4
  8
0
  6
CONTINUOUS
  2
*U28
 10
0.0
 20
0.0
 30
0.0
1001
REVIT
1002
{
1070
     1
1000
683785
1002
}
1002
{
1070
     5
1000
233011
1002
}
1002
{
1070
     2
1000
-2005028
1002
}
1001
ACAD
1002
{
1000
R14_HATCH_DATA
1000
2A4
1011
1.0
1021
1.0668823092635704E+242
1031
6.8280467792868505E+243
1021
0.0
1031
0.0
1011
0.0
1021
1.0668823092635704E+242
1031
6.8280467792868505E+243
1021
1.0
1031
0.0
1011
0.0
1021
1.0668823092635704E+242
1031
6.8280467792868505E+243
1021
0.0
1031
1.0
1040
0.0
1010
0.0
1020
0.0
1030
1.0
1000
SOLID
1070
     1
1070
     0
1071
        1
1071
        0
1071
        1
1070
     2
1040
-498.74805997483082
1040
-12.723590621372679
1040
2.4999999999999432
1040
0.0
1040
6.2831853071795862
1070
     1
1071
        0
1070
     0
1070
     1
1071
        1
1040
0.0
1040
0.0
1040
0.0
1002
}
  0
LINE
  5
2A5
  8
0
 10
-498.74805997483082
 20
-80.011387151596949
 30
0.0
 11
-533.81928458741777
 21
-80.011387151596935
 31
0.0
1001
REVIT
1002
{
1070
     1
1000
683785
1002
}
1002
{
1070
     5
1000
233011
1002
}
1002
{
1070
     2
1000
-2005028
1002
}
  0
LINE
  5
2A6
  8
0
 10
-498.74805997483082
 20
-12.723590621372679
 30
0.0
 11
-498.74805997483082
 21
-80.011387151596949
 31
0.0
1001
REVIT
1002
{
1070
     1
1000
683785
1002
}
1002
{
1070
     5
1000
233011
1002
}
1002
{
1070
     2
1000
-2005028
1002
}
  0
INSERT
  5
2A7
  8
0
  2
*U29
 10
0.0
 20
0.0
 30
0.0
  0
CIRCLE
  5
2A8
  8
0
 10
-97.992596134563996
 20
272.96011717671229
 30
0.0
 40
2.5000000000000142
1001
REVIT
1002
{
1070
     1
1000
683786
1002
}
1002
{
1070
     5
1000
233013
1002
}
1002
{
1070
     2
1000
-2005028
1002
}
  0
INSERT
  5
2A9
  8
0
  6
CONTINUOUS
  2
*U30
 10
0.0
 20
0.0
 30
0.0
1001
REVIT
1002
{
1070
     1
1000
683786
1002
}
1002
{
1070
     5
1000
233013
1002
}
1002
{
1070
     2
1000
-2005028
1002
}
1001
ACAD
1002
{
1000
R14_HATCH_DATA
1000
2A9
1011
1.0
1021
1.0668823092635704E+242
1031
6.8280467792868505E+243
1021
0.0
1031
0.0
1011
0.0
1021
1.0668823092635704E+242
1031
6.8280467792868505E+243
1021
1.0
1031
0.0
1011
0.0
1021
1.0668823092635704E+242
1031
6.8280467792868505E+243
1021
0.0
1031
1.0
1040
0.0
1010
0.0
1020
0.0
1030
1.0
1000
SOLID
1070
     1
1070
     0
1071
        1
1071
        0
1071
        1
1070
     2
1040
-97.992596134563996
1040
272.96011717671229
1040
2.5000000000000142
1040
0.0
1040
6.2831853071795862
1070
     1
1071
        0
1070
     0
1070
     1
1071
        1
1040
0.0
1040
0.0
1040
0.0
1002
}
  0
LINE
  5
2AA
  8
0
 10
-97.992596134563996
 20
447.00121306712259
 30
0.0
 11
-139.02420835795681
 21
447.00121306712259
 31
0.0
1001
REVIT
1002
{
1070
     1
1000
683786
1002
}
1002
{
1070
     5
1000
233013
1002
}
1002
{
1070
     2
1000
-2005028
1002
}
  0
LINE
  5
2AB
  8
0
 10
-97.992596134563996
 20
272.96011717671229
 30
0.0
 11
-97.992596134563996
 21
447.00121306712259
 31
0.0
1001
REVIT
1002
{
1070
     1
1000
683786
1002
}
1002
{
1070
     5
1000
233013
1002
}
1002
{
1070
     2
1000
-2005028
1002
}
  0
INSERT
  5
2AC
  8
0
  2
*U31
 10
0.0
 20
0.0
 30
0.0
  0
CIRCLE
  5
2AD
  8
0
 10
-371.36066987241207
 20
-48.51259839030056
 30
0.0
 40
2.4999999999999432
1001
REVIT
1002
{
1070
     1
1000
683787
1002
}
1002
{
1070
     5
1000
233013
1002
}
1002
{
1070
     2
1000
-2005028
1002
}
  0
INSERT
  5
2AE
  8
0
  6
CONTINUOUS
  2
*U32
 10
0.0
 20
0.0
 30
0.0
1001
REVIT
1002
{
1070
     1
1000
683787
1002
}
1002
{
1070
     5
1000
233013
1002
}
1002
{
1070
     2
1000
-2005028
1002
}
1001
ACAD
1002
{
1000
R14_HATCH_DATA
1000
2AE
1011
1.0
1021
1.0668823092635704E+242
1031
6.8280467792868505E+243
1021
0.0
1031
0.0
1011
0.0
1021
1.0668823092635704E+242
1031
6.8280467792868505E+243
1021
1.0
1031
0.0
1011
0.0
1021
1.0668823092635704E+242
1031
6.8280467792868505E+243
1021
0.0
1031
1.0
1040
0.0
1010
0.0
1020
0.0
1030
1.0
1000
SOLID
1070
     1
1070
     0
1071
        1
1071
        0
1071
        1
1070
     2
1040
-371.36066987241207
1040
-48.51259839030056
1040
2.4999999999999432
1040
0.0
1040
6.2831853071795862
1070
     1
1071
        0
1070
     0
1070
     1
1071
        1
1040
0.0
1040
0.0
1040
0.0
1002
}
  0
LINE
  5
2AF
  8
0
 10
-371.36066987241207
 20
-188.52882235170691
 30
0.0
 11
-648.44428458741766
 21
-188.52882235170691
 31
0.0
1001
REVIT
1002
{
1070
     1
1000
683787
1002
}
1002
{
1070
     5
1000
233013
1002
}
1002
{
1070
     2
1000
-2005028
1002
}
  0
LINE
  5
2B0
  8
0
 10
-371.36066987241207
 20
-48.51259839030056
 30
0.0
 11
-371.36066987241207
 21
-188.52882235170691
 31
0.0
1001
REVIT
1002
{
1070
     1
1000
683787
1002
}
1002
{
1070
     5
1000
233013
1002
}
1002
{
1070
     2
1000
-2005028
1002
}
  0
INSERT
  5
2B1
  8
0
  2
*U33
 10
0.0
 20
0.0
 30
0.0
  0
CIRCLE
  5
2B2
  8
0
 10
-431.28179687252208
 20
-74.626038278913654
 30
0.0
 40
2.5
1001
REVIT
1002
{
1070
     1
1000
683789
1002
}
1002
{
1070
     5
1000
233011
1002
}
1002
{
1070
     2
1000
-2005028
1002
}
  0
INSERT
  5
2B3
  8
0
  6
CONTINUOUS
  2
*U34
 10
0.0
 20
0.0
 30
0.0
1001
REVIT
1002
{
1070
     1
1000
683789
1002
}
1002
{
1070
     5
1000
233011
1002
}
1002
{
1070
     2
1000
-2005028
1002
}
1001
ACAD
1002
{
1000
R14_HATCH_DATA
1000
2B3
1011
1.0
1021
1.0668823092635704E+242
1031
6.8280467792868505E+243
1021
0.0
1031
0.0
1011
0.0
1021
1.0668823092635704E+242
1031
6.8280467792868505E+243
1021
1.0
1031
0.0
1011
0.0
1021
1.0668823092635704E+242
1031
6.8280467792868505E+243
1021
0.0
1031
1.0
1040
0.0
1010
0.0
1020
0.0
1030
1.0
1000
SOLID
1070
     1
1070
     0
1071
        1
1071
        0
1071
        1
1070
     2
1040
-431.28179687252208
1040
-74.626038278913654
1040
2.5
1040
0.0
1040
6.2831853071795862
1070
     1
1071
        0
1070
     0
1070
     1
1071
        1
1040
0.0
1040
0.0
1040
0.0
1002
}
  0
LINE
  5
2B4
  8
0
 10
-431.28179687252208
 20
-150.75219158032479
 30
0.0
 11
-575.44428458741766
 21
-150.75219158032479
 31
0.0
1001
REVIT
1002
{
1070
     1
1000
683789
1002
}
1002
{
1070
     5
1000
233011
1002
}
1002
{
1070
     2
1000
-2005028
1002
}
  0
LINE
  5
2B5
  8
0
 10
-431.28179687252208
 20
-74.626038278913654
 30
0.0
 11
-431.28179687252208
 21
-150.75219158032479
 31
0.0
1001
REVIT
1002
{
1070
     1
1000
683789
1002
}
1002
{
1070
     5
1000
233011
1002
}
1002
{
1070
     2
1000
-2005028
1002
}
  0
INSERT
  5
2B6
  8
0
  2
*U35
 10
0.0
 20
0.0
 30
0.0
  0
CIRCLE
  5
2B7
  8
0
 10
-442.10053408952308
 20
143.67765229619181
 30
0.0
 40
2.4999999999999432
1001
REVIT
1002
{
1070
     1
1000
683791
1002
}
1002
{
1070
     5
1000
233013
1002
}
1002
{
1070
     2
1000
-2005028
1002
}
  0
INSERT
  5
2B8
  8
0
  6
CONTINUOUS
  2
*U36
 10
0.0
 20
0.0
 30
0.0
1001
REVIT
1002
{
1070
     1
1000
683791
1002
}
1002
{
1070
     5
1000
233013
1002
}
1002
{
1070
     2
1000
-2005028
1002
}
1001
ACAD
1002
{
1000
R14_HATCH_DATA
1000
2B8
1011
1.0
1021
1.0668823092635704E+242
1031
6.8280467792868505E+243
1021
0.0
1031
0.0
1011
0.0
1021
1.0668823092635704E+242
1031
6.8280467792868505E+243
1021
1.0
1031
0.0
1011
0.0
1021
1.0668823092635704E+242
1031
6.8280467792868505E+243
1021
0.0
1031
1.0
1040
0.0
1010
0.0
1020
0.0
1030
1.0
1000
SOLID
1070
     1
1070
     0
1071
        1
1071
        0
1071
        1
1070
     2
1040
-442.10053408952308
1040
143.67765229619181
1040
2.4999999999999432
1040
0.0
1040
6.2831853071795862
1070
     1
1071
        0
1070
     0
1070
     1
1071
        1
1040
0.0
1040
0.0
1040
0.0
1002
}
  0
LINE
  5
2B9
  8
0
 10
-442.10053408952308
 20
267.30243442263952
 30
0.0
 11
-524.81928458741766
 21
267.30243442263952
 31
0.0
1001
REVIT
1002
{
1070
     1
1000
683791
1002
}
1002
{
1070
     5
1000
233013
1002
}
1002
{
1070
     2
1000
-2005028
1002
}
  0
LINE
  5
2BA
  8
0
 10
-442.10053408952308
 20
143.67765229619181
 30
0.0
 11
-442.10053408952308
 21
267.30243442263952
 31
0.0
1001
REVIT
1002
{
1070
     1
1000
683791
1002
}
1002
{
1070
     5
1000
233013
1002
}
1002
{
1070
     2
1000
-2005028
1002
}
  0
INSERT
  5
2BB
  8
0
  2
*U37
 10
0.0
 20
0.0
 30
0.0
  0
CIRCLE
  5
2BC
  8
0
 10
-471.63321071726318
 20
125.321881516353
 30
0.0
 40
2.4999999999999432
1001
REVIT
1002
{
1070
     1
1000
683801
1002
}
1002
{
1070
     5
1000
233013
1002
}
1002
{
1070
     2
1000
-2005028
1002
}
  0
INSERT
  5
2BD
  8
0
  6
CONTINUOUS
  2
*U38
 10
0.0
 20
0.0
 30
0.0
1001
REVIT
1002
{
1070
     1
1000
683801
1002
}
1002
{
1070
     5
1000
233013
1002
}
1002
{
1070
     2
1000
-2005028
1002
}
1001
ACAD
1002
{
1000
R14_HATCH_DATA
1000
2BD
1011
1.0
1021
1.0668823092635704E+242
1031
6.8280467792868505E+243
1021
0.0
1031
0.0
1011
0.0
1021
1.0668823092635704E+242
1031
6.8280467792868505E+243
1021
1.0
1031
0.0
1011
0.0
1021
1.0668823092635704E+242
1031
6.8280467792868505E+243
1021
0.0
1031
1.0
1040
0.0
1010
0.0
1020
0.0
1030
1.0
1000
SOLID
1070
     1
1070
     0
1071
        1
1071
        0
1071
        1
1070
     2
1040
-471.63321071726318
1040
125.321881516353
1040
2.4999999999999432
1040
0.0
1040
6.2831853071795862
1070
     1
1071
        0
1070
     0
1070
     1
1071
        1
1040
0.0
1040
0.0
1040
0.0
1002
}
  0
LINE
  5
2BE
  8
0
 10
-471.63321071726318
 20
125.321881516353
 30
0.0
 11
-623.06928458741754
 21
125.321881516353
 31
0.0
1001
REVIT
1002
{
1070
     1
1000
683801
1002
}
1002
{
1070
     5
1000
233013
1002
}
1002
{
1070
     2
1000
-2005028
1002
}
  0
INSERT
  5
2BF
  8
0
  2
*U39
 10
0.0
 20
0.0
 30
0.0
  0
CIRCLE
  5
2C0
  8
0
 10
120.0654921590432
 20
346.89031666656382
 30
0.0
 40
2.5
1001
REVIT
1002
{
1070
     1
1000
683835
1002
}
1002
{
1070
     5
1000
515860
1002
}
1002
{
1070
     2
1000
-2005028
1002
}
  0
INSERT
  5
2C1
  8
0
  6
CONTINUOUS
  2
*U40
 10
0.0
 20
0.0
 30
0.0
1001
REVIT
1002
{
1070
     1
1000
683835
1002
}
1002
{
1070
     5
1000
515860
1002
}
1002
{
1070
     2
1000
-2005028
1002
}
1001
ACAD
1002
{
1000
R14_HATCH_DATA
1000
2C1
1011
1.0
1021
1.0668823092635704E+242
1031
6.8280467792868505E+243
1021
0.0
1031
0.0
1011
0.0
1021
1.0668823092635704E+242
1031
6.8280467792868505E+243
1021
1.0
1031
0.0
1011
0.0
1021
1.0668823092635704E+242
1031
6.8280467792868505E+243
1021
0.0
1031
1.0
1040
0.0
1010
0.0
1020
0.0
1030
1.0
1000
SOLID
1070
     1
1070
     0
1071
        1
1071
        0
1071
        1
1070
     2
1040
120.0654921590432
1040
346.89031666656382
1040
2.5
1040
0.0
1040
6.2831853071795862
1070
     1
1071
        0
1070
     0
1070
     1
1071
        1
1040
0.0
1040
0.0
1040
0.0
1002
}
  0
LINE
  5
2C2
  8
0
 10
120.0654921590432
 20
456.12245500000978
 30
0.0
 11
55.93147111575162
 21
456.12245500000978
 31
0.0
1001
REVIT
1002
{
1070
     1
1000
683835
1002
}
1002
{
1070
     5
1000
515860
1002
}
1002
{
1070
     2
1000
-2005028
1002
}
  0
LINE
  5
2C3
  8
0
 10
120.0654921590432
 20
346.89031666656382
 30
0.0
 11
120.0654921590432
 21
456.12245500000978
 31
0.0
1001
REVIT
1002
{
1070
     1
1000
683835
1002
}
1002
{
1070
     5
1000
515860
1002
}
1002
{
1070
     2
1000
-2005028
1002
}
  0
INSERT
  5
2C4
  8
0
  2
*U41
 10
0.0
 20
0.0
 30
0.0
  0
CIRCLE
  5
2C5
  8
0
 10
-228.5238264457214
 20
147.477786183468
 30
0.0
 40
2.5
1001
REVIT
1002
{
1070
     1
1000
687632
1002
}
1002
{
1070
     5
1000
233013
1002
}
1002
{
1070
     2
1000
-2005028
1002
}
  0
INSERT
  5
2C6
  8
0
  6
CONTINUOUS
  2
*U42
 10
0.0
 20
0.0
 30
0.0
1001
REVIT
1002
{
1070
     1
1000
687632
1002
}
1002
{
1070
     5
1000
233013
1002
}
1002
{
1070
     2
1000
-2005028
1002
}
1001
ACAD
1002
{
1000
R14_HATCH_DATA
1000
2C6
1011
1.0
1021
1.0668823092635704E+242
1031
6.8280467792868505E+243
1021
0.0
1031
0.0
1011
0.0
1021
1.0668823092635704E+242
1031
6.8280467792868505E+243
1021
1.0
1031
0.0
1011
0.0
1021
1.0668823092635704E+242
1031
6.8280467792868505E+243
1021
0.0
1031
1.0
1040
0.0
1010
0.0
1020
0.0
1030
1.0
1000
SOLID
1070
     1
1070
     0
1071
        1
1071
        0
1071
        1
1070
     2
1040
-228.5238264457214
1040
147.477786183468
1040
2.5
1040
0.0
1040
6.2831853071795862
1070
     1
1071
        0
1070
     0
1070
     1
1071
        1
1040
0.0
1040
0.0
1040
0.0
1002
}
  0
LINE
  5
2C7
  8
0
 10
-228.5238264457214
 20
-221.87422882602431
 30
0.0
 11
-624.81928458741777
 21
-221.87422882602431
 31
0.0
1001
REVIT
1002
{
1070
     1
1000
687632
1002
}
1002
{
1070
     5
1000
233013
1002
}
1002
{
1070
     2
1000
-2005028
1002
}
  0
LINE
  5
2C8
  8
0
 10
-228.5238264457214
 20
147.477786183468
 30
0.0
 11
-228.5238264457214
 21
-221.87422882602431
 31
0.0
1001
REVIT
1002
{
1070
     1
1000
687632
1002
}
1002
{
1070
     5
1000
233013
1002
}
1002
{
1070
     2
1000
-2005028
1002
}
  0
INSERT
  5
2C9
  8
0
  2
*U43
 10
0.0
 20
0.0
 30
0.0
  0
CIRCLE
  5
2CA
  8
0
 10
-371.30225065802381
 20
128.2808057133243
 30
0.0
 40
2.5
1001
REVIT
1002
{
1070
     1
1000
694402
1002
}
1002
{
1070
     5
1000
233013
1002
}
1002
{
1070
     2
1000
-2005028
1002
}
  0
INSERT
  5
2CB
  8
0
  6
CONTINUOUS
  2
*U44
 10
0.0
 20
0.0
 30
0.0
1001
REVIT
1002
{
1070
     1
1000
694402
1002
}
1002
{
1070
     5
1000
233013
1002
}
1002
{
1070
     2
1000
-2005028
1002
}
1001
ACAD
1002
{
1000
R14_HATCH_DATA
1000
2CB
1011
1.0
1021
1.0668823092635704E+242
1031
6.8280467792868505E+243
1021
0.0
1031
0.0
1011
0.0
1021
1.0668823092635704E+242
1031
6.8280467792868505E+243
1021
1.0
1031
0.0
1011
0.0
1021
1.0668823092635704E+242
1031
6.8280467792868505E+243
1021
0.0
1031
1.0
1040
0.0
1010
0.0
1020
0.0
1030
1.0
1000
SOLID
1070
     1
1070
     0
1071
        1
1071
        0
1071
        1
1070
     2
1040
-371.30225065802381
1040
128.2808057133243
1040
2.5
1040
0.0
1040
6.2831853071795862
1070
     1
1071
        0
1070
     0
1070
     1
1071
        1
1040
0.0
1040
0.0
1040
0.0
1002
}
  0
LINE
  5
2CC
  8
0
 10
-371.30225065802381
 20
317.9625442007133
 30
0.0
 11
-595.31928458741766
 21
317.9625442007133
 31
0.0
1001
REVIT
1002
{
1070
     1
1000
694402
1002
}
1002
{
1070
     5
1000
233013
1002
}
1002
{
1070
     2
1000
-2005028
1002
}
  0
LINE
  5
2CD
  8
0
 10
-371.30225065802381
 20
128.2808057133243
 30
0.0
 11
-371.30225065802381
 21
317.9625442007133
 31
0.0
1001
REVIT
1002
{
1070
     1
1000
694402
1002
}
1002
{
1070
     5
1000
233013
1002
}
1002
{
1070
     2
1000
-2005028
1002
}
  0
INSERT
  5
2CE
  8
0
  2
*U45
 10
0.0
 20
0.0
 30
0.0
  0
LINE
  5
333
  8
0
 10
179.1724723870642
 20
407.0763392636045
 30
0.0
 11
179.17247238706449
 21
285.63033240520468
 31
0.0
  0
LINE
  5
334
  8
0
 10
179.17247238706469
 20
157.0763392636045
 30
0.0
 11
179.17247238706449
 21
278.52234612200448
 31
0.0
  0
LINE
  5
335
  8
0
 10
179.1724723870642
 20
407.0763392636045
 30
0.0
 11
179.17247238706449
 21
285.63033240520468
 31
0.0
  0
LINE
  5
336
  8
0
 10
179.17247238706449
 20
285.63033240520468
 30
0.0
 11
168.86485322618361
 21
283.81282104027389
 31
0.0
  0
LINE
  5
337
  8
0
 10
168.8648532261835
 20
283.81282104027389
 30
0.0
 11
189.48009154794531
 21
280.33985748693527
 31
0.0
  0
LINE
  5
338
  8
0
 10
189.48009154794531
 20
280.33985748693527
 30
0.0
 11
179.17247238706449
 21
278.52234612200448
 31
0.0
  0
LINE
  5
339
  8
0
 10
179.17247238706449
 20
278.52234612200448
 30
0.0
 11
179.17247238706469
 21
157.0763392636045
 31
0.0
  0
LINE
  5
33A
  8
0
 10
119.99999999999849
 20
-272.68154087428587
 30
0.0
 11
23.55399314159861
 21
-272.68154087428587
 31
0.0
  0
LINE
  5
33B
  8
0
 10
-80.000000000001492
 20
-272.68154087428587
 30
0.0
 11
16.446006858398409
 21
-272.68154087428587
 31
0.0
  0
LINE
  5
33C
  8
0
 10
119.99999999999849
 20
-272.68154087428587
 30
0.0
 11
23.55399314159861
 21
-272.68154087428587
 31
0.0
  0
LINE
  5
33D
  8
0
 10
23.55399314159861
 20
-272.68154087428587
 30
0.0
 11
21.736481776667819
 21
-262.37392171340503
 31
0.0
  0
LINE
  5
33E
  8
0
 10
21.736481776667819
 20
-262.37392171340503
 30
0.0
 11
18.263518223329189
 21
-282.98916003516672
 31
0.0
  0
LINE
  5
33F
  8
0
 10
18.263518223329189
 20
-282.98916003516672
 30
0.0
 11
16.446006858398409
 21
-272.68154087428587
 31
0.0
  0
LINE
  5
340
  8
0
 10
16.446006858398409
 20
-272.68154087428587
 30
0.0
 11
-80.000000000001492
 21
-272.68154087428587
 31
0.0
  0
INSERT
  5
341
  8
0
  6
CONTINUOUS
  2
*U46
 10
0.0
 20
0.0
 30
0.0
1001
ACAD
1002
{
1000
R14_HATCH_DATA
1000
341
1011
1.0
1021
1.0668823092635704E+242
1031
6.8280467792868505E+243
1021
0.0
1031
0.0
1011
0.0
1021
1.0668823092635704E+242
1031
6.8280467792868505E+243
1021
1.0
1031
0.0
1011
0.0
1021
1.0668823092635704E+242
1031
6.8280467792868505E+243
1021
0.0
1031
1.0
1040
0.0
1010
0.0
1020
0.0
1030
1.0
1000
SOLID
1070
     1
1070
     0
1071
        1
1071
        0
1071
       20
1070
     1
1040
-140.7537816106346
1040
255.32777179379599
1040
-139.89888394762201
1040
259.13451337757778
1070
     1
1040
-139.89888394762201
1040
259.13451337757778
1040
-143.00546134025001
1040
280.69234164079933
1070
     1
1040
-143.00546134025001
1040
280.69234164079933
1040
-143.018124004481
1040
281.3116625038499
1070
     1
1040
-143.018124004481
1040
281.3116625038499
1040
-142.87908658555111
1040
281.91588029920757
1070
     1
1040
-142.87908658555111
1040
281.91588029920757
1040
-142.5966096261497
1040
282.46641988941769
1070
     1
1040
-142.5966096261497
1040
282.46641988941758
1040
-142.1866568499735
1040
282.9314751784168
1070
     1
1040
-142.1866568499735
1040
282.9314751784168
1040
-141.67482741851649
1040
283.28171903266281
1070
     1
1040
-141.67482741851649
1040
283.28171903266281
1040
-141.09310372750809
1040
283.49625776236769
1070
     1
1040
-141.09310372750809
1040
283.49625776236769
1040
180.18777364688489
1040
358.8527293991948
1070
     1
1040
180.18777364688489
1040
358.8527293991948
1040
179.95942074712599
1040
359.82630762534978
1070
     1
1040
179.95942074712599
1040
359.82630762534978
1040
-141.3215927547343
1040
284.4698040598077
1070
     1
1040
-141.32159275473421
1040
284.4698040598077
1040
-142.13409987595219
1040
284.16994649999123
1070
     1
1040
-142.13409987595219
1040
284.16994649999123
1040
-142.84905501154361
1040
283.68033582735433
1070
     1
1040
-142.84905501154361
1040
283.68033582735433
1040
-143.42297959105571
1040
283.02954738310342
1070
     1
1040
-143.42297959105571
1040
283.02954738310342
1040
-143.8185582362521
1040
282.2578255014464
1070
     1
1040
-143.8185582362521
1040
282.2578255014464
1040
-144.01278599464769
1040
281.41467701851991
1070
     1
1040
-144.01278599464769
1040
281.41467701851991
1040
-143.99523726728859
1040
280.54971059840329
1070
     1
1040
-143.99523726728859
1040
280.54971059840341
1040
-140.9149113086246
1040
259.17405191718098
1070
     1
1040
-140.9149113086246
1040
259.17405191718098
1040
-141.63942232887879
1040
255.94790410085611
1070
     1
1040
-141.63942232887879
1040
255.94790410085611
1040
-140.75378161063449
1040
255.32777179379599
1071
        0
1070
     0
1070
     1
1071
        1
1040
-138.5634794833795
1040
257.38409497877331
1040
0.0
1002
}
  0
LINE
  5
343
  8
0
 10
-143.99523726728839
 20
280.5497105984029
 30
0.0
 11
-140.91491130862451
 21
259.17405191718058
 31
0.0
  0
LINE
  5
344
  8
0
 10
-140.91491130862451
 20
259.17405191718058
 30
0.0
 11
-141.63942232887871
 21
255.94790410085571
 31
0.0
  0
LINE
  5
345
  8
0
 10
-141.63942232887871
 20
255.94790410085571
 30
0.0
 11
-140.75378161063449
 21
255.32777179379559
 31
0.0
  0
LINE
  5
346
  8
0
 10
-140.75378161063449
 20
255.32777179379559
 30
0.0
 11
-139.89888394762181
 21
259.13451337757738
 31
0.0
  0
LINE
  5
347
  8
0
 10
-139.89888394762181
 20
259.13451337757738
 30
0.0
 11
-143.00546134024981
 21
280.69234164079887
 31
0.0
  0
LINE
  5
349
  8
0
 10
-141.09310372750789
 20
283.49625776236729
 30
0.0
 11
180.18777364688469
 21
358.85272939919417
 31
0.0
1001
REVIT
1002
{
1070
     3
1000
476644
1002
}
  0
LINE
  5
34A
  8
0
 10
180.18777364688469
 20
358.85272939919417
 30
0.0
 11
179.9594207471259
 21
359.82630762534927
 31
0.0
1001
REVIT
1002
{
1070
     3
1000
476644
1002
}
  0
LINE
  5
34B
  8
0
 10
179.9594207471259
 20
359.82630762534927
 30
0.0
 11
-141.32159275473421
 21
284.46980405980719
 31
0.0
1001
REVIT
1002
{
1070
     3
1000
476644
1002
}
  0
LINE
  5
34C
  8
0
 10
179.9594207471259
 20
386.25074212023299
 30
0.0
 11
-146.70933607492589
 21
309.63054265715408
 31
0.0
  0
ARC
  5
34D
  8
0
 10
-145.79592429744281
 20
305.73622899172398
 30
0.0
 40
3.9999999999999711
 50
103.2001220716476
 51
193.2001220716476
  0
LINE
  5
34E
  8
0
 10
-144.9573488191447
 20
284.64423475697117
 30
0.0
 11
-149.6902379628728
 21
304.8228172142409
 31
0.0
  0
INSERT
  5
34F
  8
0
  6
CONTINUOUS
  2
*U47
 10
0.0
 20
0.0
 30
0.0
1001
ACAD
1002
{
1000
R14_HATCH_DATA
1000
34F
1011
1.0
1021
1.0668823092635704E+242
1031
6.8280467792868505E+243
1021
0.0
1031
0.0
1011
0.0
1021
1.0668823092635704E+242
1031
6.8280467792868505E+243
1021
1.0
1031
0.0
1011
0.0
1021
1.0668823092635704E+242
1031
6.8280467792868505E+243
1021
0.0
1031
1.0
1040
0.0
1010
0.0
1020
0.0
1030
1.0
1000
SOLID
1070
     1
1070
     0
1071
        1
1071
        0
1071
       48
1070
     1
1040
-489.50191071728079
1040
138.72396659648561
1040
-488.60196374203082
1040
142.75018488031921
1070
     1
1040
-488.60196374203082
1040
142.75018488031921
1040
-491.73466331840422
1040
164.48928580463721
1070
     1
1040
-491.73466331840422
1040
164.48928580463721
1040
-491.74370007676981
1040
164.97850877162571
1070
     1
1040
-491.7437000767697
1040
164.97850877162571
1040
-491.63221311608379
1040
165.45585655582121
1070
     1
1040
-491.63221311608379
1040
165.4558565558213
1040
-491.40723606040962
1040
165.8925843727331
1070
     1
1040
-491.40723606040962
1040
165.8925843727331
1040
-491.08261829160921
1040
166.2610068098607
1070
     1
1040
-491.08261829160921
1040
166.2610068098607
1040
-490.67934188115521
1040
166.53845162796719
1070
     1
1040
-490.67934188115521
1040
166.53845162796719
1040
-490.2210249470557
1040
166.7082740714892
1070
     1
1040
-490.2210249470557
1040
166.7082740714892
1040
-136.52857466463729
1040
249.66688435571649
1070
     1
1040
-136.52857466463729
1040
249.66688435571641
1040
-135.71596227474001
1040
249.96665596985861
1070
     1
1040
-135.71596227474001
1040
249.96665596985861
1040
-135.00088924342629
1040
250.45621382225599
1070
     1
1040
-135.00088924342629
1040
250.45621382225599
1040
-134.42683912847181
1040
251.10699260162801
1070
     1
1040
-134.42683912847181
1040
251.10699260162801
1040
-134.03114912905539
1040
251.87875691288991
1070
     1
1040
-134.03114912905539
1040
251.87875691288991
1040
-133.83685190242829
1040
252.7219866732091
1070
     1
1040
-133.83685190242829
1040
252.7219866732091
1040
-133.85438663131421
1040
253.58704811230561
1070
     1
1040
-133.85438663131421
1040
253.58704811230561
1040
-137.28765186970529
1040
277.41189875559343
1070
     1
1040
-137.28765186970529
1040
277.41189875559343
1040
-137.296688628233
1040
277.90112172254987
1070
     1
1040
-137.296688628233
1040
277.90112172254987
1040
-137.18520166693051
1040
278.3784695068602
1070
     1
1040
-137.18520166693051
1040
278.3784695068602
1040
-136.96022461173109
1040
278.8151973236491
1070
     1
1040
-136.96022461173109
1040
278.8151973236491
1040
-136.63560684555691
1040
279.18361976023499
1070
     1
1040
-136.63560684555691
1040
279.18361976023499
1040
-136.2323304283789
1040
279.46106457994517
1070
     1
1040
-136.2323304283789
1040
279.46106457994517
1040
-135.77401357593959
1040
279.630887004241
1070
     1
1040
-135.77401357593959
1040
279.630887004241
1040
-106.2611103141486
1040
286.5531423085327
1070
     1
1040
-106.2611103141486
1040
286.5531423085327
1040
-106.4894632585199
1040
287.5267207248902
1070
     1
1040
-106.4894632585199
1040
287.5267207248902
1040
-136.0023665204738
1040
280.60446542061999
1070
     1
1040
-136.0023665204738
1040
280.60446542061999
1040
-136.69261471188841
1040
280.34885109357822
1070
     1
1040
-136.69261471188841
1040
280.34885109357822
1040
-137.2998653897985
1040
279.93128411865888
1070
     1
1040
-137.2998653897985
1040
279.93128411865888
1040
-137.78612617468721
1040
279.3790116621563
1070
     1
1040
-137.78612617468721
1040
279.3790116621563
1040
-138.1237809655982
1040
278.72383693885342
1070
     1
1040
-138.1237809655982
1040
278.72383693885342
1040
-138.29122438719821
1040
278.00590866775917
1070
     1
1040
-138.29122438719821
1040
278.00590866775917
1040
-138.27742779672599
1040
277.26926771308302
1070
     1
1040
-138.27742779672599
1040
277.26926771308302
1040
-134.84416255835509
1040
253.44441706991699
1070
     1
1040
-134.84416255835509
1040
253.44441706991699
1040
-134.8315098068669
1040
252.82503914347481
1070
     1
1040
-134.8315098068669
1040
252.82503914347481
1040
-134.97059447702469
1040
252.22077325032811
1070
     1
1040
-134.97059447702469
1040
252.22077325032811
1040
-135.2531488140923
1040
251.67020863784319
1070
     1
1040
-135.2531488140923
1040
251.67020863784319
1040
-135.6631945715026
1040
251.20515688000009
1070
     1
1040
-135.6631945715026
1040
251.20515688000009
1040
-136.17511813351319
1040
250.8549442087652
1070
     1
1040
-136.17511813351319
1040
250.8549442087652
1040
-136.75692760902021
1040
250.6404627720562
1070
     1
1040
-136.75692760902021
1040
250.6404627720562
1040
-490.4493778914142
1040
167.68185248786449
1070
     1
1040
-490.4493778914142
1040
167.68185248786449
1040
-491.13962615632221
1040
167.42623814368039
1070
     1
1040
-491.13962615632221
1040
167.42623814368039
1040
-491.74687683827221
1040
167.00867116788879
1070
     1
1040
-491.74687683827221
1040
167.00867116788879
1040
-492.23313762329173
1040
166.4563987113491
1070
     1
1040
-492.23313762329173
1040
166.4563987113491
1040
-492.57079241428539
1040
165.80122398792469
1070
     1
1040
-492.57079241428539
1040
165.8012239879248
1040
-492.73823583588182
1040
165.0832957168908
1070
     1
1040
-492.73823583588182
1040
165.0832957168908
1040
-492.72443924540067
1040
164.34665476215321
1070
     1
1040
-492.72443924540067
1040
164.34665476215321
1040
-489.61791718206808
1040
142.78921045170361
1070
     1
1040
-489.61791718206808
1040
142.78921045170361
1040
-490.3956553894775
1040
139.30973457498629
1070
     1
1040
-490.3956553894775
1040
139.30973457498629
1040
-489.50191071728079
1040
138.72396659648561
1071
        0
1070
     0
1070
     1
1071
        1
1040
-488.08711856998701
1040
141.06894158504329
1040
0.0
1002
}
  0
LINE
  5
350
  8
0
 10
-489.61791718206769
 20
142.7892104517035
 30
0.0
 11
-490.39565538947699
 21
139.30973457498609
 31
0.0
  0
LINE
  5
351
  8
0
 10
-490.39565538947699
 20
139.30973457498609
 30
0.0
 11
-489.5019107172804
 21
138.7239665964855
 31
0.0
  0
LINE
  5
352
  8
0
 10
-489.5019107172804
 20
138.7239665964855
 30
0.0
 11
-488.60196374203031
 21
142.75018488031901
 31
0.0
  0
LINE
  5
353
  8
0
 10
-488.60196374203031
 20
142.75018488031901
 30
0.0
 11
-491.73466331837949
 21
164.48928580467251
 31
0.0
  0
LINE
  5
355
  8
0
 10
-490.22102494705513
 20
166.708274071489
 30
0.0
 11
-136.52857466464951
 21
249.66688435569839
 31
0.0
  0
LINE
  5
357
  8
0
 10
-133.8543866313141
 20
253.5870481123053
 30
0.0
 11
-137.28765186970409
 21
277.41189875559462
 31
0.0
  0
LINE
  5
359
  8
0
 10
-135.77401357593959
 20
279.63088700424072
 30
0.0
 11
-106.2611103141486
 21
286.55314230853241
 31
0.0
  0
LINE
  5
35A
  8
0
 10
-106.2611103141486
 20
286.55314230853241
 30
0.0
 11
-106.4894632585199
 21
287.5267207248898
 31
0.0
  0
LINE
  5
35B
  8
0
 10
-106.4894632585199
 20
287.5267207248898
 30
0.0
 11
-136.00236652052249
 21
280.60446542054842
 31
0.0
  0
LINE
  5
35D
  8
0
 10
-138.27742779672599
 20
277.26926771308263
 30
0.0
 11
-134.84416255835399
 21
253.44441706991819
 31
0.0
  0
LINE
  5
35F
  8
0
 10
-136.75692760902021
 20
250.64046277205591
 30
0.0
 11
-490.4493778914258
 21
167.6818524878465
 31
0.0
  0
LINE
  5
361
  8
0
 10
-492.72443924540022
 20
164.34665476215301
 30
0.0
 11
-489.61791718206769
 21
142.78921045170341
 31
0.0
  0
LINE
  5
362
  8
0
 10
-143.351672062196
 20
276.08374487017392
 30
0.0
 11
-496.23297516153332
 21
193.31538926342409
 31
0.0
  0
ARC
  5
363
  8
0
 10
-495.31956338405018
 20
189.4210755979941
 30
0.0
 40
3.9999999999999711
 50
103.2001220716476
 51
193.2001220716476
  0
LINE
  5
364
  8
0
 10
-494.48098790575222
 20
168.32908136324119
 30
0.0
 11
-499.21387704948017
 21
188.50766382051091
 31
0.0
  0
ARC
  5
365
  8
0
 10
237.2036576373535
 20
304.402452543138
 30
0.0
 40
1.999999999999992
 50
289.99999999999648
 51
19.999999999996469
1001
REVIT
1002
{
1070
     3
1000
224526
1002
}
  0
ARC
  5
366
  8
0
 10
146.9931660419042
 20
271.5685187838796
 30
0.0
 40
2.0000000000000031
 50
199.99999999999639
 51
289.99999999999648
1001
REVIT
1002
{
1070
     3
1000
224526
1002
}
  0
ARC
  5
367
  8
0
 10
139.81074303206651
 20
291.30206382038421
 30
0.0
 40
1.9999999999999889
 50
109.9999999999964
 51
199.99999999999639
1001
REVIT
1002
{
1070
     3
1000
224526
1002
}
  0
ARC
  5
368
  8
0
 10
230.02123462751581
 20
324.13599757964249
 30
0.0
 40
2.0000000000000071
 50
19.999999999996469
 51
109.9999999999964
1001
REVIT
1002
{
1070
     3
1000
224526
1002
}
  0
LINE
  5
369
  8
0
 10
237.8876979240047
 20
302.52306730156607
 30
0.0
 11
147.6772063285554
 21
269.68913354230767
 31
0.0
1001
REVIT
1002
{
1070
     3
1000
224526
1002
}
  0
LINE
  5
36A
  8
0
 10
145.11378080033239
 20
270.88447849722837
 30
0.0
 11
137.93135779049459
 21
290.61802353373292
 31
0.0
1001
REVIT
1002
{
1070
     3
1000
224526
1002
}
  0
LINE
  5
36B
  8
0
 10
139.1267027454152
 20
293.18144906195602
 30
0.0
 11
229.3371943408645
 21
326.01538282121442
 31
0.0
1001
REVIT
1002
{
1070
     3
1000
224526
1002
}
  0
LINE
  5
36C
  8
0
 10
231.90061986908759
 20
324.82003786629377
 30
0.0
 11
239.0830428789254
 21
305.08649282978928
 31
0.0
1001
REVIT
1002
{
1070
     3
1000
224526
1002
}
  0
LINE
  5
36D
  8
0
 10
146.99316604190409
 20
271.56851878387931
 30
0.0
 11
230.02123462751581
 21
324.13599757964249
 31
0.0
  0
LINE
  5
36E
  8
0
 10
237.20365763735359
 20
304.40245254313783
 30
0.0
 11
139.81074303206651
 21
291.30206382038421
 31
0.0
  0
ARC
  5
36F
  8
0
 10
49.265133480167258
 20
235.99842387801669
 30
0.0
 40
1.999999999999992
 50
289.99999999999591
 51
19.999999999996469
1001
REVIT
1002
{
1070
     3
1000
224526
1002
}
  0
ARC
  5
370
  8
0
 10
-40.945358115281977
 20
203.16449011875821
 30
0.0
 40
2.0000000000000031
 50
199.9999999999965
 51
289.99999999999591
1001
REVIT
1002
{
1070
     3
1000
224526
1002
}
  0
ARC
  5
371
  8
0
 10
-48.127781125119739
 20
222.89803515526279
 30
0.0
 40
1.9999999999999889
 50
109.99999999999611
 51
199.9999999999965
1001
REVIT
1002
{
1070
     3
1000
224526
1002
}
  0
ARC
  5
372
  8
0
 10
42.082710470329559
 20
255.73196891452119
 30
0.0
 40
2.0000000000000071
 50
19.99999999999655
 51
109.99999999999621
1001
REVIT
1002
{
1070
     3
1000
224526
1002
}
  0
LINE
  5
373
  8
0
 10
49.949173766818497
 20
234.11903863644471
 30
0.0
 11
-40.261317828630759
 21
201.28510487718631
 31
0.0
1001
REVIT
1002
{
1070
     3
1000
224526
1002
}
  0
LINE
  5
374
  8
0
 10
-42.824743356853837
 20
202.48044983210701
 30
0.0
 11
-50.007166366691607
 21
222.21399486861159
 31
0.0
1001
REVIT
1002
{
1070
     3
1000
224526
1002
}
  0
LINE
  5
375
  8
0
 10
-48.811821411770993
 20
224.7774203968346
 30
0.0
 11
41.398670183678327
 21
257.61135415609311
 31
0.0
1001
REVIT
1002
{
1070
     3
1000
224526
1002
}
  0
LINE
  5
376
  8
0
 10
43.962095711901419
 20
256.41600920117241
 30
0.0
 11
51.144518721739189
 21
236.68246416466789
 31
0.0
1001
REVIT
1002
{
1070
     3
1000
224526
1002
}
  0
LINE
  5
377
  8
0
 10
-40.945358115282069
 20
203.16449011875801
 30
0.0
 11
42.082710470329609
 21
255.7319689145211
 31
0.0
  0
LINE
  5
378
  8
0
 10
49.265133480167428
 20
235.99842387801641
 30
0.0
 11
-48.127781125119711
 21
222.89803515526279
 31
0.0
  0
LINE
  5
379
  8
0
 10
-474.21203177262203
 20
139.06894158504261
 30
0.0
 11
-474.21203177262203
 21
143.068941585044
 31
0.0
1001
REVIT
1002
{
1070
     3
1000
211597
1002
}
  0
LINE
  5
37A
  8
0
 10
-445.46203177262203
 20
140.5689415850421
 30
0.0
 11
-473.46203177262203
 21
140.56894158504221
 31
0.0
1001
REVIT
1002
{
1070
     3
1000
211597
1002
}
  0
LINE
  5
37B
  8
0
 10
-443.46203177262203
 20
141.06894158504329
 30
0.0
 11
-445.46203177262203
 21
140.5689415850421
 31
0.0
1001
REVIT
1002
{
1070
     3
1000
211597
1002
}
  0
LINE
  5
37C
  8
0
 10
-445.46203177262203
 20
141.5689415850421
 30
0.0
 11
-443.46203177262203
 21
141.06894158504329
 31
0.0
1001
REVIT
1002
{
1070
     3
1000
211597
1002
}
  0
LINE
  5
37D
  8
0
 10
-473.46203177262203
 20
141.56894158504221
 30
0.0
 11
-445.46203177262203
 21
141.5689415850421
 31
0.0
1001
REVIT
1002
{
1070
     3
1000
211597
1002
}
  0
LINE
  5
37E
  8
0
 10
-473.46203177262203
 20
142.76880512615361
 30
0.0
 11
-473.46203177262203
 21
141.56894158504221
 31
0.0
1001
REVIT
1002
{
1070
     3
1000
211597
1002
}
  0
LINE
  5
37F
  8
0
 10
-473.46203177262203
 20
140.56894158504221
 30
0.0
 11
-473.46203177262203
 21
139.36907804393121
 31
0.0
1001
REVIT
1002
{
1070
     3
1000
211597
1002
}
  0
LINE
  5
380
  8
0
 10
-474.21203177262203
 20
139.06894158504261
 30
0.0
 11
-473.46203177262203
 21
139.36907804393121
 31
0.0
1001
REVIT
1002
{
1070
     3
1000
211597
1002
}
  0
LINE
  5
381
  8
0
 10
-474.21203177262203
 20
143.068941585044
 30
0.0
 11
-473.46203177262203
 21
142.76880512615361
 31
0.0
1001
REVIT
1002
{
1070
     3
1000
211597
1002
}
  0
LINE
  5
382
  8
0
 10
-454.12545573413951
 20
113.4754497185266
 30
0.0
 11
-445.4381440936678
 21
89.607257150564294
 31
0.0
1001
REVIT
1002
{
1070
     3
1000
211597
1002
}
  0
LINE
  5
383
  8
0
 10
-445.4381440936678
 20
89.607257150564294
 30
0.0
 11
243.13039454999051
 21
340.22570946902169
 31
0.0
1001
REVIT
1002
{
1070
     3
1000
211597
1002
}
  0
LINE
  5
384
  8
0
 10
234.44308290951881
 20
364.0939020369841
 30
0.0
 11
-454.12545573413951
 21
113.4754497185266
 31
0.0
1001
REVIT
1002
{
1070
     3
1000
211597
1002
}
  0
LINE
  5
385
  8
0
 10
-474.21203177262203
 20
50.808025051088748
 30
0.0
 11
-474.21203177262203
 21
54.808025051090119
 31
0.0
1001
REVIT
1002
{
1070
     3
1000
211597
1002
}
  0
LINE
  5
386
  8
0
 10
-445.46203177262203
 20
52.308025051088272
 30
0.0
 11
-473.46203177262203
 21
52.3080250510883
 31
0.0
1001
REVIT
1002
{
1070
     3
1000
211597
1002
}
  0
LINE
  5
387
  8
0
 10
-443.46203177262203
 20
52.808025051089402
 30
0.0
 11
-445.46203177262203
 21
52.308025051088272
 31
0.0
1001
REVIT
1002
{
1070
     3
1000
211597
1002
}
  0
LINE
  5
388
  8
0
 10
-445.46203177262203
 20
53.308025051088272
 30
0.0
 11
-443.46203177262203
 21
52.808025051089402
 31
0.0
1001
REVIT
1002
{
1070
     3
1000
211597
1002
}
  0
LINE
  5
389
  8
0
 10
-473.46203177262203
 20
53.3080250510883
 30
0.0
 11
-445.46203177262203
 21
53.308025051088272
 31
0.0
1001
REVIT
1002
{
1070
     3
1000
211597
1002
}
  0
LINE
  5
38A
  8
0
 10
-473.46203177262203
 20
54.50788859219972
 30
0.0
 11
-473.46203177262203
 21
53.3080250510883
 31
0.0
1001
REVIT
1002
{
1070
     3
1000
211597
1002
}
  0
LINE
  5
38B
  8
0
 10
-473.46203177262203
 20
52.3080250510883
 30
0.0
 11
-473.46203177262203
 21
51.108161509977329
 31
0.0
1001
REVIT
1002
{
1070
     3
1000
211597
1002
}
  0
LINE
  5
38C
  8
0
 10
-474.21203177262203
 20
50.808025051088748
 30
0.0
 11
-473.46203177262203
 21
51.108161509977329
 31
0.0
1001
REVIT
1002
{
1070
     3
1000
211597
1002
}
  0
LINE
  5
38D
  8
0
 10
-474.21203177262203
 20
54.808025051090119
 30
0.0
 11
-473.46203177262203
 21
54.50788859219972
 31
0.0
1001
REVIT
1002
{
1070
     3
1000
211597
1002
}
  0
INSERT
  5
38E
  8
0
  6
CONTINUOUS
  2
*U48
 10
0.0
 20
0.0
 30
0.0
1001
ACAD
1002
{
1000
R14_HATCH_DATA
1000
38E
1011
1.0
1021
1.0668823092635704E+242
1031
6.8280467792868505E+243
1021
0.0
1031
0.0
1011
0.0
1021
1.0668823092635704E+242
1031
6.8280467792868505E+243
1021
1.0
1031
0.0
1011
0.0
1021
1.0668823092635704E+242
1031
6.8280467792868505E+243
1021
0.0
1031
1.0
1040
0.0
1010
0.0
1020
0.0
1030
1.0
1000
SOLID
1070
     1
1070
     0
1071
        3
1071
        0
1071
        5
1070
     1
1040
-471.46203177262248
1040
30.146146506741712
1040
-469.46203177262259
1040
30.146146506741701
1070
     1
1040
-469.46203177262259
1040
30.146146506741701
1040
-469.46203177262242
1040
52.308025051088578
1070
     1
1040
-469.46203177262242
1040
52.308025051088578
1040
-471.46203177262242
1040
52.308025051088592
1070
     1
1040
-471.46203177262242
1040
52.308025051088592
1040
-471.46203177262248
1040
44.498173886636842
1070
     1
1040
-471.46203177262248
1040
44.498173886636842
1040
-471.46203177262259
1040
30.146146506741701
1071
        0
1071
        0
1071
        4
1070
     1
1040
-469.46203177262242
1040
53.308025051088492
1040
-469.4620317726218
1040
140.5689415850425
1070
     1
1040
-469.4620317726218
1040
140.5689415850425
1040
-471.4620317726218
1040
140.5689415850425
1070
     1
1040
-471.46203177262191
1040
140.5689415850425
1040
-471.46203177262242
1040
53.308025051088492
1070
     1
1040
-471.46203177262242
1040
53.308025051088499
1040
-469.46203177262248
1040
53.308025051088492
1071
        0
1071
        0
1071
        4
1070
     1
1040
-471.46203177262191
1040
141.56894158504261
1040
-469.46203177262191
1040
141.56894158504261
1070
     1
1040
-469.4620317726218
1040
141.5689415850425
1040
-469.46203177262169
1040
160.1461465067417
1070
     1
1040
-469.46203177262169
1040
160.1461465067417
1040
-471.46203177262169
1040
160.1461465067417
1070
     1
1040
-471.46203177262169
1040
160.1461465067417
1040
-471.4620317726218
1040
141.56894158504261
1071
        0
1070
     0
1070
     1
1071
        1
1040
-471.46203177262208
1040
30.146146506741442
1040
0.0
1002
}
  0
LINE
  5
38F
  8
0
 10
-471.46203177262129
 20
160.1461465067415
 30
0.0
 11
-471.4620317726214
 21
141.5689415850423
 31
0.0
  0
LINE
  5
390
  8
0
 10
-471.4620317726214
 20
140.5689415850423
 30
0.0
 11
-471.46203177262191
 21
53.308025051088357
 31
0.0
  0
LINE
  5
391
  8
0
 10
-471.46203177262191
 20
52.30802505108835
 30
0.0
 11
-471.46203177262208
 21
30.146146506741442
 31
0.0
  0
LINE
  5
392
  8
0
 10
-471.46203177262208
 20
30.146146506741442
 30
0.0
 11
-469.46203177262208
 21
30.14614650674142
 31
0.0
  0
LINE
  5
393
  8
0
 10
-469.46203177262208
 20
30.14614650674142
 30
0.0
 11
-469.46203177262203
 21
52.30802505108835
 31
0.0
  0
LINE
  5
394
  8
0
 10
-469.46203177262203
 20
53.30802505108835
 30
0.0
 11
-469.46203177262129
 21
140.56894158504221
 31
0.0
  0
LINE
  5
395
  8
0
 10
-469.46203177262129
 20
141.56894158504221
 30
0.0
 11
-469.46203177262117
 21
160.1461465067415
 31
0.0
  0
LINE
  5
396
  8
0
 10
-469.46203177262117
 20
160.1461465067415
 30
0.0
 11
-471.46203177262129
 21
160.1461465067415
 31
0.0
  0
LINE
  5
397
  8
0
  6
DASH
 10
-466.4620317726222
 20
77.638725990319614
 30
0.0
 11
-466.4620317726222
 21
53.30802505108835
 31
0.0
1001
REVIT
1002
{
1070
     3
1000
217411
1002
}
  0
LINE
  5
398
  8
0
  6
DASH
 10
-466.4620317726222
 20
52.308025051088343
 30
0.0
 11
-466.4620317726222
 21
37.638725990319607
 31
0.0
1001
REVIT
1002
{
1070
     3
1000
217411
1002
}
  0
ARC
  5
399
  8
0
 10
-138.673390677019
 20
167.59439521289519
 30
0.0
 40
1.999999999999992
 50
289.99999999999648
 51
19.999999999996469
1001
REVIT
1002
{
1070
     3
1000
224526
1002
}
  0
ARC
  5
39A
  8
0
 10
-228.88388227246821
 20
134.76046145363679
 30
0.0
 40
2.0000000000000031
 50
199.99999999999639
 51
289.99999999999648
1001
REVIT
1002
{
1070
     3
1000
224526
1002
}
  0
ARC
  5
39B
  8
0
 10
-236.06630528230599
 20
154.49400649014129
 30
0.0
 40
1.9999999999999889
 50
109.9999999999964
 51
199.99999999999639
1001
REVIT
1002
{
1070
     3
1000
224526
1002
}
  0
ARC
  5
39C
  8
0
 10
-145.85581368685669
 20
187.32794024939969
 30
0.0
 40
2.0000000000000071
 50
19.999999999996469
 51
109.9999999999964
1001
REVIT
1002
{
1070
     3
1000
224526
1002
}
  0
LINE
  5
39D
  8
0
 10
-137.98935039036769
 20
165.7150099713233
 30
0.0
 11
-228.19984198581699
 21
132.8810762120649
 31
0.0
1001
REVIT
1002
{
1070
     3
1000
224526
1002
}
  0
LINE
  5
39E
  8
0
 10
-230.76326751404011
 20
134.0764211669856
 30
0.0
 11
-237.94569052387789
 21
153.80996620349009
 31
0.0
1001
REVIT
1002
{
1070
     3
1000
224526
1002
}
  0
LINE
  5
39F
  8
0
 10
-236.75034556895719
 20
156.37339173171321
 30
0.0
 11
-146.53985397350789
 21
189.20732549097161
 31
0.0
1001
REVIT
1002
{
1070
     3
1000
224526
1002
}
  0
LINE
  5
3A0
  8
0
 10
-143.9764284452848
 20
188.01198053605091
 30
0.0
 11
-136.79400543544699
 21
168.2784354995465
 31
0.0
1001
REVIT
1002
{
1070
     3
1000
224526
1002
}
  0
LINE
  5
3A1
  8
0
 10
-228.8838822724683
 20
134.76046145363659
 30
0.0
 11
-145.85581368685661
 21
187.32794024939969
 31
0.0
  0
LINE
  5
3A2
  8
0
 10
-138.6733906770188
 20
167.59439521289499
 30
0.0
 11
-236.06630528230599
 21
154.4940064901414
 31
0.0
  0
ARC
  5
3A3
  8
0
 10
-326.61191483420521
 20
99.190366547773721
 30
0.0
 40
1.999999999999992
 50
289.99999999999648
 51
19.999999999995708
1001
REVIT
1002
{
1070
     3
1000
224526
1002
}
  0
ARC
  5
3A4
  8
0
 10
-416.82240642965439
 20
66.356432788515292
 30
0.0
 40
2.0000000000000031
 50
199.99999999999639
 51
289.99999999999648
1001
REVIT
1002
{
1070
     3
1000
224526
1002
}
  0
ARC
  5
3A5
  8
0
 10
-424.0048294394922
 20
86.089977825019844
 30
0.0
 40
1.9999999999999889
 50
109.9999999999964
 51
199.99999999999639
1001
REVIT
1002
{
1070
     3
1000
224526
1002
}
  0
ARC
  5
3A6
  8
0
 10
-333.7943378440429
 20
118.9239115842782
 30
0.0
 40
2.0000000000000071
 50
19.999999999996469
 51
109.9999999999964
1001
REVIT
1002
{
1070
     3
1000
224526
1002
}
  0
LINE
  5
3A7
  8
0
 10
-325.92787454755398
 20
97.310981306201782
 30
0.0
 11
-416.13836614300322
 21
64.477047546943425
 31
0.0
1001
REVIT
1002
{
1070
     3
1000
224526
1002
}
  0
LINE
  5
3A8
  8
0
 10
-418.70179167122632
 20
65.672392501864067
 30
0.0
 11
-425.88421468106401
 21
85.405937538368619
 31
0.0
1001
REVIT
1002
{
1070
     3
1000
224526
1002
}
  0
LINE
  5
3A9
  8
0
 10
-424.68886972614342
 20
87.969363066591711
 30
0.0
 11
-334.47837813069413
 21
120.8032968258501
 31
0.0
1001
REVIT
1002
{
1070
     3
1000
224526
1002
}
  0
LINE
  5
3AA
  8
0
 10
-331.91495260247098
 20
119.6079518709294
 30
0.0
 11
-324.73252959263328
 21
99.87440683442496
 31
0.0
1001
REVIT
1002
{
1070
     3
1000
224526
1002
}
  0
LINE
  5
3AB
  8
0
 10
-416.82240642965451
 20
66.356432788515065
 30
0.0
 11
-333.79433784404279
 21
118.9239115842781
 31
0.0
  0
LINE
  5
3AC
  8
0
 10
-326.61191483420498
 20
99.190366547773522
 30
0.0
 11
-424.0048294394922
 21
86.089977825019844
 31
0.0
  0
ARC
  5
3AD
  8
0
 10
-422.94151964865188
 20
168.14090068176421
 30
0.0
 40
1.9999999999999969
 50
19.999999999999531
 51
110.0000000000001
1001
REVIT
1002
{
1070
     3
1000
224526
1002
}
  0
ARC
  5
3AE
  8
0
 10
-466.16738020480381
 20
152.40797408878359
 30
0.0
 40
2.0
 50
110.0000000000001
 51
199.99999999999949
1001
REVIT
1002
{
1070
     3
1000
224526
1002
}
  0
ARC
  5
3AF
  8
0
 10
-453.85465504507982
 20
118.5790397404909
 30
0.0
 40
1.999999999999996
 50
199.99999999999949
 51
290.00000000000011
1001
REVIT
1002
{
1070
     3
1000
224526
1002
}
  0
ARC
  5
3B0
  8
0
 10
-410.62879448892789
 20
134.31196633347159
 30
0.0
 40
2.0
 50
290.00000000000011
 51
19.999999999999531
1001
REVIT
1002
{
1070
     3
1000
224526
1002
}
  0
LINE
  5
3B1
  8
0
 10
-423.62555993530327
 20
170.0202859233361
 30
0.0
 11
-466.85142049145509
 21
154.2873593303554
 31
0.0
1001
REVIT
1002
{
1070
     3
1000
224526
1002
}
  0
LINE
  5
3B2
  8
0
 10
-468.04676544637562
 20
151.72393380213231
 30
0.0
 11
-464.35065055014979
 21
141.56894158504221
 31
0.0
1001
REVIT
1002
{
1070
     3
1000
224526
1002
}
  0
LINE
  5
3B3
  8
0
 10
-463.98668031588358
 20
140.56894158504221
 30
0.0
 11
-455.73404028665158
 21
117.8949994538395
 31
0.0
1001
REVIT
1002
{
1070
     3
1000
224526
1002
}
  0
LINE
  5
3B4
  8
0
 10
-453.17061475842843
 20
116.699654498919
 30
0.0
 11
-409.9447542022765
 21
132.43258109189969
 31
0.0
1001
REVIT
1002
{
1070
     3
1000
224526
1002
}
  0
LINE
  5
3B5
  8
0
 10
-408.74940924735608
 20
134.9960066201229
 30
0.0
 11
-421.06213440708001
 21
168.8249409684156
 31
0.0
1001
REVIT
1002
{
1070
     3
1000
224526
1002
}
  0
LINE
  5
3B6
  8
0
 10
-466.16738020480392
 20
152.4079740887837
 30
0.0
 11
-410.62879448892789
 21
134.31196633347159
 31
0.0
  0
LINE
  5
3B7
  8
0
 10
-422.94151964865188
 20
168.14090068176449
 30
0.0
 11
-453.85465504507971
 21
118.5790397404909
 31
0.0
  0
LINE
  5
3B8
  8
0
 10
-455.0500000000003
 20
63.418815368226703
 30
0.0
 11
-404.24999999999989
 21
63.418815368226703
 31
0.0
  0
LINE
  5
3B9
  8
0
 10
-455.0500000000003
 20
-88.981184631772706
 30
0.0
 11
-455.0500000000003
 21
52.308025051088329
 31
0.0
  0
LINE
  5
3BA
  8
0
 10
-455.0500000000003
 20
53.308025051088222
 30
0.0
 11
-455.0500000000003
 21
63.418815368226703
 31
0.0
  0
LINE
  5
3BB
  8
0
 10
-404.24999999999989
 20
-88.981184631772706
 30
0.0
 11
-455.0500000000003
 21
-88.981184631772706
 31
0.0
  0
LINE
  5
3BC
  8
0
 10
-404.24999999999989
 20
63.418815368226703
 30
0.0
 11
-404.24999999999989
 21
-88.981184631772706
 31
0.0
  0
LINE
  5
3BD
  8
0
 10
-455.0500000000003
 20
63.418815368226703
 30
0.0
 11
-451.6797365609541
 21
53.308025051088222
 31
0.0
1001
REVIT
1002
{
1070
     3
1000
41944
1002
}
  0
LINE
  5
3BE
  8
0
 10
-451.34640322762078
 20
52.3080250510883
 30
0.0
 11
-404.24999999999989
 21
-88.981184631772706
 31
0.0
1001
REVIT
1002
{
1070
     3
1000
41944
1002
}
  0
LINE
  5
3BF
  8
0
 10
-404.24999999999989
 20
63.418815368226703
 30
0.0
 11
-455.0500000000003
 21
-88.981184631772706
 31
0.0
1001
REVIT
1002
{
1070
     3
1000
41944
1002
}
  0
LINE
  5
3C0
  8
0
 10
-142.00251767188709
 20
265.85377890310269
 30
0.0
 11
-142.63559748050341
 21
269.80336241987169
 31
0.0
1001
REVIT
1002
{
1070
     3
1000
211597
1002
}
  0
LINE
  5
3C1
  8
0
 10
-113.8522910733507
 20
271.88513384631852
 30
0.0
 11
-135.9801009930942
 21
268.33826121794829
 31
0.0
1001
REVIT
1002
{
1070
     3
1000
211597
1002
}
  0
LINE
  5
3C2
  8
0
 10
-136.96762043077891
 20
268.17997146057007
 30
0.0
 11
-141.1067658690248
 21
267.51650672036288
 31
0.0
1001
REVIT
1002
{
1070
     3
1000
211597
1002
}
  0
LINE
  5
3C3
  8
0
 10
-111.9566342910441
 20
272.69537169022368
 30
0.0
 11
-113.8522910733507
 21
271.88513384631852
 31
0.0
1001
REVIT
1002
{
1070
     3
1000
211597
1002
}
  0
LINE
  5
3C4
  8
0
 10
-114.0105610255047
 20
272.87252972551039
 30
0.0
 11
-111.9566342910441
 21
272.69537169022368
 31
0.0
1001
REVIT
1002
{
1070
     3
1000
211597
1002
}
  0
LINE
  5
3C5
  8
0
 10
-141.24941475973739
 20
268.50640650371218
 30
0.0
 11
-137.1102693214917
 21
269.16987124391937
 31
0.0
1001
REVIT
1002
{
1070
     3
1000
211597
1002
}
  0
LINE
  5
3C6
  8
0
 10
-136.1227498838071
 20
269.32816100129759
 30
0.0
 11
-114.0105610255047
 21
272.87252972551039
 31
0.0
1001
REVIT
1002
{
1070
     3
1000
211597
1002
}
  0
LINE
  5
3C7
  8
0
 10
-142.00251767188709
 20
265.85377890310269
 30
0.0
 11
-141.8874222118441
 21
265.9227081989996
 31
0.0
1001
REVIT
1002
{
1070
     3
1000
211597
1002
}
  0
LINE
  5
3C8
  8
0
 10
-142.63559748050341
 20
269.80336241987169
 30
0.0
 11
-142.4402970064406
 21
269.7593355758861
 31
0.0
1001
REVIT
1002
{
1070
     3
1000
211597
1002
}
  0
INSERT
  5
3C9
  8
0
  6
CONTINUOUS
  2
*U49
 10
0.0
 20
0.0
 30
0.0
1001
ACAD
1002
{
1000
R14_HATCH_DATA
1000
3C9
1011
1.0
1021
1.0668823092635704E+242
1031
6.8280467792868505E+243
1021
0.0
1031
0.0
1011
0.0
1021
1.0668823092635704E+242
1031
6.8280467792868505E+243
1021
1.0
1031
0.0
1011
0.0
1021
1.0668823092635704E+242
1031
6.8280467792868505E+243
1021
0.0
1031
1.0
1040
0.0
1010
0.0
1020
0.0
1030
1.0
1000
SOLID
1070
     1
1070
     0
1071
        2
1071
        0
1071
      105
1070
     1
1040
-462.80000000000001
1040
-12.50322583248469
1040
-462.08824762596811
1040
-12.40952185477965
1070
     1
1040
-462.08824762596811
1040
-12.40952185477965
1040
-461.42500000000013
1040
-12.134795692891879
1070
     1
1040
-461.42500000000013
1040
-12.134795692891879
1040
-460.85545635173719
1040
-11.69776948074791
1070
     1
1040
-460.85545635173719
1040
-11.69776948074791
1040
-460.41843013959311
1040
-11.128225832484871
1070
     1
1040
-460.41843013959311
1040
-11.128225832484871
1040
-460.1437039777054
1040
-10.464978206516919
1070
     1
1040
-460.1437039777054
1040
-10.464978206516919
1040
-460.0500000000003
1040
-9.7532258324850432
1070
     1
1040
-460.0500000000003
1040
-9.7532258324850432
1040
-460.0500000000003
1040
52.3080250510884
1070
     1
1040
-460.0500000000003
1040
52.3080250510884
1040
-461.05000000000041
1040
52.3080250510884
1070
     1
1040
-461.05000000000041
1040
52.3080250510884
1040
-461.05000000000041
1040
-9.7532258324850432
1070
     1
1040
-461.05000000000041
1040
-9.7532258324850432
1040
-461.10962980399449
1040
-10.20615916141443
1070
     1
1040
-461.10962980399449
1040
-10.20615916141443
1040
-461.28445554337759
1040
-10.628225832484979
1070
     1
1040
-461.28445554337759
1040
-10.628225832484979
1040
-461.56256313292369
1040
-10.990662699561179
1070
     1
1040
-461.56256313292369
1040
-10.990662699561179
1040
-461.92500000000001
1040
-11.26877028910754
1070
     1
1040
-461.92500000000001
1040
-11.26877028910754
1040
-462.34706667107059
1040
-11.443596028490569
1070
     1
1040
-462.34706667107059
1040
-11.443596028490569
1040
-462.80000000000013
1040
-11.50322583248464
1070
     1
1040
-462.80000000000013
1040
-11.50322583248464
1040
-547.75148842848807
1040
-11.462367668052471
1070
     1
1040
-547.75148842848807
1040
-11.462367668052471
1040
-548.25009506864058
1040
-11.257406191578619
1070
     1
1040
-548.25009506864058
1040
-11.257406191578619
1040
-548.43397797065893
1040
-11.146860507316831
1070
     1
1040
-548.43397797065893
1040
-11.146860507316839
1040
-548.70865424085378
1040
-10.8869441321024
1070
     1
1040
-548.70865424085378
1040
-10.8869441321024
1040
-549.08165929623215
1040
-10.271748505547951
1070
     1
1040
-549.08165929623215
1040
-10.271748505547951
1040
-550.56219600538282
1040
-7.4841648239223266
1070
     1
1040
-550.5621960053827
1040
-7.4841648239223284
1040
-550.93939259777596
1040
-6.5434534330165954
1070
     1
1040
-550.93939259777619
1040
-6.5434534330165954
1040
-551.10842701320212
1040
-5.544132385157333
1070
     1
1040
-551.10842701320212
1040
-5.544132385157333
1040
-551.06160353003361
1040
-4.5316983123817396
1070
     1
1040
-551.06160353003361
1040
-4.5316983123817396
1040
-550.5867058698957
1040
-1.4541918273664951
1070
     1
1040
-550.5867058698957
1040
-1.4541918273664951
1040
-550.57364036180479
1040
-0.8671887026794635
1070
     1
1040
-550.57364036180479
1040
-0.8671887026794635
1040
-550.71289155138209
1040
-0.2967919266583596
1070
     1
1040
-550.71289155138209
1040
-0.2967919266583596
1040
-550.99497678673765
1040
0.2181559307878516
1070
     1
1040
-550.99497678673788
1040
0.2181559307878516
1040
-551.72297513037984
1040
1.2124448834022981
1070
     1
1040
-551.72297513037972
1040
1.2124448834022981
1040
-553.45093776720842
1040
3.246127752762539
1070
     1
1040
-553.45093776720842
1040
3.246127752762539
1040
-554.87427053601527
1040
4.6169342995445009
1070
     1
1040
-554.87427053601527
1040
4.6169342995445009
1040
-558.76732634137136
1040
7.9577352335664191
1070
     1
1040
-558.76732634137136
1040
7.9577352335664191
1040
-562.93544660620216
1040
12.34577293151704
1070
     1
1040
-562.93544660620216
1040
12.34577293151704
1040
-566.12927913876888
1040
17.48654477382312
1070
     1
1040
-566.12927913876888
1040
17.48654477382312
1040
-568.31158993427562
1040
23.538754099449172
1070
     1
1040
-568.31158993427562
1040
23.538754099449172
1040
-573.7735325686408
1040
44.816365783680382
1070
     1
1040
-573.77353256864069
1040
44.816365783680382
1040
-575.00388163464117
1040
48.456308540788953
1070
     1
1040
-575.00388163464117
1040
48.456308540788953
1040
-576.46718226849885
1040
51.56879769234191
1070
     1
1040
-576.46718226849885
1040
51.56879769234191
1040
-578.51755145751076
1040
54.790275504588081
1070
     1
1040
-578.51755145751076
1040
54.790275504588081
1040
-580.95304121386744
1040
57.731418607656451
1070
     1
1040
-580.95304121386744
1040
57.731418607656451
1040
-583.72024696520918
1040
60.318860420340897
1070
     1
1040
-583.72024696520941
1040
60.318860420340897
1040
-586.83697023565651
1040
62.577056469710357
1070
     1
1040
-586.83697023565651
1040
62.577056469710357
1040
-592.59848381425149
1040
66.268607333680819
1070
     1
1040
-592.59848381425149
1040
66.268607333680819
1040
-592.85048257956373
1040
66.599532774024041
1070
     1
1040
-592.85048257956385
1040
66.599532774024041
1040
-593.01726409011383
1040
66.980582577230706
1070
     1
1040
-593.01726409011383
1040
66.980582577230706
1040
-593.08940607416889
1040
67.390229448232617
1070
     1
1040
-593.08940607416889
1040
67.390229448232617
1040
-592.9847581823476
1040
68.227068816365446
1070
     1
1040
-592.9847581823476
1040
68.227068816365446
1040
-590.97687257387554
1040
78.963406349352169
1070
     1
1040
-590.97687257387554
1040
78.963406349352169
1040
-590.7699757635429
1040
79.238046162128185
1070
     1
1040
-590.7699757635429
1040
79.238046162128185
1040
-590.46226247665231
1040
79.391492732498207
1070
     1
1040
-590.46226247665231
1040
79.391492732498207
1040
-590.29033711720263
1040
79.411464191429047
1070
     1
1040
-590.29033711720274
1040
79.411464191429047
1040
-577.26719249341318
1040
79.385908561145925
1070
     1
1040
-577.26719249341318
1040
79.385908561145925
1040
-576.93097669135034
1040
79.191794277318891
1070
     1
1040
-576.93097669135022
1040
79.191794277318891
1040
-576.73686240752318
1040
78.855578475255854
1070
     1
1040
-576.73686240752318
1040
78.855578475255854
1040
-576.71130677724011
1040
78.661464191428948
1070
     1
1040
-576.71130677724011
1040
78.661464191428948
1040
-576.71130677724011
1040
76.000740090304674
1070
     1
1040
-576.71130677724011
1040
76.000740090304674
1040
-575.71130677724011
1040
76.000740090304674
1070
     1
1040
-575.71130677724011
1040
76.000740090304674
1040
-575.71130677724011
1040
78.661464191428948
1070
     1
1040
-575.71130677724011
1040
78.661464191428948
1040
-575.7709365812342
1040
79.114397520358466
1070
     1
1040
-575.7709365812342
1040
79.114397520358466
1040
-575.9457623206174
1040
79.536464191429019
1070
     1
1040
-575.9457623206174
1040
79.536464191429019
1040
-576.22386991016356
1040
79.898901058505487
1070
     1
1040
-576.22386991016356
1040
79.898901058505487
1040
-576.58630677724011
1040
80.177008648051711
1070
     1
1040
-576.58630677724011
1040
80.177008648051711
1040
-577.00837344831064
1040
80.351834387434863
1070
     1
1040
-577.00837344831075
1040
80.351834387434863
1040
-577.46130677724022
1040
80.411464191428948
1070
     1
1040
-577.46130677724011
1040
80.411464191428948
1040
-590.69149628925106
1040
80.364864120592856
1070
     1
1040
-590.69149628925118
1040
80.364864120592856
1040
-591.07129083749032
1040
80.227545698491696
1070
     1
1040
-591.07129083749032
1040
80.227545698491696
1040
-591.40949395866221
1040
80.006822123063145
1070
     1
1040
-591.4094939586621
1040
80.006822123063145
1040
-591.68809389344915
1040
79.714448519163952
1070
     1
1040
-591.68809389344915
1040
79.714448519163952
1040
-591.8922531827709
1040
79.365995893253242
1070
     1
1040
-591.8922531827709
1040
79.365995893253242
1040
-592.01109886966265
1040
78.980021864816734
1070
     1
1040
-592.01109886966265
1040
78.980021864816734
1040
-594.04612532181682
1040
67.987363465362748
1070
     1
1040
-594.0461253218167
1040
67.987363465362748
1040
-594.08788317976143
1040
67.335061798223563
1070
     1
1040
-594.08788317976143
1040
67.335061798223563
1040
-593.97451720481774
1040
66.691331000934738
1070
     1
1040
-593.97451720481774
1040
66.691331000934738
1040
-593.71243197395347
1040
66.092538453038955
1070
     1
1040
-593.71243197395347
1040
66.092538453038955
1040
-593.3164339141772
1040
65.572512761071138
1070
     1
1040
-593.31643391417742
1040
65.572512761071138
1040
-592.80889481785732
1040
65.160632621516612
1070
     1
1040
-592.80889481785732
1040
65.160632621516612
1040
-587.37036066419319
1040
61.731187300898959
1070
     1
1040
-587.37036066419319
1040
61.731187300898959
1040
-584.35666956797581
1040
59.547642360599909
1070
     1
1040
-584.35666956797581
1040
59.547642360599909
1040
-581.68094169271149
1040
57.045735814450381
1070
     1
1040
-581.68094169271149
1040
57.045735814450381
1040
-579.32596399441616
1040
54.201820582557822
1070
     1
1040
-579.32596399441616
1040
54.201820582557822
1040
-577.34337560504071
1040
51.086837904600699
1070
     1
1040
-577.34337560504071
1040
51.086837904600699
1040
-575.78481565653613
1040
47.77172902025778
1070
     1
1040
-575.78481565653613
1040
47.77172902025778
1040
-574.63307110491826
1040
44.232846849635962
1070
     1
1040
-574.63307110491826
1040
44.232846849635962
1040
-569.18550125762442
1040
22.91966583137507
1070
     1
1040
-569.18550125762431
1040
22.91966583137507
1040
-567.02796880109815
1040
17.047959672819442
1070
     1
1040
-567.02796880109827
1040
17.047959672819442
1040
-563.72678055315123
1040
11.7343887769905
1070
     1
1040
-563.72678055315123
1040
11.7343887769905
1040
-559.41855540546896
1040
7.1988540135624826
1070
     1
1040
-559.41855540546896
1040
7.1988540135624826
1040
-555.52549960011265
1040
3.8580530795404311
1070
     1
1040
-555.52549960011265
1040
3.8580530795404311
1040
-553.90064184144535
1040
2.28464888005443
1070
     1
1040
-553.90064184144535
1040
2.28464888005443
1040
-552.52982372068163
1040
0.6216865975289423
1070
     1
1040
-552.52982372068152
1040
0.6216865975289423
1040
-551.64511135739747
1040
-0.6586844981112066
1070
     1
1040
-551.64511135739747
1040
-0.6586844981112066
1040
-551.56774958541007
1040
-0.9755715959006199
1070
     1
1040
-551.56774958541007
1040
-0.9755715959006199
1040
-551.57500820101609
1040
-1.301684442948895
1070
     1
1040
-551.57500820101609
1040
-1.301684442948895
1040
-552.04990586115412
1040
-4.3791909279641397
1070
     1
1040
-552.049905861154
1040
-4.3791909279641397
1040
-552.1065869197264
1040
-5.604769016060926
1070
     1
1040
-552.10658691972651
1040
-5.604769016060926
1040
-551.90196631157914
1040
-6.8144734424169018
1070
     1
1040
-551.90196631157914
1040
-6.8144734424169018
1040
-551.44535991026078
1040
-7.9532293366712317
1070
     1
1040
-551.44535991026078
1040
-7.9532293366712317
1040
-549.8042447748544
1040
-11.043153242544969
1070
     1
1040
-549.8042447748544
1040
-11.043153242544969
1040
-549.47043150051877
1040
-11.534783160455319
1070
     1
1040
-549.47043150051877
1040
-11.534783160455319
1040
-549.03879736164106
1040
-11.94322317864944
1070
     1
1040
-549.03879736164106
1040
-11.94322317864944
1040
-548.52949753378778
1040
-12.249401172071069
1070
     1
1040
-548.52949753378778
1040
-12.249401172071069
1040
-547.96631379537257
1040
-12.439020145519709
1070
     1
1040
-547.96631379537257
1040
-12.439020145519709
1040
-547.37554403644049
1040
-12.50322583248469
1070
     1
1040
-547.37554403644049
1040
-12.50322583248469
1040
-471.67978256864069
1040
-12.50322583248469
1070
     1
1040
-471.67978256864058
1040
-12.50322583248469
1040
-462.7999999999999
1040
-12.50322583248469
1071
        0
1071
        0
1071
       30
1070
     1
1040
-460.16802446316723
1040
53.308025051088308
1040
-460.05000000000041
1040
53.308025051088308
1070
     1
1040
-460.0500000000003
1040
53.308025051088308
1040
-460.0500000000003
1040
61.746774167515213
1070
     1
1040
-460.0500000000003
1040
61.746774167515213
1040
-460.12666689085
1040
62.329117018996058
1070
     1
1040
-460.12666689085
1040
62.329117018996058
1040
-460.35144284148549
1040
62.871774167515639
1070
     1
1040
-460.35144284148549
1040
62.871774167515639
1040
-460.70900974233081
1040
63.33776442518559
1070
     1
1040
-460.70900974233081
1040
63.33776442518559
1040
-461.17500000000081
1040
63.695331326030889
1070
     1
1040
-461.17500000000092
1040
63.695331326030889
1040
-461.7176571485204
1040
63.920107276666428
1070
     1
1040
-461.7176571485204
1040
63.920107276666428
1040
-462.30000000000132
1040
63.996774167516072
1070
     1
1040
-462.30000000000121
1040
63.996774167516072
1040
-462.88234285148218
1040
63.920107276666428
1070
     1
1040
-462.88234285148218
1040
63.920107276666428
1040
-463.42500000000172
1040
63.695331326030889
1070
     1
1040
-463.42500000000172
1040
63.695331326030889
1040
-463.8909902576716
1040
63.33776442518559
1070
     1
1040
-463.8909902576716
1040
63.33776442518559
1040
-464.24855715851697
1040
62.871774167515639
1070
     1
1040
-464.24855715851697
1040
62.871774167515639
1040
-464.47333310915258
1040
62.329117018996058
1070
     1
1040
-464.47333310915258
1040
62.329117018996058
1040
-464.55000000000229
1040
61.746774167515213
1070
     1
1040
-464.55000000000229
1040
61.746774167515213
1040
-464.55000000000229
1040
56.746774167515142
1070
     1
1040
-464.55000000000229
1040
56.746774167515142
1040
-463.55000000000223
1040
56.746774167515142
1070
     1
1040
-463.55000000000223
1040
56.746774167515142
1040
-463.50740728286348
1040
62.07029797389356
1070
     1
1040
-463.50740728286348
1040
62.07029797389356
1040
-463.38253175473261
1040
62.371774167515611
1070
     1
1040
-463.38253175473261
1040
62.371774167515611
1040
-463.18388347648511
1040
62.630657643999001
1070
     1
1040
-463.18388347648511
1040
62.630657643999001
1040
-462.92500000000177
1040
62.829305922246562
1070
     1
1040
-462.92500000000189
1040
62.829305922246562
1040
-462.62352380637969
1040
62.954181450377348
1070
     1
1040
-462.62352380637969
1040
62.954181450377348
1040
-462.30000000000121
1040
62.996774167516151
1070
     1
1040
-462.30000000000121
1040
62.996774167516151
1040
-461.97647619362277
1040
62.954181450377348
1070
     1
1040
-461.97647619362289
1040
62.954181450377348
1040
-461.67500000000081
1040
62.829305922246562
1070
     1
1040
-461.67500000000081
1040
62.829305922246562
1040
-461.41611652351747
1040
62.630657643999001
1070
     1
1040
-461.41611652351747
1040
62.630657643999001
1040
-461.21746824527003
1040
62.371774167515611
1070
     1
1040
-461.21746824527003
1040
62.371774167515611
1040
-461.09259271713898
1040
62.07029797389356
1070
     1
1040
-461.0925927171391
1040
62.07029797389356
1040
-461.05000000000041
1040
61.746774167515213
1070
     1
1040
-461.05000000000041
1040
61.746774167515213
1040
-461.05000000000041
1040
53.308025051088308
1070
     1
1040
-461.05000000000041
1040
53.308025051088308
1040
-460.16802446316723
1040
53.308025051088308
1071
        0
1070
     0
1070
     1
1071
        1
1040
-460.0499999999999
1040
-12.50322583248469
1040
0.0
1002
}
  0
LINE
  5
3CA
  8
0
 10
-576.71130677723954
 20
76.000740090304603
 30
0.0
 11
-575.71130677723954
 21
76.000740090304603
 31
0.0
1001
REVIT
1002
{
1070
     3
1000
476644
1002
}
  0
LINE
  5
3CB
  8
0
 10
-575.71130677723954
 20
76.000740090304603
 30
0.0
 11
-575.71130677723954
 21
78.661464191428919
 31
0.0
1001
REVIT
1002
{
1070
     3
1000
476644
1002
}
  0
ARC
  5
3CC
  8
0
 10
-577.46130677723954
 20
78.661464191428919
 30
0.0
 40
1.75
 50
0.0
 51
90.0
1001
REVIT
1002
{
1070
     3
1000
476644
1002
}
  0
LINE
  5
3CD
  8
0
 10
-577.46130677723954
 20
80.411464191428905
 30
0.0
 11
-590.29033711720217
 21
80.411464191428905
 31
0.0
1001
REVIT
1002
{
1070
     3
1000
476644
1002
}
  0
ARC
  5
3CE
  8
0
 10
-590.29033711720217
 20
78.661464191425651
 30
0.0
 40
1.7500000000014491
 50
90.0
 51
169.5118037983689
1001
REVIT
1002
{
1070
     3
1000
476644
1002
}
  0
LINE
  5
3CF
  8
0
 10
-592.01109886966196
 20
78.980021864816536
 30
0.0
 11
-594.04612532181613
 21
67.987363465362719
 31
0.0
1001
REVIT
1002
{
1070
     3
1000
476644
1002
}
  0
ARC
  5
3D0
  8
0
 10
-591.3420711393801
 20
67.486772835748624
 30
0.0
 40
2.7500000000013221
 50
169.5118037983689
 51
237.7651800470787
1001
REVIT
1002
{
1070
     3
1000
476644
1002
}
  0
LINE
  5
3D1
  8
0
 10
-592.80889481785675
 20
65.160632621516569
 30
0.0
 11
-587.3703606641925
 21
61.731187300898952
 31
0.0
1001
REVIT
1002
{
1070
     3
1000
476644
1002
}
  0
ARC
  5
3D2
  8
0
 10
-602.97203069889179
 20
36.989514113169008
 30
0.0
 40
29.250000000001211
 50
14.337625853455391
 51
57.76518004708155
1001
REVIT
1002
{
1070
     3
1000
476644
1002
}
  0
LINE
  5
3D3
  8
0
 10
-574.6330711049178
 20
44.232846849635969
 30
0.0
 11
-569.18550125762374
 21
22.91966583137506
 31
0.0
1001
REVIT
1002
{
1070
     3
1000
476644
1002
}
  0
ARC
  5
3D4
  8
0
 10
-539.39326168447292
 20
30.53445152868613
 30
0.0
 40
30.749999999999812
 50
194.33762585345499
 51
229.3656677408556
1001
REVIT
1002
{
1070
     3
1000
476644
1002
}
  0
LINE
  5
3D5
  8
0
 10
-559.41855540546851
 20
7.1988540135624826
 30
0.0
 11
-555.5254996001122
 21
3.8580530795404631
 31
0.0
1001
REVIT
1002
{
1070
     3
1000
476644
1002
}
  0
ARC
  5
3D6
  8
0
 10
-568.06165908398646
 20
-10.750410405535909
 30
0.0
 40
19.249999999998529
 50
36.210836948253387
 51
49.365667740855763
1001
REVIT
1002
{
1070
     3
1000
476644
1002
}
  0
LINE
  5
3D7
  8
0
 10
-552.52982372068095
 20
0.6216865975288322
 30
0.0
 11
-551.80182537703888
 21
-0.3726023550857249
 31
0.0
1001
REVIT
1002
{
1070
     3
1000
476644
1002
}
  0
ARC
  5
3D8
  8
0
 10
-552.81038611491499
 20
-1.1110502124270469
 30
0.0
 40
1.2499999999989371
 50
351.2277387767702
 51
36.210836948254382
1001
REVIT
1002
{
1070
     3
1000
476644
1002
}
  0
LINE
  5
3D9
  8
0
 10
-551.57500820101563
 20
-1.301684442948962
 30
0.0
 11
-552.04990586115355
 21
-4.3791909279641219
 31
0.0
1001
REVIT
1002
{
1070
     3
1000
476644
1002
}
  0
ARC
  5
3DA
  8
0
 10
-546.36716745721242
 20
-5.2561083883653064
 30
0.0
 40
5.7499999999984253
 50
171.22773877677221
 51
207.97358915472449
1001
REVIT
1002
{
1070
     3
1000
476644
1002
}
  0
LINE
  5
3DB
  8
0
 10
-551.44535991026032
 20
-7.9532293366712317
 30
0.0
 11
-549.80424477485394
 21
-11.043153242544999
 31
0.0
1001
REVIT
1002
{
1070
     3
1000
476644
1002
}
  0
ARC
  5
3DC
  8
0
 10
-547.37554403644015
 20
-9.7532258324858567
 30
0.0
 40
2.74999999999884
 50
207.97358915472421
 51
270.0
1001
REVIT
1002
{
1070
     3
1000
476644
1002
}
  0
LINE
  5
3DD
  8
0
 10
-547.37554403644003
 20
-12.50322583248469
 30
0.0
 11
-462.79999999999961
 21
-12.50322583248469
 31
0.0
1001
REVIT
1002
{
1070
     3
1000
476644
1002
}
  0
ARC
  5
3DE
  8
0
 10
-462.79999999999939
 20
-9.7532258324851622
 30
0.0
 40
2.7499999999995191
 50
270.0
 51
0.0
1001
REVIT
1002
{
1070
     3
1000
476644
1002
}
  0
LINE
  5
3DF
  8
0
 10
-460.0499999999999
 20
-9.7532258324851622
 30
0.0
 11
-460.0499999999999
 21
52.308025051088279
 31
0.0
1001
REVIT
1002
{
1070
     3
1000
476644
1002
}
  0
LINE
  5
3E0
  8
0
 10
-460.0499999999999
 20
53.308025051088272
 30
0.0
 11
-460.0499999999999
 21
61.746774167515063
 31
0.0
1001
REVIT
1002
{
1070
     3
1000
476644
1002
}
  0
ARC
  5
3E1
  8
0
 10
-462.30000000000092
 20
61.746774167515042
 30
0.0
 40
2.2500000000009148
 50
0.0000000000002036
 51
179.99999999999949
1001
REVIT
1002
{
1070
     3
1000
476644
1002
}
  0
LINE
  5
3E2
  8
0
 10
-464.55000000000172
 20
61.746774167515063
 30
0.0
 11
-464.55000000000172
 21
56.746774167515042
 31
0.0
1001
REVIT
1002
{
1070
     3
1000
476644
1002
}
  0
LINE
  5
3E3
  8
0
 10
-464.55000000000172
 20
56.746774167515042
 30
0.0
 11
-463.55000000000177
 21
56.746774167515042
 31
0.0
1001
REVIT
1002
{
1070
     3
1000
476644
1002
}
  0
LINE
  5
3E4
  8
0
 10
-463.55000000000177
 20
56.746774167515042
 30
0.0
 11
-463.55000000000177
 21
61.746774167515063
 31
0.0
1001
REVIT
1002
{
1070
     3
1000
476644
1002
}
  0
ARC
  5
3E5
  8
0
 10
-462.30000000000092
 20
61.746774167515042
 30
0.0
 40
1.2500000000009139
 50
0.0000000000013231
 51
180.0
1001
REVIT
1002
{
1070
     3
1000
476644
1002
}
  0
LINE
  5
3E6
  8
0
 10
-461.05000000000001
 20
61.746774167515063
 30
0.0
 11
-461.05000000000001
 21
53.308025051088272
 31
0.0
1001
REVIT
1002
{
1070
     3
1000
476644
1002
}
  0
LINE
  5
3E7
  8
0
 10
-461.05000000000001
 20
52.308025051088279
 30
0.0
 11
-461.05000000000001
 21
-9.7532258324851622
 31
0.0
1001
REVIT
1002
{
1070
     3
1000
476644
1002
}
  0
ARC
  5
3E8
  8
0
 10
-462.79999999999939
 20
-9.7532258324851284
 30
0.0
 40
1.749999999999555
 50
270.0
 51
359.99999999999909
1001
REVIT
1002
{
1070
     3
1000
476644
1002
}
  0
LINE
  5
3E9
  8
0
 10
-462.79999999999961
 20
-11.5032258324847
 30
0.0
 11
-547.37554403644049
 21
-11.5032258324847
 31
0.0
1001
REVIT
1002
{
1070
     3
1000
476644
1002
}
  0
ARC
  5
3EA
  8
0
 10
-547.37554403644015
 20
-9.7532258324858727
 30
0.0
 40
1.7499999999988161
 50
207.97358915472421
 51
270.0
1001
REVIT
1002
{
1070
     3
1000
476644
1002
}
  0
LINE
  5
3EB
  8
0
 10
-548.92108086997575
 20
-10.57408872979601
 30
0.0
 11
-550.56219600538225
 21
-7.4841648239222769
 31
0.0
1001
REVIT
1002
{
1070
     3
1000
476644
1002
}
  0
ARC
  5
3EC
  8
0
 10
-546.3671674572123
 20
-5.2561083883652708
 30
0.0
 40
4.7499999999986988
 50
171.22773877677321
 51
207.97358915472401
1001
REVIT
1002
{
1070
     3
1000
476644
1002
}
  0
LINE
  5
3ED
  8
0
 10
-551.06160353003304
 20
-4.5316983123817574
 30
0.0
 11
-550.58670586989513
 21
-1.4541918273665959
 31
0.0
1001
REVIT
1002
{
1070
     3
1000
476644
1002
}
  0
ARC
  5
3EE
  8
0
 10
-552.81038611491499
 20
-1.1110502124270469
 30
0.0
 40
2.249999999998916
 50
351.22773877677059
 51
36.210836948253878
1001
REVIT
1002
{
1070
     3
1000
476644
1002
}
  0
LINE
  5
3EF
  8
0
 10
-550.9949767867372
 20
0.2181559307878178
 30
0.0
 11
-551.72297513037927
 21
1.212444883402348
 31
0.0
1001
REVIT
1002
{
1070
     3
1000
476644
1002
}
  0
ARC
  5
3F0
  8
0
 10
-568.06165908398691
 20
-10.75041040553632
 30
0.0
 40
20.24999999999908
 50
36.210836948253061
 51
49.365667740855507
1001
REVIT
1002
{
1070
     3
1000
476644
1002
}
  0
LINE
  5
3F1
  8
0
 10
-554.87427053601471
 20
4.6169342995444662
 30
0.0
 11
-558.76732634137113
 21
7.9577352335665363
 31
0.0
1001
REVIT
1002
{
1070
     3
1000
476644
1002
}
  0
ARC
  5
3F2
  8
0
 10
-539.39326168447292
 20
30.534451528686159
 30
0.0
 40
29.749999999999851
 50
194.33762585345539
 51
229.3656677408558
1001
REVIT
1002
{
1070
     3
1000
476644
1002
}
  0
LINE
  5
3F3
  8
0
 10
-568.21664793817172
 20
23.167301138604689
 30
0.0
 11
-573.66421778546567
 21
44.480482156865612
 31
0.0
1001
REVIT
1002
{
1070
     3
1000
476644
1002
}
  0
ARC
  5
3F4
  8
0
 10
-602.97203069889179
 20
36.989514113169008
 30
0.0
 40
30.250000000001151
 50
14.337625853454989
 51
57.765180047078687
1001
REVIT
1002
{
1070
     3
1000
476644
1002
}
  0
LINE
  5
3F5
  8
0
 10
-586.83697023565583
 20
62.577056469710229
 30
0.0
 11
-592.27550438931985
 21
66.006501790327818
 31
0.0
1001
REVIT
1002
{
1070
     3
1000
476644
1002
}
  0
ARC
  5
3F6
  8
0
 10
-591.3420711393801
 20
67.486772835748624
 30
0.0
 40
1.750000000001342
 50
169.5118037983697
 51
237.7651800470818
1001
REVIT
1002
{
1070
     3
1000
476644
1002
}
  0
LINE
  5
3F7
  8
0
 10
-593.06283289183978
 20
67.805330509139495
 30
0.0
 11
-591.02780643968583
 21
78.797988908593325
 31
0.0
1001
REVIT
1002
{
1070
     3
1000
476644
1002
}
  0
ARC
  5
3F8
  8
0
 10
-590.29033711720217
 20
78.661464191425608
 30
0.0
 40
0.7500000000014656
 50
90.000000000003254
 51
169.511803798366
1001
REVIT
1002
{
1070
     3
1000
476644
1002
}
  0
LINE
  5
3F9
  8
0
 10
-590.29033711720217
 20
79.411464191428905
 30
0.0
 11
-577.46130677723954
 21
79.411464191428905
 31
0.0
1001
REVIT
1002
{
1070
     3
1000
476644
1002
}
  0
ARC
  5
3FA
  8
0
 10
-577.46130677723954
 20
78.661464191428877
 30
0.0
 40
0.750000000000064
 50
0.000000000002748
 51
89.999999999996746
1001
REVIT
1002
{
1070
     3
1000
476644
1002
}
  0
LINE
  5
3FB
  8
0
 10
-576.71130677723954
 20
78.661464191428919
 30
0.0
 11
-576.71130677723954
 21
76.000740090304603
 31
0.0
1001
REVIT
1002
{
1070
     3
1000
476644
1002
}
  0
LINE
  5
3FC
  8
0
  6
DASH
 10
200.0453782280413
 20
321.35151266754798
 30
0.0
 11
-466.4790060060941
 21
78.756476393712546
 31
0.0
1001
REVIT
1002
{
1070
     3
1000
217411
1002
}
  0
ARC
  5
3FD
  8
0
 10
48.999999999999773
 20
-45.900000000000013
 30
0.0
 40
1.999999999999998
 50
0.0
 51
90.000000000000185
1001
REVIT
1002
{
1070
     3
1000
224526
1002
}
  0
ARC
  5
3FE
  8
0
 10
2.9999999999998082
 20
-45.899999999999942
 30
0.0
 40
2.0
 50
89.999999999999801
 51
180.0
1001
REVIT
1002
{
1070
     3
1000
224526
1002
}
  0
ARC
  5
3FF
  8
0
 10
2.9999999999998179
 20
-116.90000000000001
 30
0.0
 40
1.9999999999999949
 50
180.0
 51
269.99999999999977
1001
REVIT
1002
{
1070
     3
1000
224526
1002
}
  0
ARC
  5
400
  8
0
 10
48.999999999999837
 20
-116.90000000000001
 30
0.0
 40
1.999999999999996
 50
269.9999999999996
 51
0.0
1001
REVIT
1002
{
1070
     3
1000
224526
1002
}
  0
LINE
  5
401
  8
0
 10
48.999999999999773
 20
-43.899999999999942
 30
0.0
 11
2.9999999999998179
 21
-43.899999999999942
 31
0.0
1001
REVIT
1002
{
1070
     3
1000
224526
1002
}
  0
LINE
  5
402
  8
0
 10
0.9999999999998082
 20
-45.899999999999928
 30
0.0
 11
0.9999999999998082
 21
-116.90000000000001
 31
0.0
1001
REVIT
1002
{
1070
     3
1000
224526
1002
}
  0
LINE
  5
403
  8
0
 10
2.9999999999998042
 20
-118.90000000000001
 30
0.0
 11
48.999999999999837
 21
-118.90000000000001
 31
0.0
1001
REVIT
1002
{
1070
     3
1000
224526
1002
}
  0
LINE
  5
404
  8
0
 10
50.999999999999837
 20
-116.90000000000001
 30
0.0
 11
50.999999999999837
 21
-45.90000000000002
 31
0.0
1001
REVIT
1002
{
1070
     3
1000
224526
1002
}
  0
LINE
  5
405
  8
0
 10
2.9999999999996478
 20
-45.899999999999757
 30
0.0
 11
48.999999999999872
 21
-116.89999999999991
 31
0.0
  0
LINE
  5
406
  8
0
 10
48.999999999999872
 20
-45.899999999999757
 30
0.0
 11
2.9999999999998499
 21
-116.90000000000001
 31
0.0
  0
ARC
  5
407
  8
0
 10
-3.0000000000000169
 20
29.099999999999898
 30
0.0
 40
1.999999999999998
 50
0.0000000000001527
 51
90.000000000000185
1001
REVIT
1002
{
1070
     3
1000
224526
1002
}
  0
ARC
  5
408
  8
0
 10
-48.999999999999972
 20
29.09999999999998
 30
0.0
 40
2.0
 50
89.999999999999801
 51
179.9999999999998
1001
REVIT
1002
{
1070
     3
1000
224526
1002
}
  0
ARC
  5
409
  8
0
 10
-48.999999999999957
 20
-41.900000000000091
 30
0.0
 40
1.9999999999999949
 50
180.00000000000011
 51
269.99999999999977
1001
REVIT
1002
{
1070
     3
1000
224526
1002
}
  0
ARC
  5
40A
  8
0
 10
-2.9999999999999432
 20
-41.900000000000098
 30
0.0
 40
1.999999999999996
 50
269.9999999999996
 51
0.0000000000000509
1001
REVIT
1002
{
1070
     3
1000
224526
1002
}
  0
LINE
  5
40B
  8
0
 10
-3.0000000000000142
 20
31.09999999999998
 30
0.0
 11
-48.999999999999957
 21
31.09999999999998
 31
0.0
1001
REVIT
1002
{
1070
     3
1000
224526
1002
}
  0
LINE
  5
40C
  8
0
 10
-50.999999999999972
 20
29.09999999999998
 30
0.0
 11
-50.999999999999972
 21
-41.900000000000077
 31
0.0
1001
REVIT
1002
{
1070
     3
1000
224526
1002
}
  0
LINE
  5
40D
  8
0
 10
-48.999999999999979
 20
-43.900000000000098
 30
0.0
 11
-2.9999999999999392
 21
-43.900000000000098
 31
0.0
1001
REVIT
1002
{
1070
     3
1000
224526
1002
}
  0
LINE
  5
40E
  8
0
 10
-0.9999999999999431
 20
-41.900000000000098
 30
0.0
 11
-0.9999999999999431
 21
29.099999999999891
 31
0.0
1001
REVIT
1002
{
1070
     3
1000
224526
1002
}
  0
LINE
  5
40F
  8
0
 10
-49.000000000000128
 20
29.100000000000151
 30
0.0
 11
-2.9999999999999112
 21
-41.900000000000027
 31
0.0
  0
LINE
  5
410
  8
0
 10
-2.9999999999999178
 20
29.100000000000151
 30
0.0
 11
-48.999999999999929
 21
-41.900000000000098
 31
0.0
  0
LINE
  5
411
  8
0
  6
DASH
 10
-2.0000000000001008
 20
-43.899999999999999
 30
0.0
 11
-2.0000000000005498
 21
-272.6815408742865
 31
0.0
1001
REVIT
1002
{
1070
     3
1000
217411
1002
}
  0
INSERT
  5
412
  8
0
  6
CONTINUOUS
  2
*X50
 10
0.0
 20
0.0
 30
0.0
1001
ACAD
1000
HATCH
1002
{
1070
    19
1000
FP_1
1040
1.0
1040
0.0
1000
R14_HATCH_DATA
1000
412
1011
1.0
1021
1.0668823092635704E+242
1031
6.8280467792868505E+243
1021
0.0
1031
0.0
1011
0.0
1021
1.0668823092635704E+242
1031
6.8280467792868505E+243
1021
1.0
1031
0.0
1011
0.0
1021
1.0668823092635704E+242
1031
6.8280467792868505E+243
1021
0.0
1031
1.0
1040
0.0
1010
0.0
1020
0.0
1030
1.0
1000
FP_1
1070
     0
1070
     0
1071
        1
1071
        0
1071
        4
1070
     1
1040
-25.000000000000451
1040
-272.6815408742869
1040
-25.000000000001261
1040
-52.900000000000027
1070
     1
1040
-25.000000000001261
1040
-52.900000000000027
1040
-65.000000000001236
1040
-52.900000000000318
1070
     1
1040
-65.000000000001236
1040
-52.900000000000318
1040
-65.000000000000426
1040
-272.6815408742869
1070
     1
1040
-65.000000000000426
1040
-272.6815408742869
1040
-25.000000000000458
1040
-272.6815408742869
1071
        0
1070
     0
1070
     2
1040
0.0
1040
1.0
1070
     0
1070
     1
1040
0.0
1040
-0.0000000000000995
1040
0.0004591257134621
1040
0.0
1040
15.0
1070
     0
1071
        1
1040
-45.000000000000092
1040
-272.6815408742865
1040
0.0
1002
}
  0
LINE
  5
413
  8
0
 10
-25.000000000001261
 20
-52.900000000000091
 30
0.0
 11
-65.000000000001251
 21
-52.900000000000198
 31
0.0
1001
REVIT
1002
{
1070
     3
1000
224526
1002
}
  0
LINE
  5
414
  8
0
 10
-65.000000000001251
 20
-52.900000000000198
 30
0.0
 11
-65.000000000000526
 21
-272.68154087428672
 31
0.0
1001
REVIT
1002
{
1070
     3
1000
224526
1002
}
  0
LINE
  5
415
  8
0
 10
-25.000000000000529
 20
-272.68154087428661
 30
0.0
 11
-25.000000000001261
 21
-52.900000000000091
 31
0.0
1001
REVIT
1002
{
1070
     3
1000
224526
1002
}
  0
LINE
  5
416
  8
0
 10
-1.9999999999997149
 20
-44.899999999999679
 30
0.0
 11
-404.24999999999977
 21
-44.899999999999679
 31
0.0
1001
REVIT
1002
{
1070
     3
1000
211597
1002
}
  0
LINE
  5
417
  8
0
 10
-404.24999999999977
 20
-50.899999999999842
 30
0.0
 11
-1.9999999999997149
 21
-50.899999999999842
 31
0.0
1001
REVIT
1002
{
1070
     3
1000
211597
1002
}
  0
LINE
  5
418
  8
0
 10
-1.9999999999996581
 20
-44.900000000000126
 30
0.0
 11
-1.9999999999996581
 21
-50.900000000000141
 31
0.0
1001
REVIT
1002
{
1070
     3
1000
211597
1002
}
  0
LINE
  5
419
  8
0
 10
-404.24999999999977
 20
-44.899999999999729
 30
0.0
 11
-404.24999999999977
 21
-50.899999999999899
 31
0.0
1001
REVIT
1002
{
1070
     3
1000
211597
1002
}
  0
ARC
  5
41A
  8
0
 10
-87.614288445974637
 20
290.68324507078393
 30
0.0
 40
1.9999999999999969
 50
20.000000000003428
 51
110.00000000000369
1001
REVIT
1002
{
1070
     3
1000
224526
1002
}
  0
ARC
  5
41B
  8
0
 10
-130.8401490021254
 20
274.95031847780052
 30
0.0
 40
2.0
 50
110.00000000000369
 51
200.0000000000035
1001
REVIT
1002
{
1070
     3
1000
224526
1002
}
  0
ARC
  5
41C
  8
0
 10
-118.5274238423992
 20
241.12138412950861
 30
0.0
 40
1.999999999999996
 50
200.0000000000035
 51
290.00000000000301
1001
REVIT
1002
{
1070
     3
1000
224526
1002
}
  0
ARC
  5
41D
  8
0
 10
-75.301563286248381
 20
256.85431072249207
 30
0.0
 40
1.9999999999999989
 50
290.00000000000369
 51
20.000000000003428
1001
REVIT
1002
{
1070
     3
1000
224526
1002
}
  0
LINE
  5
41E
  8
0
 10
-88.298328732626118
 20
292.56263031235568
 30
0.0
 11
-131.5241892887768
 21
276.82970371937228
 31
0.0
1001
REVIT
1002
{
1070
     3
1000
224526
1002
}
  0
LINE
  5
41F
  8
0
 10
-132.71953424369721
 20
274.26627819114913
 30
0.0
 11
-131.2088857652937
 21
270.11580560800292
 31
0.0
1001
REVIT
1002
{
1070
     3
1000
224526
1002
}
  0
LINE
  5
420
  8
0
 10
-130.86058936726539
 20
269.15886911914311
 30
0.0
 11
-120.4068090839709
 21
240.4373438428571
 31
0.0
1001
REVIT
1002
{
1070
     3
1000
224526
1002
}
  0
LINE
  5
421
  8
0
 10
-117.84338355574771
 20
239.2419988879368
 30
0.0
 11
-74.617522999596929
 21
254.97492548092029
 31
0.0
1001
REVIT
1002
{
1070
     3
1000
224526
1002
}
  0
LINE
  5
422
  8
0
 10
-73.422178044676613
 20
257.53835100914353
 30
0.0
 11
-85.734903204402798
 21
291.36728535743538
 31
0.0
1001
REVIT
1002
{
1070
     3
1000
224526
1002
}
  0
LINE
  5
423
  8
0
 10
-130.8401490021256
 20
274.95031847780058
 30
0.0
 11
-121.0165905603658
 21
271.74953135916161
 31
0.0
  0
LINE
  5
424
  8
0
 10
-118.9332174991204
 20
271.0707107772626
 30
0.0
 11
-75.301563286248381
 21
256.85431072249207
 31
0.0
  0
LINE
  5
425
  8
0
 10
-87.614288445974637
 20
290.68324507078421
 30
0.0
 11
-118.5274238423991
 21
241.12138412950861
 31
0.0
  0
LINE
  5
426
  8
0
 10
199.90491168224281
 20
284.56486362353689
 30
0.0
 11
-404.25
 21
64.670458885474787
 31
0.0
1001
REVIT
1002
{
1070
     3
1000
206265
1002
}
  0
LINE
  5
427
  8
0
 10
-404.25000000000028
 20
-41.747318362116658
 30
0.0
 11
199.9049116822425
 21
178.14708637594549
 31
0.0
1001
REVIT
1002
{
1070
     3
1000
206265
1002
}
  0
LINE
  5
428
  8
0
 10
-50.999999999999552
 20
31.100000000000499
 30
0.0
 11
-204.10363773226089
 21
31.100000000000499
 31
0.0
1001
REVIT
1002
{
1070
     3
1000
206265
1002
}
  0
LINE
  5
429
  8
0
 10
-404.24999999999977
 20
-43.899999999999658
 30
0.0
 11
-50.999999999999552
 21
-43.899999999999658
 31
0.0
1001
REVIT
1002
{
1070
     3
1000
206265
1002
}
  0
ARC
  5
42A
  8
0
 10
98.00000000000027
 20
138.71516235161761
 30
0.0
 40
1.9999999999999969
 50
0.0
 51
90.0
1001
REVIT
1002
{
1070
     3
1000
224526
1002
}
  0
ARC
  5
42B
  8
0
 10
2.0000000000003411
 20
92.715162351617693
 30
0.0
 40
1.999999999999992
 50
180.0
 51
269.9999999999996
1001
REVIT
1002
{
1070
     3
1000
224526
1002
}
  0
ARC
  5
42C
  8
0
 10
98.000000000000341
 20
92.715162351617664
 30
0.0
 40
2.0000000000000071
 50
269.9999999999996
 51
0.0
1001
REVIT
1002
{
1070
     3
1000
224526
1002
}
  0
LINE
  5
42D
  8
0
 10
98.00000000000027
 20
140.71516235161769
 30
0.0
 11
97.061545658660634
 21
140.71516235161769
 31
0.0
1001
REVIT
1002
{
1070
     3
1000
224526
1002
}
  0
LINE
  5
42E
  8
0
 10
0.000000000000334
 20
105.38764883999561
 30
0.0
 11
0.000000000000334
 21
92.715162351617693
 31
0.0
1001
REVIT
1002
{
1070
     3
1000
224526
1002
}
  0
LINE
  5
42F
  8
0
 10
2.0000000000003331
 20
90.715162351617678
 30
0.0
 11
98.000000000000341
 21
90.715162351617678
 31
0.0
1001
REVIT
1002
{
1070
     3
1000
224526
1002
}
  0
LINE
  5
430
  8
0
 10
100.0000000000003
 20
92.715162351617664
 30
0.0
 11
100.0000000000003
 21
138.71516235161761
 31
0.0
1001
REVIT
1002
{
1070
     3
1000
224526
1002
}
  0
LINE
  5
431
  8
0
 10
40.664626120646702
 20
120.18836233547469
 30
0.0
 11
98.000000000000384
 21
92.715162351617764
 31
0.0
  0
LINE
  5
432
  8
0
 10
98.000000000000384
 20
138.71516235161789
 30
0.0
 11
2.0000000000003761
 21
92.715162351617693
 31
0.0
  0
LINE
  5
433
  8
0
 10
100.0000000000005
 20
-272.68154087428712
 30
0.0
 11
100.00000000000119
 21
90.715162351617806
 31
0.0
1001
REVIT
1002
{
1070
     3
1000
206265
1002
}
  0
LINE
  5
434
  8
0
 10
100.00000000000129
 20
140.71516235161781
 30
0.0
 11
100.00000000000129
 21
141.06894158504269
 31
0.0
1001
REVIT
1002
{
1070
     3
1000
206265
1002
}
  0
LINE
  5
435
  8
0
 10
0.0000000000011013
 20
90.715162351617835
 30
0.0
 11
0.0000000000003908
 21
-272.6815408742869
 31
0.0
1001
REVIT
1002
{
1070
     3
1000
206265
1002
}
  0
VIEWPORT
  5
322
 67
     1
  8
0
 10
143.41473388671869
 20
99.790247440338135
 30
0.0
 40
334.673629294997
 41
222.15178063964851
 68
     1
 69
     1
1001
ACAD
1000
MVIEW
1002
{
1070
    16
1010
0.0
1020
0.0
1030
0.0
1010
0.0
1020
0.0
1030
1.0
1040
0.0
1040
222.15178063964851
1040
143.41473388671869
1040
99.790247440338135
1040
50.0
1040
0.0
1040
0.0
1070
     0
1070
   100
1070
     1
1070
     1
1070
     0
1070
     0
1070
     0
1070
     0
1040
0.0
1040
0.0
1040
0.0
1040
10.0
1040
10.0
1040
10.0
1040
10.0
1070
     0
1002
{
1002
}
1002
}
  0
VIEWPORT
  5
326
 67
     1
  8
0
 10
143.3724060058594
 20
99.832585573196425
 30
0.0
 40
229.39584960937501
 41
159.73213691711419
 68
     2
 69
     2
1001
ACAD
1000
MVIEW
1002
{
1070
    16
1010
0.0
1020
0.0
1030
0.0
1010
0.0
1020
0.0
1030
1.0
1040
0.0
1040
757.19260452564538
1040
-248.31871522829439
1040
91.895413774098856
1040
50.0
1040
0.0
1040
0.0
1070
     0
1070
  1000
1070
     1
1070
     1
1070
     0
1070
     0
1070
     0
1070
     0
1040
0.0
1040
0.0
1040
0.0
1040
1.0
1040
1.0
1040
0.0
1040
0.0
1070
     0
1002
{
1002
}
1002
}
  0
ENDSEC
  0
EOF
