  0
SECTION
  2
HEADER
  9
$ACADVER
  1
AC1009
  9
$INSBASE
 10
0.0
 20
0.0
 30
0.0
  9
$EXTMIN
 10
-742.5164161583715
 20
-339.78379451763669
 30
0.0
  9
$EXTMAX
 10
344.68154715927511
 20
381.62786700340791
 30
0.0
  9
$LIMMIN
 10
0.0
 20
0.0
  9
$LIMMAX
 10
12.0
 20
9.0
  9
$ORTHOMODE
 70
     0
  9
$REGENMODE
 70
     1
  9
$FILLMODE
 70
     1
  9
$QTEXTMODE
 70
     0
  9
$MIRRTEXT
 70
     0
  9
$DRAGMODE
 70
     2
  9
$LTSCALE
 40
1.0
  9
$OSMODE
 70
     0
  9
$ATTMODE
 70
     1
  9
$TEXTSIZE
 40
0.2
  9
$TRACEWID
 40
0.05
  9
$TEXTSTYLE
  7
STANDARD
  9
$CLAYER
  8
0
  9
$CELTYPE
  6
CONTINUOUS
  9
$CECOLOR
 62
   256
  9
$DIMSCALE
 40
1.0
  9
$DIMASZ
 40
0.18
  9
$DIMEXO
 40
0.0625
  9
$DIMDLI
 40
0.38
  9
$DIMRND
 40
0.0
  9
$DIMDLE
 40
0.0
  9
$DIMEXE
 40
0.18
  9
$DIMTP
 40
0.0
  9
$DIMTM
 40
0.0
  9
$DIMTXT
 40
0.18
  9
$DIMCEN
 40
0.09
  9
$DIMTSZ
 40
0.0
  9
$DIMTOL
 70
     0
  9
$DIMLIM
 70
     0
  9
$DIMTIH
 70
     1
  9
$DIMTOH
 70
     1
  9
$DIMSE1
 70
     0
  9
$DIMSE2
 70
     0
  9
$DIMTAD
 70
     0
  9
$DIMZIN
 70
     0
  9
$DIMBLK
  1

  9
$DIMASO
 70
     1
  9
$DIMSHO
 70
     1
  9
$DIMPOST
  1

  9
$DIMAPOST
  1

  9
$DIMALT
 70
     0
  9
$DIMALTD
 70
     2
  9
$DIMALTF
 40
25.399999999999999
  9
$DIMLFAC
 40
1.0
  9
$DIMTOFL
 70
     0
  9
$DIMTVP
 40
0.0
  9
$DIMTIX
 70
     0
  9
$DIMSOXD
 70
     0
  9
$DIMSAH
 70
     0
  9
$DIMBLK1
  1

  9
$DIMBLK2
  1

  9
$DIMSTYLE
  2
STANDARD
  9
$DIMCLRD
 70
     0
  9
$DIMCLRE
 70
     0
  9
$DIMCLRT
 70
     0
  9
$DIMTFAC
 40
1.0
  9
$DIMGAP
 40
0.09
  9
$LUNITS
 70
     2
  9
$LUPREC
 70
     4
  9
$SKETCHINC
 40
0.1
  9
$FILLETRAD
 40
0.0
  9
$AUNITS
 70
     0
  9
$AUPREC
 70
     0
  9
$MENU
  1
.
  9
$ELEVATION
 40
0.0
  9
$PELEVATION
 40
0.0
  9
$THICKNESS
 40
0.0
  9
$LIMCHECK
 70
     0
  9
$BLIPMODE
 70
     0
  9
$CHAMFERA
 40
0.0
  9
$CHAMFERB
 40
0.0
  9
$SKPOLY
 70
     0
  9
$TDCREATE
 40
2458069.9976585652
  9
$TDUPDATE
 40
2458070.0795431249
  9
$TDINDWG
 40
0.0021722454
  9
$TDUSRTIMER
 40
0.0021722454
  9
$USRTIMER
 70
     1
  9
$ANGBASE
 50
0.0
  9
$ANGDIR
 70
     0
  9
$PDMODE
 70
     0
  9
$PDSIZE
 40
0.0
  9
$PLINEWID
 40
0.0
  9
$COORDS
 70
     2
  9
$SPLFRAME
 70
     0
  9
$SPLINETYPE
 70
     6
  9
$SPLINESEGS
 70
     8
  9
$ATTDIA
 70
     1
  9
$ATTREQ
 70
     0
  9
$HANDLING
 70
     1
  9
$HANDSEED
  5
5DA
  9
$SURFTAB1
 70
     6
  9
$SURFTAB2
 70
     6
  9
$SURFTYPE
 70
     6
  9
$SURFU
 70
     6
  9
$SURFV
 70
     6
  9
$UCSNAME
  2

  9
$UCSORG
 10
0.0
 20
0.0
 30
0.0
  9
$UCSXDIR
 10
1.0
 20
0.0
 30
0.0
  9
$UCSYDIR
 10
0.0
 20
1.0
 30
0.0
  9
$PUCSNAME
  2

  9
$PUCSORG
 10
0.0
 20
0.0
 30
0.0
  9
$PUCSXDIR
 10
1.0
 20
0.0
 30
0.0
  9
$PUCSYDIR
 10
0.0
 20
1.0
 30
0.0
  9
$USERI1
 70
     0
  9
$USERI2
 70
     0
  9
$USERI3
 70
     0
  9
$USERI4
 70
     0
  9
$USERI5
 70
     0
  9
$USERR1
 40
0.0
  9
$USERR2
 40
0.0
  9
$USERR3
 40
0.0
  9
$USERR4
 40
0.0
  9
$USERR5
 40
0.0
  9
$WORLDVIEW
 70
     1
  9
$SHADEDGE
 70
     3
  9
$SHADEDIF
 70
    70
  9
$TILEMODE
 70
     1
  9
$MAXACTVP
 70
    64
  9
$PLIMCHECK
 70
     0
  9
$PEXTMIN
 10
25.699999999999989
 20
19.5
 30
0.0
  9
$PEXTMAX
 10
231.30000000000001
 20
175.5
 30
0.0
  9
$PLIMMIN
 10
-20.0
 20
-7.5
  9
$PLIMMAX
 10
277.0
 20
202.5
  9
$UNITMODE
 70
     0
  9
$VISRETAIN
 70
     1
  9
$PLINEGEN
 70
     0
  9
$PSLTSCALE
 70
     1
  0
ENDSEC
  0
SECTION
  2
TABLES
  0
TABLE
  2
VPORT
 70
     1
  0
VPORT
  2
*ACTIVE
 70
     0
 10
0.0
 20
0.0
 11
1.0
 21
1.0
 12
201.38470034066259
 22
20.922036242885781
 13
0.0
 23
0.0
 14
1.0
 24
1.0
 15
0.0
 25
0.0
 16
0.0
 26
0.0
 36
1.0
 17
0.0
 27
0.0
 37
0.0
 40
721.41166152104495
 41
2.6232876712328759
 42
50.0
 43
0.0
 44
0.0
 50
0.0
 51
0.0
 71
     0
 72
  1000
 73
     1
 74
     1
 75
     0
 76
     0
 77
     0
 78
     0
  0
ENDTAB
  0
TABLE
  2
LTYPE
 70
     2
  0
LTYPE
  2
CONTINUOUS
 70
     0
  3
Solid line
 72
    65
 73
     0
 40
0.0
  0
LTYPE
  2
DASH
 70
     0
  3

 72
    65
 73
     2
 40
6.3499999999999988
 49
3.1749999999999989
 49
-3.1749999999999989
  0
ENDTAB
  0
TABLE
  2
LAYER
 70
     7
  0
LAYER
  2
0
 70
     0
 62
     7
  6
CONTINUOUS
  0
ENDTAB
  0
TABLE
  2
STYLE
 70
     2
  0
STYLE
  2
STANDARD
 70
     0
 40
0.0
 41
1.0
 50
0.0
 71
     0
 42
0.2
  3
txt
  4

  0
STYLE
  2
ARIAL
 70
     0
 40
9.8353293413173617
 41
1.0
 50
0.0
 71
     0
 42
0.2
  3
txt
  4

  0
ENDTAB
  0
TABLE
  2
VIEW
 70
     1
  0
ENDTAB
  0
TABLE
  2
UCS
 70
     0
  0
ENDTAB
  0
TABLE
  2
APPID
 70
     6
  0
APPID
  2
ACAD
 70
     0
  0
APPID
  2
ACADANNOTATIVE
 70
     0
  0
APPID
  2
REVIT
 70
     0
  0
APPID
  2
ACAD_PSEXT
 70
     0
  0
APPID
  2
ACAD_MLEADERVER
 70
     0
  0
APPID
  2
ACAD_NAV_VCDISPLAY
 70
     0
  0
ENDTAB
  0
TABLE
  2
DIMSTYLE
 70
     1
  0
DIMSTYLE
  2
STANDARD
 70
     0
  3

  4

  5

  6

  7

 40
1.0
 41
0.18
 42
0.0625
 43
0.38
 44
0.18
 45
0.0
 46
0.0
 47
0.0
 48
0.0
140
0.18
141
0.09
142
0.0
143
25.399999999999999
144
1.0
145
0.0
146
1.0
147
0.09
 71
     0
 72
     0
 73
     1
 74
     1
 75
     0
 76
     0
 77
     0
 78
     0
170
     0
171
     2
172
     0
173
     0
174
     0
175
     0
176
     0
177
     0
178
     0
  0
ENDTAB
  0
ENDSEC
  0
SECTION
  2
BLOCKS
  0
BLOCK
  8
0
  2
$MODEL_SPACE
 70
     0
 10
0.0
 20
0.0
 30
0.0
  3
$MODEL_SPACE
  1

  0
ENDBLK
  5
72
  8
0
  0
BLOCK
 67
     1
  8
0
  2
$PAPER_SPACE
 70
     0
 10
0.0
 20
0.0
 30
0.0
  3
$PAPER_SPACE
  1

  0
ENDBLK
  5
364
 67
     1
  8
0
  0
BLOCK
  8
0
  2
*U21
 70
     1
 10
0.0
 20
0.0
 30
0.0
  3
*U21
  1

  0
SOLID
  5
48D
  8
0
  6
CONTINUOUS
 10
-12.440567390306001
 20
31.29937405739604
 30
0.0
 11
-13.20593425503618
 21
31.147133122418619
 31
0.0
 12
-11.67520052557583
 22
31.147133122418619
 32
0.0
 13
-11.67520052557583
 23
31.147133122418619
 33
0.0
210
0.0
220
0.0
230
1.0
  0
SOLID
  5
48E
  8
0
  6
CONTINUOUS
 10
-13.20593425503618
 20
31.147133122418619
 30
0.0
 11
-13.8547809526791
 21
30.71358761976914
 31
0.0
 12
-11.02635382793291
 22
30.71358761976914
 32
0.0
 13
-11.02635382793291
 23
30.71358761976914
 33
0.0
210
0.0
220
0.0
230
1.0
  0
SOLID
  5
48F
  8
0
  6
CONTINUOUS
 10
13.20593425503618
 20
31.147133122418619
 30
0.0
 11
11.67520052557583
 21
31.147133122418619
 31
0.0
 12
11.02635382793291
 22
30.71358761976914
 32
0.0
 13
11.02635382793291
 23
30.71358761976914
 33
0.0
210
0.0
220
0.0
230
-1.0
  0
SOLID
  5
490
  8
0
  6
CONTINUOUS
 10
-13.8547809526791
 20
30.71358761976914
 30
0.0
 11
-14.28832645532858
 21
30.064740922126219
 31
0.0
 12
-10.59280832528343
 22
30.064740922126219
 32
0.0
 13
-10.59280832528343
 23
30.064740922126219
 33
0.0
210
0.0
220
0.0
230
1.0
  0
SOLID
  5
491
  8
0
  6
CONTINUOUS
 10
13.8547809526791
 20
30.71358761976914
 30
0.0
 11
11.02635382793291
 21
30.71358761976914
 31
0.0
 12
10.59280832528343
 22
30.064740922126219
 32
0.0
 13
10.59280832528343
 23
30.064740922126219
 33
0.0
210
0.0
220
0.0
230
-1.0
  0
SOLID
  5
492
  8
0
  6
CONTINUOUS
 10
-14.28832645532858
 20
30.064740922126219
 30
0.0
 11
-14.440567390306009
 21
29.29937405739604
 31
0.0
 12
-10.440567390306001
 22
29.29937405739604
 32
0.0
 13
-10.440567390306001
 23
29.29937405739604
 33
0.0
210
0.0
220
0.0
230
1.0
  0
SOLID
  5
493
  8
0
  6
CONTINUOUS
 10
14.28832645532858
 20
30.064740922126219
 30
0.0
 11
10.59280832528343
 21
30.064740922126219
 31
0.0
 12
10.440567390306001
 22
29.29937405739604
 32
0.0
 13
10.440567390306001
 23
29.29937405739604
 33
0.0
210
0.0
220
0.0
230
-1.0
  0
SOLID
  5
494
  8
0
  6
CONTINUOUS
 10
-14.440567390306009
 20
29.29937405739604
 30
0.0
 11
-14.28832645532858
 21
28.534007192665861
 31
0.0
 12
-10.59280832528343
 22
28.534007192665861
 32
0.0
 13
-10.59280832528343
 23
28.534007192665861
 33
0.0
210
0.0
220
0.0
230
1.0
  0
SOLID
  5
495
  8
0
  6
CONTINUOUS
 10
14.440567390306009
 20
29.29937405739604
 30
0.0
 11
10.440567390306001
 21
29.29937405739604
 31
0.0
 12
10.59280832528343
 22
28.534007192665861
 32
0.0
 13
10.59280832528343
 23
28.534007192665861
 33
0.0
210
0.0
220
0.0
230
-1.0
  0
SOLID
  5
496
  8
0
  6
CONTINUOUS
 10
-14.28832645532858
 20
28.534007192665861
 30
0.0
 11
-13.8547809526791
 21
27.885160495022951
 31
0.0
 12
-11.02635382793291
 22
27.885160495022951
 32
0.0
 13
-11.02635382793291
 23
27.885160495022951
 33
0.0
210
0.0
220
0.0
230
1.0
  0
SOLID
  5
497
  8
0
  6
CONTINUOUS
 10
14.28832645532858
 20
28.534007192665861
 30
0.0
 11
10.59280832528343
 21
28.534007192665861
 31
0.0
 12
11.02635382793291
 22
27.885160495022951
 32
0.0
 13
11.02635382793291
 23
27.885160495022951
 33
0.0
210
0.0
220
0.0
230
-1.0
  0
SOLID
  5
498
  8
0
  6
CONTINUOUS
 10
13.20593425503618
 20
27.451614992373461
 30
0.0
 11
11.67520052557583
 21
27.451614992373461
 31
0.0
 12
12.440567390306001
 22
27.29937405739604
 32
0.0
 13
12.440567390306001
 23
27.29937405739604
 33
0.0
210
0.0
220
0.0
230
-1.0
  0
SOLID
  5
499
  8
0
  6
CONTINUOUS
 10
-13.8547809526791
 20
27.885160495022951
 30
0.0
 11
-13.20593425503618
 21
27.451614992373461
 31
0.0
 12
-11.67520052557583
 22
27.451614992373461
 32
0.0
 13
-11.67520052557583
 23
27.451614992373461
 33
0.0
210
0.0
220
0.0
230
1.0
  0
SOLID
  5
49A
  8
0
  6
CONTINUOUS
 10
13.8547809526791
 20
27.885160495022951
 30
0.0
 11
11.02635382793291
 21
27.885160495022951
 31
0.0
 12
11.67520052557583
 22
27.451614992373461
 32
0.0
 13
11.67520052557583
 23
27.451614992373461
 33
0.0
210
0.0
220
0.0
230
-1.0
  0
LINE
  5
49B
  8
0
  6
CONTINUOUS
 10
-12.440567390306001
 20
31.29937405739604
 30
0.0
 11
-13.20593425503618
 21
31.147133122418619
 31
0.0
  0
LINE
  5
49C
  8
0
  6
CONTINUOUS
 10
-11.67520052557583
 20
31.147133122418619
 30
0.0
 11
-12.440567390306001
 21
31.29937405739604
 31
0.0
  0
LINE
  5
49D
  8
0
  6
CONTINUOUS
 10
-13.20593425503618
 20
31.147133122418619
 30
0.0
 11
-13.8547809526791
 21
30.71358761976914
 31
0.0
  0
LINE
  5
49E
  8
0
  6
CONTINUOUS
 10
-11.67520052557583
 20
31.147133122418619
 30
0.0
 11
-11.02635382793291
 21
30.71358761976914
 31
0.0
  0
LINE
  5
49F
  8
0
  6
CONTINUOUS
 10
-13.8547809526791
 20
30.71358761976914
 30
0.0
 11
-14.28832645532858
 21
30.064740922126219
 31
0.0
  0
LINE
  5
4A0
  8
0
  6
CONTINUOUS
 10
-11.02635382793291
 20
30.71358761976914
 30
0.0
 11
-10.59280832528343
 21
30.064740922126219
 31
0.0
  0
LINE
  5
4A1
  8
0
  6
CONTINUOUS
 10
-14.28832645532858
 20
30.064740922126219
 30
0.0
 11
-14.440567390306009
 21
29.29937405739604
 31
0.0
  0
LINE
  5
4A2
  8
0
  6
CONTINUOUS
 10
-10.59280832528343
 20
30.064740922126219
 30
0.0
 11
-10.440567390306001
 21
29.29937405739604
 31
0.0
  0
LINE
  5
4A3
  8
0
  6
CONTINUOUS
 10
-14.440567390306009
 20
29.29937405739604
 30
0.0
 11
-14.28832645532858
 21
28.534007192665861
 31
0.0
  0
LINE
  5
4A4
  8
0
  6
CONTINUOUS
 10
-10.440567390306001
 20
29.29937405739604
 30
0.0
 11
-10.59280832528343
 21
28.534007192665861
 31
0.0
  0
LINE
  5
4A5
  8
0
  6
CONTINUOUS
 10
-14.28832645532858
 20
28.534007192665861
 30
0.0
 11
-13.8547809526791
 21
27.885160495022951
 31
0.0
  0
LINE
  5
4A6
  8
0
  6
CONTINUOUS
 10
-10.59280832528343
 20
28.534007192665861
 30
0.0
 11
-11.02635382793291
 21
27.885160495022951
 31
0.0
  0
LINE
  5
4A7
  8
0
  6
CONTINUOUS
 10
-11.67520052557583
 20
27.451614992373461
 30
0.0
 11
-12.440567390306001
 21
27.29937405739604
 31
0.0
  0
LINE
  5
4A8
  8
0
  6
CONTINUOUS
 10
-12.440567390306001
 20
27.29937405739604
 30
0.0
 11
-13.20593425503618
 21
27.451614992373461
 31
0.0
  0
LINE
  5
4A9
  8
0
  6
CONTINUOUS
 10
-13.8547809526791
 20
27.885160495022951
 30
0.0
 11
-13.20593425503618
 21
27.451614992373461
 31
0.0
  0
LINE
  5
4AA
  8
0
  6
CONTINUOUS
 10
-11.02635382793291
 20
27.885160495022951
 30
0.0
 11
-11.67520052557583
 21
27.451614992373461
 31
0.0
  0
ENDBLK
  5
4AC
  8
0
  0
BLOCK
  8
0
  2
*U22
 70
     1
 10
0.0
 20
0.0
 30
0.0
  3
*U22
  1

  0
TEXT
  5
4AE
  8
0
  6
CONTINUOUS
 10
-680.40758436353133
 20
49.638962697969809
 30
0.0
 40
9.8353293413173617
  1
Tilcor CF Shake Panel
  7
ARIAL
  0
TEXT
  5
4AF
  8
0
  6
CONTINUOUS
 10
-680.96442770277372
 20
34.25434731335443
 30
0.0
 40
9.8353293413173617
  1
upstand
  7
ARIAL
  0
ENDBLK
  5
4B1
  8
0
  0
BLOCK
  8
0
  2
*U23
 70
     1
 10
0.0
 20
0.0
 30
0.0
  3
*U23
  1

  0
SOLID
  5
4B3
  8
0
  6
CONTINUOUS
 10
-12.44056739030604
 20
258.61584549561678
 30
0.0
 11
-13.205934255036221
 21
258.46360456063928
 31
0.0
 12
-11.67520052557586
 22
258.46360456063928
 32
0.0
 13
-11.67520052557586
 23
258.46360456063928
 33
0.0
210
0.0
220
0.0
230
1.0
  0
SOLID
  5
4B4
  8
0
  6
CONTINUOUS
 10
-13.205934255036221
 20
258.46360456063928
 30
0.0
 11
-13.85478095267913
 21
258.03005905798989
 31
0.0
 12
-11.026353827932949
 22
258.03005905798989
 32
0.0
 13
-11.026353827932949
 23
258.03005905798989
 33
0.0
210
0.0
220
0.0
230
1.0
  0
SOLID
  5
4B5
  8
0
  6
CONTINUOUS
 10
13.205934255036221
 20
258.46360456063928
 30
0.0
 11
11.67520052557586
 21
258.46360456063928
 31
0.0
 12
11.026353827932949
 22
258.03005905798989
 32
0.0
 13
11.026353827932949
 23
258.03005905798989
 33
0.0
210
0.0
220
0.0
230
-1.0
  0
SOLID
  5
4B6
  8
0
  6
CONTINUOUS
 10
-13.85478095267913
 20
258.03005905798989
 30
0.0
 11
-14.28832645532861
 21
257.38121236034698
 31
0.0
 12
-10.59280832528346
 22
257.38121236034698
 32
0.0
 13
-10.59280832528346
 23
257.38121236034698
 33
0.0
210
0.0
220
0.0
230
1.0
  0
SOLID
  5
4B7
  8
0
  6
CONTINUOUS
 10
13.85478095267913
 20
258.03005905798989
 30
0.0
 11
11.026353827932949
 21
258.03005905798989
 31
0.0
 12
10.59280832528346
 22
257.38121236034698
 32
0.0
 13
10.59280832528346
 23
257.38121236034698
 33
0.0
210
0.0
220
0.0
230
-1.0
  0
SOLID
  5
4B8
  8
0
  6
CONTINUOUS
 10
-14.28832645532861
 20
257.38121236034698
 30
0.0
 11
-14.44056739030604
 21
256.61584549561678
 31
0.0
 12
-10.44056739030604
 22
256.61584549561678
 32
0.0
 13
-10.44056739030604
 23
256.61584549561678
 33
0.0
210
0.0
220
0.0
230
1.0
  0
SOLID
  5
4B9
  8
0
  6
CONTINUOUS
 10
14.28832645532861
 20
257.38121236034698
 30
0.0
 11
10.59280832528346
 21
257.38121236034698
 31
0.0
 12
10.44056739030604
 22
256.61584549561678
 32
0.0
 13
10.44056739030604
 23
256.61584549561678
 33
0.0
210
0.0
220
0.0
230
-1.0
  0
SOLID
  5
4BA
  8
0
  6
CONTINUOUS
 10
-14.44056739030604
 20
256.61584549561678
 30
0.0
 11
-14.28832645532861
 21
255.85047863088661
 31
0.0
 12
-10.59280832528346
 22
255.85047863088661
 32
0.0
 13
-10.59280832528346
 23
255.85047863088661
 33
0.0
210
0.0
220
0.0
230
1.0
  0
SOLID
  5
4BB
  8
0
  6
CONTINUOUS
 10
14.44056739030604
 20
256.61584549561678
 30
0.0
 11
10.44056739030604
 21
256.61584549561678
 31
0.0
 12
10.59280832528346
 22
255.85047863088661
 32
0.0
 13
10.59280832528346
 23
255.85047863088661
 33
0.0
210
0.0
220
0.0
230
-1.0
  0
SOLID
  5
4BC
  8
0
  6
CONTINUOUS
 10
-14.28832645532861
 20
255.85047863088661
 30
0.0
 11
-13.85478095267913
 21
255.2016319332437
 31
0.0
 12
-11.02635382793294
 22
255.2016319332437
 32
0.0
 13
-11.02635382793294
 23
255.2016319332437
 33
0.0
210
0.0
220
0.0
230
1.0
  0
SOLID
  5
4BD
  8
0
  6
CONTINUOUS
 10
14.28832645532861
 20
255.85047863088661
 30
0.0
 11
10.59280832528346
 21
255.85047863088661
 31
0.0
 12
11.02635382793294
 22
255.2016319332437
 32
0.0
 13
11.02635382793294
 23
255.2016319332437
 33
0.0
210
0.0
220
0.0
230
-1.0
  0
SOLID
  5
4BE
  8
0
  6
CONTINUOUS
 10
13.205934255036221
 20
254.7680864305942
 30
0.0
 11
11.67520052557586
 21
254.7680864305942
 31
0.0
 12
12.44056739030604
 22
254.61584549561681
 32
0.0
 13
12.44056739030604
 23
254.61584549561681
 33
0.0
210
0.0
220
0.0
230
-1.0
  0
SOLID
  5
4BF
  8
0
  6
CONTINUOUS
 10
-13.85478095267913
 20
255.2016319332437
 30
0.0
 11
-13.205934255036221
 21
254.7680864305942
 31
0.0
 12
-11.67520052557586
 22
254.7680864305942
 32
0.0
 13
-11.67520052557586
 23
254.7680864305942
 33
0.0
210
0.0
220
0.0
230
1.0
  0
SOLID
  5
4C0
  8
0
  6
CONTINUOUS
 10
13.85478095267913
 20
255.2016319332437
 30
0.0
 11
11.02635382793294
 21
255.2016319332437
 31
0.0
 12
11.67520052557586
 22
254.7680864305942
 32
0.0
 13
11.67520052557586
 23
254.7680864305942
 33
0.0
210
0.0
220
0.0
230
-1.0
  0
LINE
  5
4C1
  8
0
  6
CONTINUOUS
 10
-12.44056739030604
 20
258.61584549561678
 30
0.0
 11
-13.205934255036221
 21
258.46360456063928
 31
0.0
  0
LINE
  5
4C2
  8
0
  6
CONTINUOUS
 10
-11.67520052557586
 20
258.46360456063928
 30
0.0
 11
-12.44056739030604
 21
258.61584549561678
 31
0.0
  0
LINE
  5
4C3
  8
0
  6
CONTINUOUS
 10
-13.205934255036221
 20
258.46360456063928
 30
0.0
 11
-13.85478095267913
 21
258.03005905798989
 31
0.0
  0
LINE
  5
4C4
  8
0
  6
CONTINUOUS
 10
-11.67520052557586
 20
258.46360456063928
 30
0.0
 11
-11.026353827932949
 21
258.03005905798989
 31
0.0
  0
LINE
  5
4C5
  8
0
  6
CONTINUOUS
 10
-13.85478095267913
 20
258.03005905798989
 30
0.0
 11
-14.28832645532861
 21
257.38121236034698
 31
0.0
  0
LINE
  5
4C6
  8
0
  6
CONTINUOUS
 10
-11.026353827932949
 20
258.03005905798989
 30
0.0
 11
-10.59280832528346
 21
257.38121236034698
 31
0.0
  0
LINE
  5
4C7
  8
0
  6
CONTINUOUS
 10
-14.28832645532861
 20
257.38121236034698
 30
0.0
 11
-14.44056739030604
 21
256.61584549561678
 31
0.0
  0
LINE
  5
4C8
  8
0
  6
CONTINUOUS
 10
-10.59280832528346
 20
257.38121236034698
 30
0.0
 11
-10.44056739030604
 21
256.61584549561678
 31
0.0
  0
LINE
  5
4C9
  8
0
  6
CONTINUOUS
 10
-14.44056739030604
 20
256.61584549561678
 30
0.0
 11
-14.28832645532861
 21
255.85047863088661
 31
0.0
  0
LINE
  5
4CA
  8
0
  6
CONTINUOUS
 10
-10.44056739030604
 20
256.61584549561678
 30
0.0
 11
-10.59280832528346
 21
255.85047863088661
 31
0.0
  0
LINE
  5
4CB
  8
0
  6
CONTINUOUS
 10
-14.28832645532861
 20
255.85047863088661
 30
0.0
 11
-13.85478095267913
 21
255.2016319332437
 31
0.0
  0
LINE
  5
4CC
  8
0
  6
CONTINUOUS
 10
-10.59280832528346
 20
255.85047863088661
 30
0.0
 11
-11.02635382793294
 21
255.2016319332437
 31
0.0
  0
LINE
  5
4CD
  8
0
  6
CONTINUOUS
 10
-11.67520052557586
 20
254.7680864305942
 30
0.0
 11
-12.44056739030604
 21
254.61584549561681
 31
0.0
  0
LINE
  5
4CE
  8
0
  6
CONTINUOUS
 10
-12.44056739030604
 20
254.61584549561681
 30
0.0
 11
-13.205934255036221
 21
254.7680864305942
 31
0.0
  0
LINE
  5
4CF
  8
0
  6
CONTINUOUS
 10
-13.85478095267913
 20
255.2016319332437
 30
0.0
 11
-13.205934255036221
 21
254.7680864305942
 31
0.0
  0
LINE
  5
4D0
  8
0
  6
CONTINUOUS
 10
-11.02635382793294
 20
255.2016319332437
 30
0.0
 11
-11.67520052557586
 21
254.7680864305942
 31
0.0
  0
ENDBLK
  5
4D2
  8
0
  0
BLOCK
  8
0
  2
*U24
 70
     1
 10
0.0
 20
0.0
 30
0.0
  3
*U24
  1

  0
TEXT
  5
4D4
  8
0
  6
CONTINUOUS
 10
183.32549088165291
 20
252.07738395715529
 30
0.0
 40
9.8353293413173617
  1
Stucco/Siding
  7
ARIAL
  0
ENDBLK
  5
4D6
  8
0
  0
BLOCK
  8
0
  2
*U25
 70
     1
 10
0.0
 20
0.0
 30
0.0
  3
*U25
  1

  0
SOLID
  5
4D8
  8
0
  6
CONTINUOUS
 10
-4.7631840265110723
 20
31.29937405739604
 30
0.0
 11
-5.5285508912412524
 21
31.147133122418609
 31
0.0
 12
-3.9978171617808931
 22
31.147133122418609
 32
0.0
 13
-3.9978171617808931
 23
31.147133122418609
 33
0.0
210
0.0
220
0.0
230
1.0
  0
SOLID
  5
4D9
  8
0
  6
CONTINUOUS
 10
-5.5285508912412524
 20
31.147133122418609
 30
0.0
 11
-6.1773975888841672
 21
30.71358761976914
 31
0.0
 12
-3.3489704641379769
 22
30.71358761976914
 32
0.0
 13
-3.3489704641379769
 23
30.71358761976914
 33
0.0
210
0.0
220
0.0
230
1.0
  0
SOLID
  5
4DA
  8
0
  6
CONTINUOUS
 10
5.5285508912412524
 20
31.147133122418609
 30
0.0
 11
3.9978171617808931
 21
31.147133122418609
 31
0.0
 12
3.3489704641379769
 22
30.71358761976914
 32
0.0
 13
3.3489704641379769
 23
30.71358761976914
 33
0.0
210
0.0
220
0.0
230
-1.0
  0
SOLID
  5
4DB
  8
0
  6
CONTINUOUS
 10
-6.1773975888841672
 20
30.71358761976914
 30
0.0
 11
-6.6109430915336462
 21
30.064740922126219
 31
0.0
 12
-2.9154249614884979
 22
30.064740922126219
 32
0.0
 13
-2.9154249614884979
 23
30.064740922126219
 33
0.0
210
0.0
220
0.0
230
1.0
  0
SOLID
  5
4DC
  8
0
  6
CONTINUOUS
 10
6.1773975888841672
 20
30.71358761976914
 30
0.0
 11
3.3489704641379769
 21
30.71358761976914
 31
0.0
 12
2.9154249614884979
 22
30.064740922126219
 32
0.0
 13
2.9154249614884979
 23
30.064740922126219
 33
0.0
210
0.0
220
0.0
230
-1.0
  0
SOLID
  5
4DD
  8
0
  6
CONTINUOUS
 10
-6.6109430915336462
 20
30.064740922126219
 30
0.0
 11
-6.7631840265110723
 21
29.29937405739604
 31
0.0
 12
-2.7631840265110719
 22
29.29937405739604
 32
0.0
 13
-2.7631840265110719
 23
29.29937405739604
 33
0.0
210
0.0
220
0.0
230
1.0
  0
SOLID
  5
4DE
  8
0
  6
CONTINUOUS
 10
6.6109430915336462
 20
30.064740922126219
 30
0.0
 11
2.9154249614884979
 21
30.064740922126219
 31
0.0
 12
2.7631840265110719
 22
29.29937405739604
 32
0.0
 13
2.7631840265110719
 23
29.29937405739604
 33
0.0
210
0.0
220
0.0
230
-1.0
  0
SOLID
  5
4DF
  8
0
  6
CONTINUOUS
 10
-6.7631840265110723
 20
29.29937405739604
 30
0.0
 11
-6.6109430915336453
 21
28.534007192665861
 31
0.0
 12
-2.9154249614884979
 22
28.534007192665861
 32
0.0
 13
-2.9154249614884979
 23
28.534007192665861
 33
0.0
210
0.0
220
0.0
230
1.0
  0
SOLID
  5
4E0
  8
0
  6
CONTINUOUS
 10
6.7631840265110723
 20
29.29937405739604
 30
0.0
 11
2.7631840265110719
 21
29.29937405739604
 31
0.0
 12
2.9154249614884979
 22
28.534007192665861
 32
0.0
 13
2.9154249614884979
 23
28.534007192665861
 33
0.0
210
0.0
220
0.0
230
-1.0
  0
SOLID
  5
4E1
  8
0
  6
CONTINUOUS
 10
-6.6109430915336453
 20
28.534007192665861
 30
0.0
 11
-6.1773975888841672
 21
27.885160495022951
 31
0.0
 12
-3.3489704641379761
 22
27.885160495022951
 32
0.0
 13
-3.3489704641379761
 23
27.885160495022951
 33
0.0
210
0.0
220
0.0
230
1.0
  0
SOLID
  5
4E2
  8
0
  6
CONTINUOUS
 10
6.6109430915336453
 20
28.534007192665861
 30
0.0
 11
2.9154249614884979
 21
28.534007192665861
 31
0.0
 12
3.3489704641379761
 22
27.885160495022951
 32
0.0
 13
3.3489704641379761
 23
27.885160495022951
 33
0.0
210
0.0
220
0.0
230
-1.0
  0
SOLID
  5
4E3
  8
0
  6
CONTINUOUS
 10
5.5285508912412507
 20
27.451614992373472
 30
0.0
 11
3.9978171617808922
 21
27.451614992373472
 31
0.0
 12
4.7631840265110714
 22
27.29937405739604
 32
0.0
 13
4.7631840265110714
 23
27.29937405739604
 33
0.0
210
0.0
220
0.0
230
-1.0
  0
SOLID
  5
4E4
  8
0
  6
CONTINUOUS
 10
-6.1773975888841672
 20
27.885160495022951
 30
0.0
 11
-5.5285508912412507
 21
27.451614992373472
 31
0.0
 12
-3.9978171617808922
 22
27.451614992373472
 32
0.0
 13
-3.9978171617808922
 23
27.451614992373472
 33
0.0
210
0.0
220
0.0
230
1.0
  0
SOLID
  5
4E5
  8
0
  6
CONTINUOUS
 10
6.1773975888841672
 20
27.885160495022951
 30
0.0
 11
3.3489704641379761
 21
27.885160495022951
 31
0.0
 12
3.9978171617808922
 22
27.451614992373472
 32
0.0
 13
3.9978171617808922
 23
27.451614992373472
 33
0.0
210
0.0
220
0.0
230
-1.0
  0
LINE
  5
4E6
  8
0
  6
CONTINUOUS
 10
-4.7631840265110723
 20
31.29937405739604
 30
0.0
 11
-5.5285508912412524
 21
31.147133122418609
 31
0.0
  0
LINE
  5
4E7
  8
0
  6
CONTINUOUS
 10
-3.9978171617808931
 20
31.147133122418609
 30
0.0
 11
-4.7631840265110723
 21
31.29937405739604
 31
0.0
  0
LINE
  5
4E8
  8
0
  6
CONTINUOUS
 10
-5.5285508912412524
 20
31.147133122418609
 30
0.0
 11
-6.1773975888841672
 21
30.71358761976914
 31
0.0
  0
LINE
  5
4E9
  8
0
  6
CONTINUOUS
 10
-3.9978171617808931
 20
31.147133122418609
 30
0.0
 11
-3.3489704641379769
 21
30.71358761976914
 31
0.0
  0
LINE
  5
4EA
  8
0
  6
CONTINUOUS
 10
-6.1773975888841672
 20
30.71358761976914
 30
0.0
 11
-6.6109430915336462
 21
30.064740922126219
 31
0.0
  0
LINE
  5
4EB
  8
0
  6
CONTINUOUS
 10
-3.3489704641379769
 20
30.71358761976914
 30
0.0
 11
-2.9154249614884979
 21
30.064740922126219
 31
0.0
  0
LINE
  5
4EC
  8
0
  6
CONTINUOUS
 10
-6.6109430915336462
 20
30.064740922126219
 30
0.0
 11
-6.7631840265110723
 21
29.29937405739604
 31
0.0
  0
LINE
  5
4ED
  8
0
  6
CONTINUOUS
 10
-2.9154249614884979
 20
30.064740922126219
 30
0.0
 11
-2.7631840265110719
 21
29.29937405739604
 31
0.0
  0
LINE
  5
4EE
  8
0
  6
CONTINUOUS
 10
-6.7631840265110723
 20
29.29937405739604
 30
0.0
 11
-6.6109430915336453
 21
28.534007192665861
 31
0.0
  0
LINE
  5
4EF
  8
0
  6
CONTINUOUS
 10
-2.7631840265110719
 20
29.29937405739604
 30
0.0
 11
-2.9154249614884979
 21
28.534007192665861
 31
0.0
  0
LINE
  5
4F0
  8
0
  6
CONTINUOUS
 10
-6.6109430915336453
 20
28.534007192665861
 30
0.0
 11
-6.1773975888841672
 21
27.885160495022951
 31
0.0
  0
LINE
  5
4F1
  8
0
  6
CONTINUOUS
 10
-2.9154249614884979
 20
28.534007192665861
 30
0.0
 11
-3.3489704641379761
 21
27.885160495022951
 31
0.0
  0
LINE
  5
4F2
  8
0
  6
CONTINUOUS
 10
-3.9978171617808922
 20
27.451614992373472
 30
0.0
 11
-4.7631840265110714
 21
27.29937405739604
 31
0.0
  0
LINE
  5
4F3
  8
0
  6
CONTINUOUS
 10
-4.7631840265110714
 20
27.29937405739604
 30
0.0
 11
-5.5285508912412507
 21
27.451614992373472
 31
0.0
  0
LINE
  5
4F4
  8
0
  6
CONTINUOUS
 10
-6.1773975888841672
 20
27.885160495022951
 30
0.0
 11
-5.5285508912412507
 21
27.451614992373472
 31
0.0
  0
LINE
  5
4F5
  8
0
  6
CONTINUOUS
 10
-3.3489704641379761
 20
27.885160495022951
 30
0.0
 11
-3.9978171617808922
 21
27.451614992373472
 31
0.0
  0
ENDBLK
  5
4F7
  8
0
  0
BLOCK
  8
0
  2
*U26
 70
     1
 10
0.0
 20
0.0
 30
0.0
  3
*U26
  1

  0
TEXT
  5
4F9
  8
0
  6
CONTINUOUS
 10
182.86257292493329
 20
-35.206888337328898
 30
0.0
 40
9.8353293413173617
  1
Underlay
  7
ARIAL
  0
ENDBLK
  5
4FB
  8
0
  0
BLOCK
  8
0
  2
*U27
 70
     1
 10
0.0
 20
0.0
 30
0.0
  3
*U27
  1

  0
SOLID
  5
4FD
  8
0
  6
CONTINUOUS
 10
-27.753346810145459
 20
56.046392683306813
 30
0.0
 11
-28.518713674875642
 21
55.894151748329392
 31
0.0
 12
-26.98797994541529
 22
55.894151748329392
 32
0.0
 13
-26.98797994541529
 23
55.894151748329392
 33
0.0
210
0.0
220
0.0
230
1.0
  0
SOLID
  5
4FE
  8
0
  6
CONTINUOUS
 10
-28.518713674875642
 20
55.894151748329392
 30
0.0
 11
-29.167560372518562
 21
55.460606245679898
 31
0.0
 12
-26.33913324777237
 22
55.460606245679898
 32
0.0
 13
-26.33913324777237
 23
55.460606245679898
 33
0.0
210
0.0
220
0.0
230
1.0
  0
SOLID
  5
4FF
  8
0
  6
CONTINUOUS
 10
28.518713674875642
 20
55.894151748329392
 30
0.0
 11
26.98797994541529
 21
55.894151748329392
 31
0.0
 12
26.33913324777237
 22
55.460606245679898
 32
0.0
 13
26.33913324777237
 23
55.460606245679898
 33
0.0
210
0.0
220
0.0
230
-1.0
  0
SOLID
  5
500
  8
0
  6
CONTINUOUS
 10
-29.167560372518562
 20
55.460606245679898
 30
0.0
 11
-29.601105875168031
 21
54.811759548036989
 31
0.0
 12
-25.90558774512289
 22
54.811759548036989
 32
0.0
 13
-25.90558774512289
 23
54.811759548036989
 33
0.0
210
0.0
220
0.0
230
1.0
  0
SOLID
  5
501
  8
0
  6
CONTINUOUS
 10
29.167560372518562
 20
55.460606245679898
 30
0.0
 11
26.33913324777237
 21
55.460606245679898
 31
0.0
 12
25.90558774512289
 22
54.811759548036989
 32
0.0
 13
25.90558774512289
 23
54.811759548036989
 33
0.0
210
0.0
220
0.0
230
-1.0
  0
SOLID
  5
502
  8
0
  6
CONTINUOUS
 10
-29.601105875168031
 20
54.811759548036989
 30
0.0
 11
-29.753346810145459
 21
54.046392683306813
 31
0.0
 12
-25.753346810145459
 22
54.046392683306813
 32
0.0
 13
-25.753346810145459
 23
54.046392683306813
 33
0.0
210
0.0
220
0.0
230
1.0
  0
SOLID
  5
503
  8
0
  6
CONTINUOUS
 10
29.601105875168031
 20
54.811759548036989
 30
0.0
 11
25.90558774512289
 21
54.811759548036989
 31
0.0
 12
25.753346810145459
 22
54.046392683306813
 32
0.0
 13
25.753346810145459
 23
54.046392683306813
 33
0.0
210
0.0
220
0.0
230
-1.0
  0
SOLID
  5
504
  8
0
  6
CONTINUOUS
 10
-29.753346810145459
 20
54.046392683306813
 30
0.0
 11
-29.601105875168031
 21
53.28102581857663
 31
0.0
 12
-25.90558774512289
 22
53.28102581857663
 32
0.0
 13
-25.90558774512289
 23
53.28102581857663
 33
0.0
  0
SOLID
  5
505
  8
0
  6
CONTINUOUS
 10
29.753346810145459
 20
54.046392683306813
 30
0.0
 11
25.753346810145459
 21
54.046392683306813
 31
0.0
 12
25.90558774512289
 22
53.28102581857663
 32
0.0
 13
25.90558774512289
 23
53.28102581857663
 33
0.0
210
0.0
220
0.0
230
-1.0
  0
SOLID
  5
506
  8
0
  6
CONTINUOUS
 10
-29.601105875168031
 20
53.28102581857663
 30
0.0
 11
-29.167560372518562
 21
52.632179120933721
 31
0.0
 12
-26.33913324777237
 22
52.632179120933721
 32
0.0
 13
-26.33913324777237
 23
52.632179120933721
 33
0.0
210
0.0
220
0.0
230
1.0
  0
SOLID
  5
507
  8
0
  6
CONTINUOUS
 10
29.601105875168031
 20
53.28102581857663
 30
0.0
 11
25.90558774512289
 21
53.28102581857663
 31
0.0
 12
26.33913324777237
 22
52.632179120933721
 32
0.0
 13
26.33913324777237
 23
52.632179120933721
 33
0.0
210
0.0
220
0.0
230
-1.0
  0
SOLID
  5
508
  8
0
  6
CONTINUOUS
 10
28.518713674875642
 20
52.198633618284241
 30
0.0
 11
26.98797994541529
 21
52.198633618284241
 31
0.0
 12
27.753346810145459
 22
52.046392683306813
 32
0.0
 13
27.753346810145459
 23
52.046392683306813
 33
0.0
210
0.0
220
0.0
230
-1.0
  0
SOLID
  5
509
  8
0
  6
CONTINUOUS
 10
-29.167560372518562
 20
52.632179120933721
 30
0.0
 11
-28.518713674875642
 21
52.198633618284241
 31
0.0
 12
-26.98797994541529
 22
52.198633618284241
 32
0.0
 13
-26.98797994541529
 23
52.198633618284241
 33
0.0
210
0.0
220
0.0
230
1.0
  0
SOLID
  5
50A
  8
0
  6
CONTINUOUS
 10
29.167560372518562
 20
52.632179120933721
 30
0.0
 11
26.33913324777237
 21
52.632179120933721
 31
0.0
 12
26.98797994541529
 22
52.198633618284241
 32
0.0
 13
26.98797994541529
 23
52.198633618284241
 33
0.0
210
0.0
220
0.0
230
-1.0
  0
LINE
  5
50B
  8
0
  6
CONTINUOUS
 10
-27.753346810145459
 20
56.046392683306813
 30
0.0
 11
-28.518713674875642
 21
55.894151748329392
 31
0.0
  0
LINE
  5
50C
  8
0
  6
CONTINUOUS
 10
-26.98797994541529
 20
55.894151748329392
 30
0.0
 11
-27.753346810145459
 21
56.046392683306813
 31
0.0
  0
LINE
  5
50D
  8
0
  6
CONTINUOUS
 10
-28.518713674875642
 20
55.894151748329392
 30
0.0
 11
-29.167560372518562
 21
55.460606245679898
 31
0.0
  0
LINE
  5
50E
  8
0
  6
CONTINUOUS
 10
-26.98797994541529
 20
55.894151748329392
 30
0.0
 11
-26.33913324777237
 21
55.460606245679898
 31
0.0
  0
LINE
  5
50F
  8
0
  6
CONTINUOUS
 10
-29.167560372518562
 20
55.460606245679898
 30
0.0
 11
-29.601105875168031
 21
54.811759548036989
 31
0.0
  0
LINE
  5
510
  8
0
  6
CONTINUOUS
 10
-26.33913324777237
 20
55.460606245679898
 30
0.0
 11
-25.90558774512289
 21
54.811759548036989
 31
0.0
  0
LINE
  5
511
  8
0
  6
CONTINUOUS
 10
-29.601105875168031
 20
54.811759548036989
 30
0.0
 11
-29.753346810145459
 21
54.046392683306813
 31
0.0
  0
LINE
  5
512
  8
0
  6
CONTINUOUS
 10
-25.90558774512289
 20
54.811759548036989
 30
0.0
 11
-25.753346810145459
 21
54.046392683306813
 31
0.0
  0
LINE
  5
513
  8
0
  6
CONTINUOUS
 10
-29.753346810145459
 20
54.046392683306813
 30
0.0
 11
-29.601105875168031
 21
53.28102581857663
 31
0.0
  0
LINE
  5
514
  8
0
  6
CONTINUOUS
 10
-25.753346810145459
 20
54.046392683306813
 30
0.0
 11
-25.90558774512289
 21
53.28102581857663
 31
0.0
  0
LINE
  5
515
  8
0
  6
CONTINUOUS
 10
-29.601105875168031
 20
53.28102581857663
 30
0.0
 11
-29.167560372518562
 21
52.632179120933721
 31
0.0
  0
LINE
  5
516
  8
0
  6
CONTINUOUS
 10
-25.90558774512289
 20
53.28102581857663
 30
0.0
 11
-26.33913324777237
 21
52.632179120933721
 31
0.0
  0
LINE
  5
517
  8
0
  6
CONTINUOUS
 10
-26.98797994541529
 20
52.198633618284241
 30
0.0
 11
-27.753346810145459
 21
52.046392683306813
 31
0.0
  0
LINE
  5
518
  8
0
  6
CONTINUOUS
 10
-27.753346810145459
 20
52.046392683306813
 30
0.0
 11
-28.518713674875642
 21
52.198633618284241
 31
0.0
  0
LINE
  5
519
  8
0
  6
CONTINUOUS
 10
-29.167560372518562
 20
52.632179120933721
 30
0.0
 11
-28.518713674875642
 21
52.198633618284241
 31
0.0
  0
LINE
  5
51A
  8
0
  6
CONTINUOUS
 10
-26.33913324777237
 20
52.632179120933721
 30
0.0
 11
-26.98797994541529
 21
52.198633618284241
 31
0.0
  0
ENDBLK
  5
51C
  8
0
  0
BLOCK
  8
0
  2
*U28
 70
     1
 10
0.0
 20
0.0
 30
0.0
  3
*U28
  1

  0
TEXT
  5
51E
  8
0
  6
CONTINUOUS
 10
183.2919461021805
 20
22.721925472069699
 30
0.0
 40
9.8353293413173617
  1
715 US Side Flashing
  7
ARIAL
  0
ENDBLK
  5
520
  8
0
  0
BLOCK
  8
0
  2
*U29
 70
     1
 10
0.0
 20
0.0
 30
0.0
  3
*U29
  1

  0
SOLID
  5
522
  8
0
  6
CONTINUOUS
 10
45.87844951896728
 20
98.605583799739733
 30
0.0
 11
45.113082654237097
 21
98.453342864762305
 31
0.0
 12
46.643816383697462
 22
98.453342864762305
 32
0.0
 13
46.643816383697462
 23
98.453342864762305
 33
0.0
210
0.0
220
0.0
230
1.0
  0
SOLID
  5
523
  8
0
  6
CONTINUOUS
 10
45.113082654237097
 20
98.453342864762305
 30
0.0
 11
44.46423595659418
 21
98.019797362112811
 31
0.0
 12
47.292663081340372
 22
98.019797362112811
 32
0.0
 13
47.292663081340372
 23
98.019797362112811
 33
0.0
210
0.0
220
0.0
230
1.0
  0
SOLID
  5
524
  8
0
  6
CONTINUOUS
 10
-45.113082654237097
 20
98.453342864762305
 30
0.0
 11
-46.643816383697462
 21
98.453342864762305
 31
0.0
 12
-47.292663081340372
 22
98.019797362112811
 32
0.0
 13
-47.292663081340372
 23
98.019797362112811
 33
0.0
210
0.0
220
0.0
230
-1.0
  0
SOLID
  5
525
  8
0
  6
CONTINUOUS
 10
44.46423595659418
 20
98.019797362112811
 30
0.0
 11
44.0306904539447
 21
97.370950664469902
 31
0.0
 12
47.726208583989852
 22
97.370950664469902
 32
0.0
 13
47.726208583989852
 23
97.370950664469902
 33
0.0
210
0.0
220
0.0
230
1.0
  0
SOLID
  5
526
  8
0
  6
CONTINUOUS
 10
-44.46423595659418
 20
98.019797362112811
 30
0.0
 11
-47.292663081340372
 21
98.019797362112811
 31
0.0
 12
-47.726208583989852
 22
97.370950664469902
 32
0.0
 13
-47.726208583989852
 23
97.370950664469902
 33
0.0
210
0.0
220
0.0
230
-1.0
  0
SOLID
  5
527
  8
0
  6
CONTINUOUS
 10
44.0306904539447
 20
97.370950664469902
 30
0.0
 11
43.878449518967273
 21
96.605583799739719
 31
0.0
 12
47.87844951896728
 22
96.605583799739719
 32
0.0
 13
47.87844951896728
 23
96.605583799739719
 33
0.0
210
0.0
220
0.0
230
1.0
  0
SOLID
  5
528
  8
0
  6
CONTINUOUS
 10
-44.0306904539447
 20
97.370950664469902
 30
0.0
 11
-47.726208583989852
 21
97.370950664469902
 31
0.0
 12
-47.87844951896728
 22
96.605583799739719
 32
0.0
 13
-47.87844951896728
 23
96.605583799739719
 33
0.0
210
0.0
220
0.0
230
-1.0
  0
SOLID
  5
529
  8
0
  6
CONTINUOUS
 10
43.878449518967273
 20
96.605583799739719
 30
0.0
 11
44.0306904539447
 21
95.840216935009536
 31
0.0
 12
47.726208583989852
 22
95.840216935009536
 32
0.0
 13
47.726208583989852
 23
95.840216935009536
 33
0.0
  0
SOLID
  5
52A
  8
0
  6
CONTINUOUS
 10
-43.878449518967273
 20
96.605583799739719
 30
0.0
 11
-47.87844951896728
 21
96.605583799739719
 31
0.0
 12
-47.726208583989852
 22
95.840216935009536
 32
0.0
 13
-47.726208583989852
 23
95.840216935009536
 33
0.0
210
0.0
220
0.0
230
-1.0
  0
SOLID
  5
52B
  8
0
  6
CONTINUOUS
 10
44.0306904539447
 20
95.840216935009536
 30
0.0
 11
44.46423595659418
 21
95.191370237366627
 31
0.0
 12
47.292663081340372
 22
95.191370237366627
 32
0.0
 13
47.292663081340372
 23
95.191370237366627
 33
0.0
210
0.0
220
0.0
230
1.0
  0
SOLID
  5
52C
  8
0
  6
CONTINUOUS
 10
-44.0306904539447
 20
95.840216935009536
 30
0.0
 11
-47.726208583989852
 21
95.840216935009536
 31
0.0
 12
-47.292663081340372
 22
95.191370237366627
 32
0.0
 13
-47.292663081340372
 23
95.191370237366627
 33
0.0
210
0.0
220
0.0
230
-1.0
  0
SOLID
  5
52D
  8
0
  6
CONTINUOUS
 10
-45.113082654237097
 20
94.757824734717147
 30
0.0
 11
-46.643816383697462
 21
94.757824734717147
 31
0.0
 12
-45.87844951896728
 22
94.605583799739719
 32
0.0
 13
-45.87844951896728
 23
94.605583799739719
 33
0.0
210
0.0
220
0.0
230
-1.0
  0
SOLID
  5
52E
  8
0
  6
CONTINUOUS
 10
44.46423595659418
 20
95.191370237366627
 30
0.0
 11
45.113082654237097
 21
94.757824734717147
 31
0.0
 12
46.643816383697462
 22
94.757824734717147
 32
0.0
 13
46.643816383697462
 23
94.757824734717147
 33
0.0
210
0.0
220
0.0
230
1.0
  0
SOLID
  5
52F
  8
0
  6
CONTINUOUS
 10
-44.46423595659418
 20
95.191370237366627
 30
0.0
 11
-47.292663081340372
 21
95.191370237366627
 31
0.0
 12
-46.643816383697462
 22
94.757824734717147
 32
0.0
 13
-46.643816383697462
 23
94.757824734717147
 33
0.0
210
0.0
220
0.0
230
-1.0
  0
LINE
  5
530
  8
0
  6
CONTINUOUS
 10
45.87844951896728
 20
98.605583799739733
 30
0.0
 11
45.113082654237097
 21
98.453342864762305
 31
0.0
  0
LINE
  5
531
  8
0
  6
CONTINUOUS
 10
46.643816383697462
 20
98.453342864762305
 30
0.0
 11
45.87844951896728
 21
98.605583799739733
 31
0.0
  0
LINE
  5
532
  8
0
  6
CONTINUOUS
 10
45.113082654237097
 20
98.453342864762305
 30
0.0
 11
44.46423595659418
 21
98.019797362112811
 31
0.0
  0
LINE
  5
533
  8
0
  6
CONTINUOUS
 10
46.643816383697462
 20
98.453342864762305
 30
0.0
 11
47.292663081340372
 21
98.019797362112811
 31
0.0
  0
LINE
  5
534
  8
0
  6
CONTINUOUS
 10
44.46423595659418
 20
98.019797362112811
 30
0.0
 11
44.0306904539447
 21
97.370950664469902
 31
0.0
  0
LINE
  5
535
  8
0
  6
CONTINUOUS
 10
47.292663081340372
 20
98.019797362112811
 30
0.0
 11
47.726208583989852
 21
97.370950664469902
 31
0.0
  0
LINE
  5
536
  8
0
  6
CONTINUOUS
 10
44.0306904539447
 20
97.370950664469902
 30
0.0
 11
43.878449518967273
 21
96.605583799739719
 31
0.0
  0
LINE
  5
537
  8
0
  6
CONTINUOUS
 10
47.726208583989852
 20
97.370950664469902
 30
0.0
 11
47.87844951896728
 21
96.605583799739719
 31
0.0
  0
LINE
  5
538
  8
0
  6
CONTINUOUS
 10
43.878449518967273
 20
96.605583799739719
 30
0.0
 11
44.0306904539447
 21
95.840216935009536
 31
0.0
  0
LINE
  5
539
  8
0
  6
CONTINUOUS
 10
47.87844951896728
 20
96.605583799739719
 30
0.0
 11
47.726208583989852
 21
95.840216935009536
 31
0.0
  0
LINE
  5
53A
  8
0
  6
CONTINUOUS
 10
44.0306904539447
 20
95.840216935009536
 30
0.0
 11
44.46423595659418
 21
95.191370237366627
 31
0.0
  0
LINE
  5
53B
  8
0
  6
CONTINUOUS
 10
47.726208583989852
 20
95.840216935009536
 30
0.0
 11
47.292663081340372
 21
95.191370237366627
 31
0.0
  0
LINE
  5
53C
  8
0
  6
CONTINUOUS
 10
46.643816383697462
 20
94.757824734717147
 30
0.0
 11
45.87844951896728
 21
94.605583799739719
 31
0.0
  0
LINE
  5
53D
  8
0
  6
CONTINUOUS
 10
45.87844951896728
 20
94.605583799739719
 30
0.0
 11
45.113082654237097
 21
94.757824734717147
 31
0.0
  0
LINE
  5
53E
  8
0
  6
CONTINUOUS
 10
44.46423595659418
 20
95.191370237366627
 30
0.0
 11
45.113082654237097
 21
94.757824734717147
 31
0.0
  0
LINE
  5
53F
  8
0
  6
CONTINUOUS
 10
47.292663081340372
 20
95.191370237366627
 30
0.0
 11
46.643816383697462
 21
94.757824734717147
 31
0.0
  0
ENDBLK
  5
541
  8
0
  0
BLOCK
  8
0
  2
*U30
 70
     1
 10
0.0
 20
0.0
 30
0.0
  3
*U30
  1

  0
TEXT
  5
543
  8
0
  6
CONTINUOUS
 10
183.32549088165291
 20
92.067122261278186
 30
0.0
 40
9.8353293413173617
  1
Support nog
  7
ARIAL
  0
ENDBLK
  5
545
  8
0
  0
BLOCK
  8
0
  2
*U31
 70
     1
 10
0.0
 20
0.0
 30
0.0
  3
*U31
  1

  0
SOLID
  5
547
  8
0
  6
CONTINUOUS
 10
-365.18911232016762
 20
-118.71750920099331
 30
0.0
 11
-365.95447918489782
 21
-118.8697501359707
 31
0.0
 12
-364.42374545543748
 22
-118.8697501359707
 32
0.0
 13
-364.42374545543748
 23
-118.8697501359707
 33
0.0
210
0.0
220
0.0
230
1.0
  0
SOLID
  5
548
  8
0
  6
CONTINUOUS
 10
-365.95447918489782
 20
-118.8697501359707
 30
0.0
 11
-366.60332588254067
 21
-119.3032956386202
 31
0.0
 12
-363.77489875779457
 22
-119.3032956386202
 32
0.0
 13
-363.77489875779457
 23
-119.3032956386202
 33
0.0
210
0.0
220
0.0
230
1.0
  0
SOLID
  5
549
  8
0
  6
CONTINUOUS
 10
365.95447918489782
 20
-118.8697501359707
 30
0.0
 11
364.42374545543748
 21
-118.8697501359707
 31
0.0
 12
363.77489875779457
 22
-119.3032956386202
 32
0.0
 13
363.77489875779457
 23
-119.3032956386202
 33
0.0
210
0.0
220
0.0
230
-1.0
  0
SOLID
  5
54A
  8
0
  6
CONTINUOUS
 10
-366.60332588254067
 20
-119.3032956386202
 30
0.0
 11
-367.03687138519012
 21
-119.95214233626309
 31
0.0
 12
-363.34135325514512
 22
-119.95214233626309
 32
0.0
 13
-363.34135325514512
 23
-119.95214233626309
 33
0.0
210
0.0
220
0.0
230
1.0
  0
SOLID
  5
54B
  8
0
  6
CONTINUOUS
 10
366.60332588254067
 20
-119.3032956386202
 30
0.0
 11
363.77489875779457
 21
-119.3032956386202
 31
0.0
 12
363.34135325514512
 22
-119.95214233626309
 32
0.0
 13
363.34135325514512
 23
-119.95214233626309
 33
0.0
210
0.0
220
0.0
230
-1.0
  0
SOLID
  5
54C
  8
0
  6
CONTINUOUS
 10
-367.03687138519012
 20
-119.95214233626309
 30
0.0
 11
-367.18911232016751
 21
-120.71750920099331
 31
0.0
 12
-363.18911232016768
 22
-120.71750920099331
 32
0.0
 13
-363.18911232016768
 23
-120.71750920099331
 33
0.0
210
0.0
220
0.0
230
1.0
  0
SOLID
  5
54D
  8
0
  6
CONTINUOUS
 10
367.03687138519012
 20
-119.95214233626309
 30
0.0
 11
363.34135325514512
 21
-119.95214233626309
 31
0.0
 12
363.18911232016768
 22
-120.71750920099331
 32
0.0
 13
363.18911232016768
 23
-120.71750920099331
 33
0.0
210
0.0
220
0.0
230
-1.0
  0
SOLID
  5
54E
  8
0
  6
CONTINUOUS
 10
-367.18911232016751
 20
-120.71750920099331
 30
0.0
 11
-367.03687138519012
 21
-121.4828760657234
 31
0.0
 12
-363.34135325514512
 22
-121.4828760657234
 32
0.0
 13
-363.34135325514512
 23
-121.4828760657234
 33
0.0
210
0.0
220
0.0
230
1.0
  0
SOLID
  5
54F
  8
0
  6
CONTINUOUS
 10
367.18911232016751
 20
-120.71750920099331
 30
0.0
 11
363.18911232016768
 21
-120.71750920099331
 31
0.0
 12
363.34135325514512
 22
-121.4828760657234
 32
0.0
 13
363.34135325514512
 23
-121.4828760657234
 33
0.0
210
0.0
220
0.0
230
-1.0
  0
SOLID
  5
550
  8
0
  6
CONTINUOUS
 10
-367.03687138519012
 20
-121.4828760657234
 30
0.0
 11
-366.60332588254067
 21
-122.1317227633663
 31
0.0
 12
-363.77489875779457
 22
-122.1317227633663
 32
0.0
 13
-363.77489875779457
 23
-122.1317227633663
 33
0.0
210
0.0
220
0.0
230
1.0
  0
SOLID
  5
551
  8
0
  6
CONTINUOUS
 10
367.03687138519012
 20
-121.4828760657234
 30
0.0
 11
363.34135325514512
 21
-121.4828760657234
 31
0.0
 12
363.77489875779457
 22
-122.1317227633663
 32
0.0
 13
363.77489875779457
 23
-122.1317227633663
 33
0.0
210
0.0
220
0.0
230
-1.0
  0
SOLID
  5
552
  8
0
  6
CONTINUOUS
 10
365.95447918489782
 20
-122.56526826601581
 30
0.0
 11
364.42374545543748
 21
-122.56526826601581
 31
0.0
 12
365.18911232016762
 22
-122.71750920099321
 32
0.0
 13
365.18911232016762
 23
-122.71750920099321
 33
0.0
210
0.0
220
0.0
230
-1.0
  0
SOLID
  5
553
  8
0
  6
CONTINUOUS
 10
-366.60332588254067
 20
-122.1317227633663
 30
0.0
 11
-365.95447918489782
 21
-122.56526826601581
 31
0.0
 12
-364.42374545543748
 22
-122.56526826601581
 32
0.0
 13
-364.42374545543748
 23
-122.56526826601581
 33
0.0
210
0.0
220
0.0
230
1.0
  0
SOLID
  5
554
  8
0
  6
CONTINUOUS
 10
366.60332588254067
 20
-122.1317227633663
 30
0.0
 11
363.77489875779457
 21
-122.1317227633663
 31
0.0
 12
364.42374545543748
 22
-122.56526826601581
 32
0.0
 13
364.42374545543748
 23
-122.56526826601581
 33
0.0
210
0.0
220
0.0
230
-1.0
  0
LINE
  5
555
  8
0
  6
CONTINUOUS
 10
-365.18911232016762
 20
-118.71750920099331
 30
0.0
 11
-365.95447918489782
 21
-118.8697501359707
 31
0.0
  0
LINE
  5
556
  8
0
  6
CONTINUOUS
 10
-364.42374545543748
 20
-118.8697501359707
 30
0.0
 11
-365.18911232016762
 21
-118.71750920099331
 31
0.0
  0
LINE
  5
557
  8
0
  6
CONTINUOUS
 10
-365.95447918489782
 20
-118.8697501359707
 30
0.0
 11
-366.60332588254067
 21
-119.3032956386202
 31
0.0
  0
LINE
  5
558
  8
0
  6
CONTINUOUS
 10
-364.42374545543748
 20
-118.8697501359707
 30
0.0
 11
-363.77489875779457
 21
-119.3032956386202
 31
0.0
  0
LINE
  5
559
  8
0
  6
CONTINUOUS
 10
-366.60332588254067
 20
-119.3032956386202
 30
0.0
 11
-367.03687138519012
 21
-119.95214233626309
 31
0.0
  0
LINE
  5
55A
  8
0
  6
CONTINUOUS
 10
-363.77489875779457
 20
-119.3032956386202
 30
0.0
 11
-363.34135325514512
 21
-119.95214233626309
 31
0.0
  0
LINE
  5
55B
  8
0
  6
CONTINUOUS
 10
-367.03687138519012
 20
-119.95214233626309
 30
0.0
 11
-367.18911232016751
 21
-120.71750920099331
 31
0.0
  0
LINE
  5
55C
  8
0
  6
CONTINUOUS
 10
-363.34135325514512
 20
-119.95214233626309
 30
0.0
 11
-363.18911232016768
 21
-120.71750920099331
 31
0.0
  0
LINE
  5
55D
  8
0
  6
CONTINUOUS
 10
-367.18911232016751
 20
-120.71750920099331
 30
0.0
 11
-367.03687138519012
 21
-121.4828760657234
 31
0.0
  0
LINE
  5
55E
  8
0
  6
CONTINUOUS
 10
-363.18911232016768
 20
-120.71750920099331
 30
0.0
 11
-363.34135325514512
 21
-121.4828760657234
 31
0.0
  0
LINE
  5
55F
  8
0
  6
CONTINUOUS
 10
-367.03687138519012
 20
-121.4828760657234
 30
0.0
 11
-366.60332588254067
 21
-122.1317227633663
 31
0.0
  0
LINE
  5
560
  8
0
  6
CONTINUOUS
 10
-363.34135325514512
 20
-121.4828760657234
 30
0.0
 11
-363.77489875779457
 21
-122.1317227633663
 31
0.0
  0
LINE
  5
561
  8
0
  6
CONTINUOUS
 10
-364.42374545543748
 20
-122.56526826601581
 30
0.0
 11
-365.18911232016762
 21
-122.71750920099321
 31
0.0
  0
LINE
  5
562
  8
0
  6
CONTINUOUS
 10
-365.18911232016762
 20
-122.71750920099321
 30
0.0
 11
-365.95447918489782
 21
-122.56526826601581
 31
0.0
  0
LINE
  5
563
  8
0
  6
CONTINUOUS
 10
-366.60332588254067
 20
-122.1317227633663
 30
0.0
 11
-365.95447918489782
 21
-122.56526826601581
 31
0.0
  0
LINE
  5
564
  8
0
  6
CONTINUOUS
 10
-363.77489875779457
 20
-122.1317227633663
 30
0.0
 11
-364.42374545543748
 21
-122.56526826601581
 31
0.0
  0
ENDBLK
  5
566
  8
0
  0
BLOCK
  8
0
  2
*U32
 70
     1
 10
0.0
 20
0.0
 30
0.0
  3
*U32
  1

  0
TEXT
  5
568
  8
0
  6
CONTINUOUS
 10
-680.70277842288874
 20
-44.383478454660128
 30
0.0
 40
9.8353293413173617
  1
Substrate
  7
ARIAL
  0
ENDBLK
  5
56A
  8
0
  0
BLOCK
  8
0
  2
*U33
 70
     1
 10
0.0
 20
0.0
 30
0.0
  3
*U33
  1

  0
SOLID
  5
56C
  8
0
  6
CONTINUOUS
 10
-334.32894492795327
 20
-95.242684022718564
 30
0.0
 11
-335.09431179268341
 21
-95.394924957695977
 31
0.0
 12
-333.56357806322308
 22
-95.394924957695977
 32
0.0
 13
-333.56357806322308
 23
-95.394924957695977
 33
0.0
210
0.0
220
0.0
230
1.0
  0
SOLID
  5
56D
  8
0
  6
CONTINUOUS
 10
-335.09431179268341
 20
-95.394924957695977
 30
0.0
 11
-335.74315849032632
 21
-95.828470460345457
 31
0.0
 12
-332.91473136558022
 22
-95.828470460345457
 32
0.0
 13
-332.91473136558022
 23
-95.828470460345457
 33
0.0
210
0.0
220
0.0
230
1.0
  0
SOLID
  5
56E
  8
0
  6
CONTINUOUS
 10
335.09431179268341
 20
-95.394924957695977
 30
0.0
 11
333.56357806322308
 21
-95.394924957695977
 31
0.0
 12
332.91473136558022
 22
-95.828470460345457
 32
0.0
 13
332.91473136558022
 23
-95.828470460345457
 33
0.0
210
0.0
220
0.0
230
-1.0
  0
SOLID
  5
56F
  8
0
  6
CONTINUOUS
 10
-335.74315849032632
 20
-95.828470460345457
 30
0.0
 11
-336.17670399297589
 21
-96.477317157988352
 31
0.0
 12
-332.48118586293072
 22
-96.477317157988352
 32
0.0
 13
-332.48118586293072
 23
-96.477317157988352
 33
0.0
210
0.0
220
0.0
230
1.0
  0
SOLID
  5
570
  8
0
  6
CONTINUOUS
 10
335.74315849032632
 20
-95.828470460345457
 30
0.0
 11
332.91473136558022
 21
-95.828470460345457
 31
0.0
 12
332.48118586293072
 22
-96.477317157988352
 32
0.0
 13
332.48118586293072
 23
-96.477317157988352
 33
0.0
210
0.0
220
0.0
230
-1.0
  0
SOLID
  5
571
  8
0
  6
CONTINUOUS
 10
-336.17670399297589
 20
-96.477317157988352
 30
0.0
 11
-336.32894492795322
 21
-97.242684022718535
 31
0.0
 12
-332.32894492795327
 22
-97.242684022718535
 32
0.0
 13
-332.32894492795327
 23
-97.242684022718535
 33
0.0
210
0.0
220
0.0
230
1.0
  0
SOLID
  5
572
  8
0
  6
CONTINUOUS
 10
336.17670399297589
 20
-96.477317157988352
 30
0.0
 11
332.48118586293072
 21
-96.477317157988352
 31
0.0
 12
332.32894492795327
 22
-97.242684022718535
 32
0.0
 13
332.32894492795327
 23
-97.242684022718535
 33
0.0
210
0.0
220
0.0
230
-1.0
  0
SOLID
  5
573
  8
0
  6
CONTINUOUS
 10
-336.32894492795322
 20
-97.242684022718535
 30
0.0
 11
-336.17670399297589
 21
-98.00805088744869
 31
0.0
 12
-332.48118586293072
 22
-98.00805088744869
 32
0.0
 13
-332.48118586293072
 23
-98.00805088744869
 33
0.0
210
0.0
220
0.0
230
1.0
  0
SOLID
  5
574
  8
0
  6
CONTINUOUS
 10
336.32894492795322
 20
-97.242684022718535
 30
0.0
 11
332.32894492795327
 21
-97.242684022718535
 31
0.0
 12
332.48118586293072
 22
-98.00805088744869
 32
0.0
 13
332.48118586293072
 23
-98.00805088744869
 33
0.0
210
0.0
220
0.0
230
-1.0
  0
SOLID
  5
575
  8
0
  6
CONTINUOUS
 10
-336.17670399297589
 20
-98.00805088744869
 30
0.0
 11
-335.74315849032632
 21
-98.656897585091585
 31
0.0
 12
-332.91473136558022
 22
-98.656897585091585
 32
0.0
 13
-332.91473136558022
 23
-98.656897585091585
 33
0.0
210
0.0
220
0.0
230
1.0
  0
SOLID
  5
576
  8
0
  6
CONTINUOUS
 10
336.17670399297589
 20
-98.00805088744869
 30
0.0
 11
332.48118586293072
 21
-98.00805088744869
 31
0.0
 12
332.91473136558022
 22
-98.656897585091585
 32
0.0
 13
332.91473136558022
 23
-98.656897585091585
 33
0.0
210
0.0
220
0.0
230
-1.0
  0
SOLID
  5
577
  8
0
  6
CONTINUOUS
 10
335.09431179268341
 20
-99.090443087741065
 30
0.0
 11
333.56357806322308
 21
-99.090443087741065
 31
0.0
 12
334.32894492795327
 22
-99.242684022718493
 32
0.0
 13
334.32894492795327
 23
-99.242684022718493
 33
0.0
210
0.0
220
0.0
230
-1.0
  0
SOLID
  5
578
  8
0
  6
CONTINUOUS
 10
-335.74315849032632
 20
-98.656897585091585
 30
0.0
 11
-335.09431179268341
 21
-99.090443087741065
 31
0.0
 12
-333.56357806322308
 22
-99.090443087741065
 32
0.0
 13
-333.56357806322308
 23
-99.090443087741065
 33
0.0
210
0.0
220
0.0
230
1.0
  0
SOLID
  5
579
  8
0
  6
CONTINUOUS
 10
335.74315849032632
 20
-98.656897585091585
 30
0.0
 11
332.91473136558022
 21
-98.656897585091585
 31
0.0
 12
333.56357806322308
 22
-99.090443087741065
 32
0.0
 13
333.56357806322308
 23
-99.090443087741065
 33
0.0
210
0.0
220
0.0
230
-1.0
  0
LINE
  5
57A
  8
0
  6
CONTINUOUS
 10
-334.32894492795327
 20
-95.242684022718564
 30
0.0
 11
-335.09431179268341
 21
-95.394924957695977
 31
0.0
  0
LINE
  5
57B
  8
0
  6
CONTINUOUS
 10
-333.56357806322308
 20
-95.394924957695977
 30
0.0
 11
-334.32894492795327
 21
-95.242684022718564
 31
0.0
  0
LINE
  5
57C
  8
0
  6
CONTINUOUS
 10
-335.09431179268341
 20
-95.394924957695977
 30
0.0
 11
-335.74315849032632
 21
-95.828470460345457
 31
0.0
  0
LINE
  5
57D
  8
0
  6
CONTINUOUS
 10
-333.56357806322308
 20
-95.394924957695977
 30
0.0
 11
-332.91473136558022
 21
-95.828470460345457
 31
0.0
  0
LINE
  5
57E
  8
0
  6
CONTINUOUS
 10
-335.74315849032632
 20
-95.828470460345457
 30
0.0
 11
-336.17670399297589
 21
-96.477317157988352
 31
0.0
  0
LINE
  5
57F
  8
0
  6
CONTINUOUS
 10
-332.91473136558022
 20
-95.828470460345457
 30
0.0
 11
-332.48118586293072
 21
-96.477317157988352
 31
0.0
  0
LINE
  5
580
  8
0
  6
CONTINUOUS
 10
-336.17670399297589
 20
-96.477317157988352
 30
0.0
 11
-336.32894492795322
 21
-97.242684022718535
 31
0.0
  0
LINE
  5
581
  8
0
  6
CONTINUOUS
 10
-332.48118586293072
 20
-96.477317157988352
 30
0.0
 11
-332.32894492795327
 21
-97.242684022718535
 31
0.0
  0
LINE
  5
582
  8
0
  6
CONTINUOUS
 10
-336.32894492795322
 20
-97.242684022718535
 30
0.0
 11
-336.17670399297589
 21
-98.00805088744869
 31
0.0
  0
LINE
  5
583
  8
0
  6
CONTINUOUS
 10
-332.32894492795327
 20
-97.242684022718535
 30
0.0
 11
-332.48118586293072
 21
-98.00805088744869
 31
0.0
  0
LINE
  5
584
  8
0
  6
CONTINUOUS
 10
-336.17670399297589
 20
-98.00805088744869
 30
0.0
 11
-335.74315849032632
 21
-98.656897585091585
 31
0.0
  0
LINE
  5
585
  8
0
  6
CONTINUOUS
 10
-332.48118586293072
 20
-98.00805088744869
 30
0.0
 11
-332.91473136558022
 21
-98.656897585091585
 31
0.0
  0
LINE
  5
586
  8
0
  6
CONTINUOUS
 10
-333.56357806322308
 20
-99.090443087741065
 30
0.0
 11
-334.32894492795327
 21
-99.242684022718493
 31
0.0
  0
LINE
  5
587
  8
0
  6
CONTINUOUS
 10
-334.32894492795327
 20
-99.242684022718493
 30
0.0
 11
-335.09431179268341
 21
-99.090443087741065
 31
0.0
  0
LINE
  5
588
  8
0
  6
CONTINUOUS
 10
-335.74315849032632
 20
-98.656897585091585
 30
0.0
 11
-335.09431179268341
 21
-99.090443087741065
 31
0.0
  0
LINE
  5
589
  8
0
  6
CONTINUOUS
 10
-332.91473136558022
 20
-98.656897585091585
 30
0.0
 11
-333.56357806322308
 21
-99.090443087741065
 31
0.0
  0
ENDBLK
  5
58B
  8
0
  0
BLOCK
  8
0
  2
*U34
 70
     1
 10
0.0
 20
0.0
 30
0.0
  3
*U34
  1

  0
TEXT
  5
58D
  8
0
  6
CONTINUOUS
 10
-681.16569637960833
 20
1.6216067574093449
 30
0.0
 40
9.8353293413173617
  1
Underlay
  7
ARIAL
  0
ENDBLK
  5
58F
  8
0
  0
BLOCK
  8
0
  2
*U35
 70
     1
 10
0.0
 20
0.0
 30
0.0
  3
*U35
  1

  0
SOLID
  5
591
  8
0
  6
CONTINUOUS
 10
-418.97280582536399
 20
-182.83533862283059
 30
0.0
 11
-419.7381726900943
 21
-182.987579557808
 31
0.0
 12
-418.20743896063391
 22
-182.987579557808
 32
0.0
 13
-418.20743896063391
 23
-182.987579557808
 33
0.0
210
0.0
220
0.0
230
1.0
  0
SOLID
  5
592
  8
0
  6
CONTINUOUS
 10
-419.7381726900943
 20
-182.987579557808
 30
0.0
 11
-420.38701938773721
 21
-183.42112506045751
 31
0.0
 12
-417.558592262991
 22
-183.42112506045751
 32
0.0
 13
-417.558592262991
 23
-183.42112506045751
 33
0.0
210
0.0
220
0.0
230
1.0
  0
SOLID
  5
593
  8
0
  6
CONTINUOUS
 10
419.7381726900943
 20
-182.987579557808
 30
0.0
 11
418.20743896063391
 21
-182.987579557808
 31
0.0
 12
417.558592262991
 22
-183.42112506045751
 32
0.0
 13
417.558592262991
 23
-183.42112506045751
 33
0.0
210
0.0
220
0.0
230
-1.0
  0
SOLID
  5
594
  8
0
  6
CONTINUOUS
 10
-420.38701938773721
 20
-183.42112506045751
 30
0.0
 11
-420.82056489038672
 21
-184.06997175810039
 31
0.0
 12
-417.12504676034149
 22
-184.06997175810039
 32
0.0
 13
-417.12504676034149
 23
-184.06997175810039
 33
0.0
  0
SOLID
  5
595
  8
0
  6
CONTINUOUS
 10
420.38701938773721
 20
-183.42112506045751
 30
0.0
 11
417.558592262991
 21
-183.42112506045751
 31
0.0
 12
417.12504676034149
 22
-184.06997175810039
 32
0.0
 13
417.12504676034149
 23
-184.06997175810039
 33
0.0
210
0.0
220
0.0
230
-1.0
  0
SOLID
  5
596
  8
0
  6
CONTINUOUS
 10
-420.82056489038672
 20
-184.06997175810039
 30
0.0
 11
-420.97280582536422
 21
-184.83533862283059
 31
0.0
 12
-416.97280582536399
 22
-184.83533862283059
 32
0.0
 13
-416.97280582536399
 23
-184.83533862283059
 33
0.0
210
0.0
220
0.0
230
1.0
  0
SOLID
  5
597
  8
0
  6
CONTINUOUS
 10
420.82056489038672
 20
-184.06997175810039
 30
0.0
 11
417.12504676034149
 21
-184.06997175810039
 31
0.0
 12
416.97280582536399
 22
-184.83533862283059
 32
0.0
 13
416.97280582536399
 23
-184.83533862283059
 33
0.0
210
0.0
220
0.0
230
-1.0
  0
SOLID
  5
598
  8
0
  6
CONTINUOUS
 10
-420.97280582536422
 20
-184.83533862283059
 30
0.0
 11
-420.82056489038672
 21
-185.60070548756079
 31
0.0
 12
-417.12504676034149
 22
-185.60070548756079
 32
0.0
 13
-417.12504676034149
 23
-185.60070548756079
 33
0.0
210
0.0
220
0.0
230
1.0
  0
SOLID
  5
599
  8
0
  6
CONTINUOUS
 10
420.97280582536422
 20
-184.83533862283059
 30
0.0
 11
416.97280582536399
 21
-184.83533862283059
 31
0.0
 12
417.12504676034149
 22
-185.60070548756079
 32
0.0
 13
417.12504676034149
 23
-185.60070548756079
 33
0.0
210
0.0
220
0.0
230
-1.0
  0
SOLID
  5
59A
  8
0
  6
CONTINUOUS
 10
-420.82056489038672
 20
-185.60070548756079
 30
0.0
 11
-420.38701938773721
 21
-186.2495521852037
 31
0.0
 12
-417.558592262991
 22
-186.2495521852037
 32
0.0
 13
-417.558592262991
 23
-186.2495521852037
 33
0.0
210
0.0
220
0.0
230
1.0
  0
SOLID
  5
59B
  8
0
  6
CONTINUOUS
 10
420.82056489038672
 20
-185.60070548756079
 30
0.0
 11
417.12504676034149
 21
-185.60070548756079
 31
0.0
 12
417.558592262991
 22
-186.2495521852037
 32
0.0
 13
417.558592262991
 23
-186.2495521852037
 33
0.0
210
0.0
220
0.0
230
-1.0
  0
SOLID
  5
59C
  8
0
  6
CONTINUOUS
 10
419.7381726900943
 20
-186.68309768785321
 30
0.0
 11
418.20743896063391
 21
-186.68309768785321
 31
0.0
 12
418.97280582536399
 22
-186.83533862283059
 32
0.0
 13
418.97280582536399
 23
-186.83533862283059
 33
0.0
210
0.0
220
0.0
230
-1.0
  0
SOLID
  5
59D
  8
0
  6
CONTINUOUS
 10
-420.38701938773721
 20
-186.2495521852037
 30
0.0
 11
-419.7381726900943
 21
-186.68309768785321
 31
0.0
 12
-418.20743896063391
 22
-186.68309768785321
 32
0.0
 13
-418.20743896063391
 23
-186.68309768785321
 33
0.0
210
0.0
220
0.0
230
1.0
  0
SOLID
  5
59E
  8
0
  6
CONTINUOUS
 10
420.38701938773721
 20
-186.2495521852037
 30
0.0
 11
417.558592262991
 21
-186.2495521852037
 31
0.0
 12
418.20743896063391
 22
-186.68309768785321
 32
0.0
 13
418.20743896063391
 23
-186.68309768785321
 33
0.0
210
0.0
220
0.0
230
-1.0
  0
LINE
  5
59F
  8
0
  6
CONTINUOUS
 10
-418.97280582536399
 20
-182.83533862283059
 30
0.0
 11
-419.7381726900943
 21
-182.987579557808
 31
0.0
  0
LINE
  5
5A0
  8
0
  6
CONTINUOUS
 10
-418.20743896063391
 20
-182.987579557808
 30
0.0
 11
-418.97280582536399
 21
-182.83533862283059
 31
0.0
  0
LINE
  5
5A1
  8
0
  6
CONTINUOUS
 10
-419.7381726900943
 20
-182.987579557808
 30
0.0
 11
-420.38701938773721
 21
-183.42112506045751
 31
0.0
  0
LINE
  5
5A2
  8
0
  6
CONTINUOUS
 10
-418.20743896063391
 20
-182.987579557808
 30
0.0
 11
-417.558592262991
 21
-183.42112506045751
 31
0.0
  0
LINE
  5
5A3
  8
0
  6
CONTINUOUS
 10
-420.38701938773721
 20
-183.42112506045751
 30
0.0
 11
-420.82056489038672
 21
-184.06997175810039
 31
0.0
  0
LINE
  5
5A4
  8
0
  6
CONTINUOUS
 10
-417.558592262991
 20
-183.42112506045751
 30
0.0
 11
-417.12504676034149
 21
-184.06997175810039
 31
0.0
  0
LINE
  5
5A5
  8
0
  6
CONTINUOUS
 10
-420.82056489038672
 20
-184.06997175810039
 30
0.0
 11
-420.97280582536422
 21
-184.83533862283059
 31
0.0
  0
LINE
  5
5A6
  8
0
  6
CONTINUOUS
 10
-417.12504676034149
 20
-184.06997175810039
 30
0.0
 11
-416.97280582536399
 21
-184.83533862283059
 31
0.0
  0
LINE
  5
5A7
  8
0
  6
CONTINUOUS
 10
-420.97280582536422
 20
-184.83533862283059
 30
0.0
 11
-420.82056489038672
 21
-185.60070548756079
 31
0.0
  0
LINE
  5
5A8
  8
0
  6
CONTINUOUS
 10
-416.97280582536399
 20
-184.83533862283059
 30
0.0
 11
-417.12504676034149
 21
-185.60070548756079
 31
0.0
  0
LINE
  5
5A9
  8
0
  6
CONTINUOUS
 10
-420.82056489038672
 20
-185.60070548756079
 30
0.0
 11
-420.38701938773721
 21
-186.2495521852037
 31
0.0
  0
LINE
  5
5AA
  8
0
  6
CONTINUOUS
 10
-417.12504676034149
 20
-185.60070548756079
 30
0.0
 11
-417.558592262991
 21
-186.2495521852037
 31
0.0
  0
LINE
  5
5AB
  8
0
  6
CONTINUOUS
 10
-418.20743896063391
 20
-186.68309768785321
 30
0.0
 11
-418.97280582536399
 21
-186.83533862283059
 31
0.0
  0
LINE
  5
5AC
  8
0
  6
CONTINUOUS
 10
-418.97280582536399
 20
-186.83533862283059
 30
0.0
 11
-419.7381726900943
 21
-186.68309768785321
 31
0.0
  0
LINE
  5
5AD
  8
0
  6
CONTINUOUS
 10
-420.38701938773721
 20
-186.2495521852037
 30
0.0
 11
-419.7381726900943
 21
-186.68309768785321
 31
0.0
  0
LINE
  5
5AE
  8
0
  6
CONTINUOUS
 10
-417.558592262991
 20
-186.2495521852037
 30
0.0
 11
-418.20743896063391
 21
-186.68309768785321
 31
0.0
  0
ENDBLK
  5
5B0
  8
0
  0
BLOCK
  8
0
  2
*U36
 70
     1
 10
0.0
 20
0.0
 30
0.0
  3
*U36
  1

  0
TEXT
  5
5B2
  8
0
  6
CONTINUOUS
 10
-681.16569637960833
 20
-88.861944875707877
 30
0.0
 40
9.8353293413173617
  1
Rafter
  7
ARIAL
  0
ENDBLK
  5
5B4
  8
0
  0
BLOCK
  8
0
  2
*X37
 70
     1
 10
0.0
 20
0.0
 30
0.0
  3
*X37
  1

  0
LINE
  5
5C2
  8
0
  6
CONTINUOUS
 62
     0
 10
-24.000000000003919
 20
119.9998670034076
 30
0.0
 11
-12.00000000000394
 21
119.9998670034076
 31
0.0
  0
LINE
  5
5C3
  8
0
  6
CONTINUOUS
 62
     0
 10
-24.000000000003961
 20
131.99986700340759
 30
0.0
 11
-12.000000000003981
 21
131.99986700340759
 31
0.0
  0
LINE
  5
5C4
  8
0
  6
CONTINUOUS
 62
     0
 10
-24.000000000004011
 20
143.99986700340759
 30
0.0
 11
-12.000000000004031
 21
143.99986700340759
 31
0.0
  0
LINE
  5
5C5
  8
0
  6
CONTINUOUS
 62
     0
 10
-24.00000000000405
 20
155.99986700340759
 30
0.0
 11
-12.00000000000408
 21
155.99986700340759
 31
0.0
  0
LINE
  5
5C6
  8
0
  6
CONTINUOUS
 62
     0
 10
-24.0000000000041
 20
167.99986700340759
 30
0.0
 11
-12.000000000004119
 21
167.99986700340759
 31
0.0
  0
LINE
  5
5C7
  8
0
  6
CONTINUOUS
 62
     0
 10
-24.00000000000415
 20
179.99986700340759
 30
0.0
 11
-12.000000000004171
 21
179.99986700340759
 31
0.0
  0
LINE
  5
5C8
  8
0
  6
CONTINUOUS
 62
     0
 10
-24.000000000004199
 20
191.99986700340759
 30
0.0
 11
-12.00000000000421
 21
191.99986700340759
 31
0.0
  0
LINE
  5
5C9
  8
0
  6
CONTINUOUS
 62
     0
 10
-24.000000000004238
 20
203.99986700340759
 30
0.0
 11
-12.00000000000426
 21
203.99986700340759
 31
0.0
  0
LINE
  5
5CA
  8
0
  6
CONTINUOUS
 62
     0
 10
-24.000000000004281
 20
215.99986700340759
 30
0.0
 11
-12.000000000004309
 21
215.99986700340759
 31
0.0
  0
LINE
  5
5CB
  8
0
  6
CONTINUOUS
 62
     0
 10
-24.000000000004331
 20
227.99986700340759
 30
0.0
 11
-12.00000000000435
 21
227.99986700340759
 31
0.0
  0
LINE
  5
5CC
  8
0
  6
CONTINUOUS
 62
     0
 10
-24.00000000000438
 20
239.99986700340759
 30
0.0
 11
-12.0000000000044
 21
239.99986700340759
 31
0.0
  0
LINE
  5
5CD
  8
0
  6
CONTINUOUS
 62
     0
 10
-24.00000000000443
 20
251.99986700340759
 30
0.0
 11
-12.000000000004439
 21
251.99986700340759
 31
0.0
  0
LINE
  5
5CE
  8
0
  6
CONTINUOUS
 62
     0
 10
-24.000000000004469
 20
263.99986700340759
 30
0.0
 11
-12.000000000004491
 21
263.99986700340759
 31
0.0
  0
LINE
  5
5CF
  8
0
  6
CONTINUOUS
 62
     0
 10
-24.000000000004508
 20
275.99986700340759
 30
0.0
 11
-12.00000000000454
 21
275.99986700340759
 31
0.0
  0
LINE
  5
5D0
  8
0
  6
CONTINUOUS
 62
     0
 10
-24.000000000004562
 20
287.99986700340759
 30
0.0
 11
-12.000000000004579
 21
287.99986700340759
 31
0.0
  0
LINE
  5
5D1
  8
0
  6
CONTINUOUS
 62
     0
 10
-24.000000000004611
 20
299.99986700340759
 30
0.0
 11
-12.000000000004629
 21
299.99986700340759
 31
0.0
  0
LINE
  5
5D2
  8
0
  6
CONTINUOUS
 62
     0
 10
-24.000000000004661
 20
311.99986700340759
 30
0.0
 11
-12.000000000004681
 21
311.99986700340759
 31
0.0
  0
LINE
  5
5D3
  8
0
  6
CONTINUOUS
 62
     0
 10
-24.0000000000047
 20
323.99986700340759
 30
0.0
 11
-12.00000000000472
 21
323.99986700340759
 31
0.0
  0
LINE
  5
5D4
  8
0
  6
CONTINUOUS
 62
     0
 10
-24.00000000000475
 20
335.99986700340759
 30
0.0
 11
-12.00000000000477
 21
335.99986700340759
 31
0.0
  0
LINE
  5
5D5
  8
0
  6
CONTINUOUS
 62
     0
 10
-24.0000000000048
 20
347.99986700340759
 30
0.0
 11
-12.000000000004819
 21
347.99986700340759
 31
0.0
  0
LINE
  5
5D6
  8
0
  6
CONTINUOUS
 62
     0
 10
-24.000000000004839
 20
359.99986700340759
 30
0.0
 11
-12.00000000000486
 21
359.99986700340759
 31
0.0
  0
LINE
  5
5D7
  8
0
  6
CONTINUOUS
 62
     0
 10
-24.000000000004889
 20
371.99986700340759
 30
0.0
 11
-12.00000000000491
 21
371.99986700340759
 31
0.0
  0
ENDBLK
  5
5D9
  8
0
  0
ENDSEC
  0
SECTION
  2
ENTITIES
  0
CIRCLE
  5
131
  8
0
 10
-12.440567390306001
 20
29.29937405739604
 30
0.0
 40
2.0000000000000009
1001
REVIT
1002
{
1070
     1
1000
757803
1002
}
1002
{
1070
     5
1000
515860
1002
}
1002
{
1070
     2
1000
-2005028
1002
}
  0
INSERT
  5
132
  8
0
  6
CONTINUOUS
  2
*U21
 10
0.0
 20
0.0
 30
0.0
1001
REVIT
1002
{
1070
     1
1000
757803
1002
}
1002
{
1070
     5
1000
515860
1002
}
1002
{
1070
     2
1000
-2005028
1002
}
1001
ACAD
1002
{
1000
R14_HATCH_DATA
1000
132
1011
1.0
1021
0.0
1031
0.0
1021
0.0
1031
0.0
1011
0.0
1021
0.0
1031
0.0
1021
1.0
1031
0.0
1011
0.0
1021
0.0
1031
0.0
1021
0.0
1031
1.0
1040
0.0
1010
0.0
1020
0.0
1030
1.0
1000
SOLID
1070
     1
1070
     0
1071
        1
1071
        0
1071
        1
1070
     2
1040
-12.440567390306001
1040
29.29937405739604
1040
2.0000000000000009
1040
0.0
1040
6.2831853071795862
1070
     1
1071
        0
1070
     0
1070
     1
1071
        1
1040
0.0
1040
0.0
1040
0.0
1002
}
  0
LINE
  5
133
  8
0
 10
-12.440567390306001
 20
29.29937405739604
 30
0.0
 11
-543.78555448059603
 21
46.25434731335443
 31
0.0
1001
REVIT
1002
{
1070
     1
1000
757803
1002
}
1002
{
1070
     5
1000
515860
1002
}
1002
{
1070
     2
1000
-2005028
1002
}
  0
INSERT
  5
135
  8
0
  6
CONTINUOUS
  2
*U22
 10
0.0
 20
0.0
 30
0.0
  0
CIRCLE
  5
14D
  8
0
 10
-12.44056739030604
 20
256.61584549561678
 30
0.0
 40
2.0
1001
REVIT
1002
{
1070
     1
1000
792368
1002
}
1002
{
1070
     5
1000
233011
1002
}
1002
{
1070
     2
1000
-2005028
1002
}
  0
INSERT
  5
14E
  8
0
  6
CONTINUOUS
  2
*U23
 10
0.0
 20
0.0
 30
0.0
1001
REVIT
1002
{
1070
     1
1000
792368
1002
}
1002
{
1070
     5
1000
233011
1002
}
1002
{
1070
     2
1000
-2005028
1002
}
1001
ACAD
1002
{
1000
R14_HATCH_DATA
1000
14E
1011
1.0
1021
0.0
1031
0.0
1021
0.0
1031
0.0
1011
0.0
1021
0.0
1031
0.0
1021
1.0
1031
0.0
1011
0.0
1021
0.0
1031
0.0
1021
0.0
1031
1.0
1040
0.0
1010
0.0
1020
0.0
1030
1.0
1000
SOLID
1070
     1
1070
     0
1071
        1
1071
        0
1071
        1
1070
     2
1040
-12.44056739030604
1040
256.61584549561678
1040
2.0
1040
0.0
1040
6.2831853071795862
1070
     1
1071
        0
1070
     0
1070
     1
1071
        1
1040
0.0
1040
0.0
1040
0.0
1002
}
  0
LINE
  5
14F
  8
0
 10
-12.44056739030604
 20
256.61584549561678
 30
0.0
 11
182.04960822034491
 21
256.61584549561678
 31
0.0
1001
REVIT
1002
{
1070
     1
1000
792368
1002
}
1002
{
1070
     5
1000
233011
1002
}
1002
{
1070
     2
1000
-2005028
1002
}
  0
INSERT
  5
150
  8
0
  6
CONTINUOUS
  2
*U24
 10
0.0
 20
0.0
 30
0.0
  0
CIRCLE
  5
151
  8
0
 10
-4.7631840265110723
 20
29.29937405739604
 30
0.0
 40
2.0
1001
REVIT
1002
{
1070
     1
1000
792369
1002
}
1002
{
1070
     5
1000
233013
1002
}
1002
{
1070
     2
1000
-2005028
1002
}
  0
INSERT
  5
152
  8
0
  6
CONTINUOUS
  2
*U25
 10
0.0
 20
0.0
 30
0.0
1001
REVIT
1002
{
1070
     1
1000
792369
1002
}
1002
{
1070
     5
1000
233013
1002
}
1002
{
1070
     2
1000
-2005028
1002
}
1001
ACAD
1002
{
1000
R14_HATCH_DATA
1000
152
1011
1.0
1021
0.0
1031
0.0
1021
0.0
1031
0.0
1011
0.0
1021
0.0
1031
0.0
1021
1.0
1031
0.0
1011
0.0
1021
0.0
1031
0.0
1021
0.0
1031
1.0
1040
0.0
1010
0.0
1020
0.0
1030
1.0
1000
SOLID
1070
     1
1070
     0
1071
        1
1071
        0
1071
        1
1070
     2
1040
-4.7631840265110723
1040
29.29937405739604
1040
2.0
1040
0.0
1040
6.2831853071795862
1070
     1
1071
        0
1070
     0
1070
     1
1071
        1
1040
0.0
1040
0.0
1040
0.0
1002
}
  0
LINE
  5
153
  8
0
 10
125.3190612689075
 20
-30.662384731449151
 30
0.0
 11
182.04960822034491
 21
-30.668426798867358
 31
0.0
1001
REVIT
1002
{
1070
     1
1000
792369
1002
}
1002
{
1070
     5
1000
233013
1002
}
1002
{
1070
     2
1000
-2005028
1002
}
  0
LINE
  5
154
  8
0
 10
-4.7631840265110723
 20
29.29937405739604
 30
0.0
 11
125.3190612689075
 21
-30.662384731449141
 31
0.0
1001
REVIT
1002
{
1070
     1
1000
792369
1002
}
1002
{
1070
     5
1000
233013
1002
}
1002
{
1070
     2
1000
-2005028
1002
}
  0
INSERT
  5
155
  8
0
  6
CONTINUOUS
  2
*U26
 10
0.0
 20
0.0
 30
0.0
  0
CIRCLE
  5
156
  8
0
 10
-27.753346810145459
 20
54.046392683306813
 30
0.0
 40
2.0
1001
REVIT
1002
{
1070
     1
1000
792370
1002
}
1002
{
1070
     5
1000
233013
1002
}
1002
{
1070
     2
1000
-2005028
1002
}
  0
INSERT
  5
157
  8
0
  6
CONTINUOUS
  2
*U27
 10
0.0
 20
0.0
 30
0.0
1001
REVIT
1002
{
1070
     1
1000
792370
1002
}
1002
{
1070
     5
1000
233013
1002
}
1002
{
1070
     2
1000
-2005028
1002
}
1001
ACAD
1002
{
1000
R14_HATCH_DATA
1000
157
1011
1.0
1021
0.0
1031
0.0
1021
0.0
1031
0.0
1011
0.0
1021
0.0
1031
0.0
1021
1.0
1031
0.0
1011
0.0
1021
0.0
1031
0.0
1021
0.0
1031
1.0
1040
0.0
1010
0.0
1020
0.0
1030
1.0
1000
SOLID
1070
     1
1070
     0
1071
        1
1071
        0
1071
        1
1070
     2
1040
-27.753346810145459
1040
54.046392683306813
1040
2.0
1040
0.0
1040
6.2831853071795862
1070
     1
1071
        0
1070
     0
1070
     1
1071
        1
1040
0.0
1040
0.0
1040
0.0
1002
}
  0
LINE
  5
158
  8
0
 10
125.3190612689075
 20
27.266429077949478
 30
0.0
 11
182.04960822034491
 21
27.26038701053124
 31
0.0
1001
REVIT
1002
{
1070
     1
1000
792370
1002
}
1002
{
1070
     5
1000
233013
1002
}
1002
{
1070
     2
1000
-2005028
1002
}
  0
LINE
  5
159
  8
0
 10
-27.753346810145459
 20
54.046392683306813
 30
0.0
 11
125.3190612689075
 21
27.266429077949478
 31
0.0
1001
REVIT
1002
{
1070
     1
1000
792370
1002
}
1002
{
1070
     5
1000
233013
1002
}
1002
{
1070
     2
1000
-2005028
1002
}
  0
INSERT
  5
15A
  8
0
  6
CONTINUOUS
  2
*U28
 10
0.0
 20
0.0
 30
0.0
  0
CIRCLE
  5
15B
  8
0
 10
45.87844951896728
 20
96.605583799739719
 30
0.0
 40
2.0
1001
REVIT
1002
{
1070
     1
1000
792371
1002
}
1002
{
1070
     5
1000
233013
1002
}
1002
{
1070
     2
1000
-2005028
1002
}
  0
INSERT
  5
15C
  8
0
  6
CONTINUOUS
  2
*U29
 10
0.0
 20
0.0
 30
0.0
1001
REVIT
1002
{
1070
     1
1000
792371
1002
}
1002
{
1070
     5
1000
233013
1002
}
1002
{
1070
     2
1000
-2005028
1002
}
1001
ACAD
1002
{
1000
R14_HATCH_DATA
1000
15C
1011
1.0
1021
0.0
1031
0.0
1021
0.0
1031
0.0
1011
0.0
1021
0.0
1031
0.0
1021
1.0
1031
0.0
1011
0.0
1021
0.0
1031
0.0
1021
0.0
1031
1.0
1040
0.0
1010
0.0
1020
0.0
1030
1.0
1000
SOLID
1070
     1
1070
     0
1071
        1
1071
        0
1071
        1
1070
     2
1040
45.87844951896728
1040
96.605583799739719
1040
2.0
1040
0.0
1040
6.2831853071795862
1070
     1
1071
        0
1070
     0
1070
     1
1071
        1
1040
0.0
1040
0.0
1040
0.0
1002
}
  0
LINE
  5
15D
  8
0
 10
45.87844951896728
 20
96.605583799739719
 30
0.0
 11
182.04960822034491
 21
96.605583799739719
 31
0.0
1001
REVIT
1002
{
1070
     1
1000
792371
1002
}
1002
{
1070
     5
1000
233013
1002
}
1002
{
1070
     2
1000
-2005028
1002
}
  0
INSERT
  5
15E
  8
0
  6
CONTINUOUS
  2
*U30
 10
0.0
 20
0.0
 30
0.0
  0
CIRCLE
  5
15F
  8
0
 10
-365.18911232016762
 20
-120.71750920099331
 30
0.0
 40
1.999999999999948
1001
REVIT
1002
{
1070
     1
1000
792372
1002
}
1002
{
1070
     5
1000
233013
1002
}
1002
{
1070
     2
1000
-2005028
1002
}
  0
INSERT
  5
160
  8
0
  6
CONTINUOUS
  2
*U31
 10
0.0
 20
0.0
 30
0.0
1001
REVIT
1002
{
1070
     1
1000
792372
1002
}
1002
{
1070
     5
1000
233013
1002
}
1002
{
1070
     2
1000
-2005028
1002
}
1001
ACAD
1002
{
1000
R14_HATCH_DATA
1000
160
1011
1.0
1021
0.0
1031
0.0
1021
0.0
1031
0.0
1011
0.0
1021
0.0
1031
0.0
1021
1.0
1031
0.0
1011
0.0
1021
0.0
1031
0.0
1021
0.0
1031
1.0
1040
0.0
1010
0.0
1020
0.0
1030
1.0
1000
SOLID
1070
     1
1070
     0
1071
        1
1071
        0
1071
        1
1070
     2
1040
-365.18911232016762
1040
-120.71750920099331
1040
1.999999999999948
1040
0.0
1040
6.2831853071795862
1070
     1
1071
        0
1070
     0
1070
     1
1071
        1
1040
0.0
1040
0.0
1040
0.0
1002
}
  0
LINE
  5
161
  8
0
 10
-433.19161168363718
 20
-39.845016916198603
 30
0.0
 11
-621.68555448059601
 21
-39.845016916198603
 31
0.0
1001
REVIT
1002
{
1070
     1
1000
792372
1002
}
1002
{
1070
     5
1000
233013
1002
}
1002
{
1070
     2
1000
-2005028
1002
}
  0
LINE
  5
162
  8
0
 10
-365.18911232016762
 20
-120.71750920099331
 30
0.0
 11
-433.19161168363718
 21
-39.845016916198588
 31
0.0
1001
REVIT
1002
{
1070
     1
1000
792372
1002
}
1002
{
1070
     5
1000
233013
1002
}
1002
{
1070
     2
1000
-2005028
1002
}
  0
INSERT
  5
163
  8
0
  6
CONTINUOUS
  2
*U32
 10
0.0
 20
0.0
 30
0.0
  0
CIRCLE
  5
164
  8
0
 10
-334.32894492795327
 20
-97.242684022718535
 30
0.0
 40
1.9999999999999529
1001
REVIT
1002
{
1070
     1
1000
792373
1002
}
1002
{
1070
     5
1000
233013
1002
}
1002
{
1070
     2
1000
-2005028
1002
}
  0
INSERT
  5
165
  8
0
  6
CONTINUOUS
  2
*U33
 10
0.0
 20
0.0
 30
0.0
1001
REVIT
1002
{
1070
     1
1000
792373
1002
}
1002
{
1070
     5
1000
233013
1002
}
1002
{
1070
     2
1000
-2005028
1002
}
1001
ACAD
1002
{
1000
R14_HATCH_DATA
1000
165
1011
1.0
1021
0.0
1031
0.0
1021
0.0
1031
0.0
1011
0.0
1021
0.0
1031
0.0
1021
1.0
1031
0.0
1011
0.0
1021
0.0
1031
0.0
1021
0.0
1031
1.0
1040
0.0
1010
0.0
1020
0.0
1030
1.0
1000
SOLID
1070
     1
1070
     0
1071
        1
1071
        0
1071
        1
1070
     2
1040
-334.32894492795327
1040
-97.242684022718535
1040
1.9999999999999529
1040
0.0
1040
6.2831853071795862
1070
     1
1071
        0
1070
     0
1070
     1
1071
        1
1040
0.0
1040
0.0
1040
0.0
1002
}
  0
LINE
  5
166
  8
0
 10
-415.76204204687463
 20
6.1661103632891141
 30
0.0
 11
-625.88555448059606
 21
6.160068295870885
 31
0.0
1001
REVIT
1002
{
1070
     1
1000
792373
1002
}
1002
{
1070
     5
1000
233013
1002
}
1002
{
1070
     2
1000
-2005028
1002
}
  0
LINE
  5
167
  8
0
 10
-334.32894492795327
 20
-97.242684022718535
 30
0.0
 11
-415.76204204687463
 21
6.1661103632891061
 31
0.0
1001
REVIT
1002
{
1070
     1
1000
792373
1002
}
1002
{
1070
     5
1000
233013
1002
}
1002
{
1070
     2
1000
-2005028
1002
}
  0
INSERT
  5
168
  8
0
  6
CONTINUOUS
  2
*U34
 10
0.0
 20
0.0
 30
0.0
  0
CIRCLE
  5
169
  8
0
 10
-418.97280582536399
 20
-184.83533862283059
 30
0.0
 40
2.000000000000032
1001
REVIT
1002
{
1070
     1
1000
792411
1002
}
1002
{
1070
     5
1000
233013
1002
}
1002
{
1070
     2
1000
-2005028
1002
}
  0
INSERT
  5
16A
  8
0
  6
CONTINUOUS
  2
*U35
 10
0.0
 20
0.0
 30
0.0
1001
REVIT
1002
{
1070
     1
1000
792411
1002
}
1002
{
1070
     5
1000
233013
1002
}
1002
{
1070
     2
1000
-2005028
1002
}
1001
ACAD
1002
{
1000
R14_HATCH_DATA
1000
16A
1011
1.0
1021
0.0
1031
0.0
1021
0.0
1031
0.0
1011
0.0
1021
0.0
1031
0.0
1021
1.0
1031
0.0
1011
0.0
1021
0.0
1031
0.0
1021
0.0
1031
1.0
1040
0.0
1010
0.0
1020
0.0
1030
1.0
1000
SOLID
1070
     1
1070
     0
1071
        1
1071
        0
1071
        1
1070
     2
1040
-418.97280582536399
1040
-184.83533862283059
1040
2.000000000000032
1040
0.0
1040
6.2831853071795862
1070
     1
1071
        0
1070
     0
1070
     1
1071
        1
1040
0.0
1040
0.0
1040
0.0
1002
}
  0
LINE
  5
16B
  8
0
 10
-470.28958089970092
 20
-84.323483337246316
 30
0.0
 11
-642.98555448059608
 21
-84.323483337246316
 31
0.0
1001
REVIT
1002
{
1070
     1
1000
792411
1002
}
1002
{
1070
     5
1000
233013
1002
}
1002
{
1070
     2
1000
-2005028
1002
}
  0
LINE
  5
16C
  8
0
 10
-418.97280582536399
 20
-184.83533862283059
 30
0.0
 11
-470.28958089970092
 21
-84.323483337246316
 31
0.0
1001
REVIT
1002
{
1070
     1
1000
792411
1002
}
1002
{
1070
     5
1000
233013
1002
}
1002
{
1070
     2
1000
-2005028
1002
}
  0
INSERT
  5
16D
  8
0
  6
CONTINUOUS
  2
*U36
 10
0.0
 20
0.0
 30
0.0
  0
LINE
  5
379
  8
0
 10
-481.6866997423005
 20
-331.36359308439881
 30
0.0
 11
-481.68669974229982
 21
-214.20678759767881
 31
0.0
  0
LINE
  5
37A
  8
0
 10
-481.6866997422992
 20
-91.36359308439873
 30
0.0
 11
-481.68669974229982
 21
-208.52039857111859
 31
0.0
  0
LINE
  5
37B
  8
0
 10
-481.6866997423005
 20
-331.36359308439881
 30
0.0
 11
-481.68669974229982
 21
-214.20678759767881
 31
0.0
  0
LINE
  5
37C
  8
0
 10
-481.68669974229982
 20
-214.20678759767881
 30
0.0
 11
-473.44060441359511
 21
-212.7527785057342
 31
0.0
  0
LINE
  5
37D
  8
0
 10
-473.44060441359511
 20
-212.7527785057342
 30
0.0
 11
-489.93279507100448
 21
-209.9744076630632
 31
0.0
  0
LINE
  5
37E
  8
0
 10
-489.93279507100448
 20
-209.9744076630632
 30
0.0
 11
-481.68669974229982
 21
-208.52039857111859
 31
0.0
  0
LINE
  5
37F
  8
0
 10
-481.68669974229982
 20
-208.52039857111859
 30
0.0
 11
-481.6866997422992
 21
-91.36359308439873
 31
0.0
  0
LINE
  5
380
  8
0
 10
129.0
 20
292.57015353608961
 30
0.0
 11
27.843194513280078
 21
292.57015353608961
 31
0.0
  0
LINE
  5
381
  8
0
 10
-79.000000000000014
 20
292.57015353608961
 30
0.0
 11
22.156805486719922
 21
292.57015353608961
 31
0.0
  0
LINE
  5
382
  8
0
 10
-79.000000000000014
 20
292.57015353608961
 30
0.0
 11
22.156805486719922
 21
292.57015353608961
 31
0.0
  0
LINE
  5
383
  8
0
 10
22.156805486719922
 20
292.57015353608961
 30
0.0
 11
23.610814578664549
 21
300.8162488647942
 31
0.0
  0
LINE
  5
384
  8
0
 10
23.610814578664549
 20
300.8162488647942
 30
0.0
 11
26.389185421335451
 21
284.32405820738478
 31
0.0
  0
LINE
  5
385
  8
0
 10
26.389185421335451
 20
284.32405820738478
 30
0.0
 11
27.843194513280078
 21
292.57015353608961
 31
0.0
  0
LINE
  5
386
  8
0
 10
27.843194513280078
 20
292.57015353608961
 30
0.0
 11
129.0
 21
292.57015353608961
 31
0.0
  0
LINE
  5
387
  8
0
 10
130.0
 20
-299.78379451763601
 30
0.0
 11
52.843194513280082
 21
-299.78379451763601
 31
0.0
  0
LINE
  5
388
  8
0
 10
-30.0
 20
-299.78379451763601
 30
0.0
 11
47.156805486719918
 21
-299.78379451763601
 31
0.0
  0
LINE
  5
389
  8
0
 10
130.0
 20
-299.78379451763601
 30
0.0
 11
52.843194513280082
 21
-299.78379451763601
 31
0.0
  0
LINE
  5
38A
  8
0
 10
52.843194513280082
 20
-299.78379451763601
 30
0.0
 11
51.389185421335448
 21
-291.5376991889313
 31
0.0
  0
LINE
  5
38B
  8
0
 10
51.389185421335448
 20
-291.5376991889313
 30
0.0
 11
48.610814578664552
 21
-308.02988984634072
 31
0.0
  0
LINE
  5
38C
  8
0
 10
48.610814578664552
 20
-308.02988984634072
 30
0.0
 11
47.156805486719918
 21
-299.78379451763601
 31
0.0
  0
LINE
  5
38D
  8
0
 10
47.156805486719918
 20
-299.78379451763601
 30
0.0
 11
-30.0
 21
-299.78379451763601
 31
0.0
  0
LINE
  5
38E
  8
0
 10
129.0
 20
292.57015353608961
 30
0.0
 11
27.843194513280078
 21
292.57015353608961
 31
0.0
  0
LINE
  5
38F
  8
0
 10
-79.000000000000014
 20
292.57015353608961
 30
0.0
 11
22.156805486719922
 21
292.57015353608961
 31
0.0
  0
LINE
  5
390
  8
0
 10
-79.000000000000014
 20
292.57015353608961
 30
0.0
 11
22.156805486719922
 21
292.57015353608961
 31
0.0
  0
LINE
  5
391
  8
0
 10
22.156805486719922
 20
292.57015353608961
 30
0.0
 11
23.610814578664549
 21
300.8162488647942
 31
0.0
  0
LINE
  5
392
  8
0
 10
23.610814578664549
 20
300.8162488647942
 30
0.0
 11
26.389185421335451
 21
284.32405820738478
 31
0.0
  0
LINE
  5
393
  8
0
 10
26.389185421335451
 20
284.32405820738478
 30
0.0
 11
27.843194513280078
 21
292.57015353608961
 31
0.0
  0
LINE
  5
394
  8
0
 10
27.843194513280078
 20
292.57015353608961
 30
0.0
 11
129.0
 21
292.57015353608961
 31
0.0
  0
LINE
  5
395
  8
0
 10
-355.13065819524149
 20
-90.709816512223284
 30
0.0
 11
-358.88942867838642
 21
-92.077897085526644
 31
0.0
1001
REVIT
1002
{
1070
     3
1000
211597
1002
}
  0
LINE
  5
396
  8
0
 10
-348.41721872243392
 20
-113.54054647087651
 30
0.0
 11
-356.28368201892567
 21
-91.927616192801139
 31
0.0
1001
REVIT
1002
{
1070
     3
1000
211597
1002
}
  0
LINE
  5
397
  8
0
 10
-348.20302474617648
 20
-115.59094178411149
 30
0.0
 11
-348.41721872243392
 21
-113.54054647087651
 31
0.0
1001
REVIT
1002
{
1070
     3
1000
211597
1002
}
  0
LINE
  5
398
  8
0
 10
-349.35691134321979
 20
-113.8825666142022
 30
0.0
 11
-348.20302474617648
 21
-115.59094178411149
 31
0.0
1001
REVIT
1002
{
1070
     3
1000
211597
1002
}
  0
LINE
  5
399
  8
0
 10
-357.22337463971149
 20
-92.269636336126865
 30
0.0
 11
-349.35691134321979
 21
-113.8825666142022
 31
0.0
1001
REVIT
1002
{
1070
     3
1000
211597
1002
}
  0
LINE
  5
39A
  8
0
 10
-358.35087755524398
 20
-92.680013836429112
 30
0.0
 11
-357.22337463971149
 21
-92.269636336126865
 31
0.0
1001
REVIT
1002
{
1070
     3
1000
211597
1002
}
  0
LINE
  5
39B
  8
0
 10
-356.28368201892567
 20
-91.927616192801139
 30
0.0
 11
-355.1561791033937
 21
-91.517238692499035
 31
0.0
1001
REVIT
1002
{
1070
     3
1000
211597
1002
}
  0
LINE
  5
39C
  8
0
 10
-355.13065819524149
 20
-90.709816512223284
 30
0.0
 11
-355.1561791033937
 21
-91.517238692499035
 31
0.0
1001
REVIT
1002
{
1070
     3
1000
211597
1002
}
  0
LINE
  5
39D
  8
0
 10
-358.88942867838642
 20
-92.077897085526644
 30
0.0
 11
-358.35087755524398
 21
-92.680013836429112
 31
0.0
1001
REVIT
1002
{
1070
     3
1000
211597
1002
}
  0
LINE
  5
39E
  8
0
 10
-27.650635094618149
 20
40.387471620830453
 30
0.0
 11
-27.650635094618231
 21
95.387471620830453
 31
0.0
1001
REVIT
1002
{
1070
     3
1000
735057
1002
}
  0
LINE
  5
39F
  8
0
 10
-27.650635094618231
 20
95.387471620830453
 30
0.0
 11
-6.0000000000072538
 21
107.8874716208304
 31
0.0
1001
REVIT
1002
{
1070
     3
1000
735057
1002
}
  0
LINE
  5
3A0
  8
0
 10
-6.0000000000072538
 20
107.8874716208304
 30
0.0
 11
-6.000000000007339
 21
162.88747162083041
 31
0.0
1001
REVIT
1002
{
1070
     3
1000
735057
1002
}
  0
LINE
  5
3A1
  8
0
 10
-516.69442038042166
 20
-183.79628927743971
 30
0.0
 11
-2.0758973404116352
 21
3.509535110926576
 31
0.0
  0
LINE
  5
3A2
  8
0
 10
-2.0758973404116352
 20
3.509535110926576
 30
0.0
 11
-7.2061994902910804
 21
17.604924422717399
 31
0.0
  0
LINE
  5
3A3
  8
0
 10
-7.2061994902910804
 20
17.604924422717399
 30
0.0
 11
-350.65245359174031
 21
-107.3992891402811
 31
0.0
  0
LINE
  5
3A4
  8
0
 10
-351.5921462125263
 20
-107.7413092836063
 30
0.0
 11
-521.82472253030096
 21
-169.70089996564889
 31
0.0
  0
LINE
  5
3A5
  8
0
 10
-4.6410484153515252
 20
10.55722976682245
 30
0.0
 11
-348.31391184812259
 21
-114.529462847584
 31
0.0
1001
REVIT
1002
{
1070
     3
1000
456193
1002
}
  0
LINE
  5
3A6
  8
0
 10
-348.80038580625938
 20
-114.70652488809129
 30
0.0
 11
-519.25957145536154
 21
-176.74859462154379
 31
0.0
1001
REVIT
1002
{
1070
     3
1000
456193
1002
}
  0
LINE
  5
3A7
  8
0
 10
-3.7859980570380971
 20
8.2079982148568007
 30
0.0
 11
-518.40452109704813
 21
-179.0978261735095
 31
0.0
1001
REVIT
1002
{
1070
     3
1000
456193
1002
}
  0
LINE
  5
3A8
  8
0
 10
-5.4960987736644764
 20
12.906461318786789
 30
0.0
 11
-348.9423528751114
 21
-112.09775224421089
 31
0.0
1001
REVIT
1002
{
1070
     3
1000
456193
1002
}
  0
LINE
  5
3A9
  8
0
 10
-349.88204549589761
 20
-112.43977238753619
 30
0.0
 11
-520.11462181367392
 21
-174.39936306957921
 31
0.0
1001
REVIT
1002
{
1070
     3
1000
456193
1002
}
  0
LINE
  5
3AA
  8
0
 10
-6.3511491319777083
 20
15.255692870751901
 30
0.0
 11
-349.79740323342571
 21
-109.7485206922461
 31
0.0
1001
REVIT
1002
{
1070
     3
1000
456193
1002
}
  0
LINE
  5
3AB
  8
0
 10
-350.7370958542117
 20
-110.0905408355714
 30
0.0
 11
-520.9696721719871
 21
-172.05013151761409
 31
0.0
1001
REVIT
1002
{
1070
     3
1000
456193
1002
}
  0
LINE
  5
3AC
  8
0
 10
-2.9309476987248662
 20
5.8587666628916866
 30
0.0
 11
-517.54947073873484
 21
-181.44705772547459
 31
0.0
1001
REVIT
1002
{
1070
     3
1000
456193
1002
}
  0
LINE
  5
3AD
  8
0
  6
DASH
 10
-3.328252168963548
 20
217.57015353608941
 30
0.0
 11
-3.328252168963338
 21
347.57015353608938
 31
0.0
1001
REVIT
1002
{
1070
     3
1000
217411
1002
}
  0
LINE
  5
3AE
  8
0
  6
DASH
 10
-9.0000000000073097
 20
211.8984057050456
 30
0.0
 11
-3.3282521689635862
 21
217.57015353608929
 31
0.0
1001
REVIT
1002
{
1070
     3
1000
217411
1002
}
  0
LINE
  5
3AF
  8
0
  6
DASH
 10
-9.0000000000074643
 20
125.13185967338261
 30
0.0
 11
-9.0000000000073221
 21
211.8984057050456
 31
0.0
1001
REVIT
1002
{
1070
     3
1000
217411
1002
}
  0
LINE
  5
3B0
  8
0
  6
DASH
 10
-6.7731699255729163
 20
24.14760092980055
 30
0.0
 11
-142.05068597668449
 21
-25.089388278322421
 31
0.0
1001
REVIT
1002
{
1070
     3
1000
217411
1002
}
  0
LINE
  5
3B1
  8
0
  6
DASH
 10
-3.0000000000072751
 20
212.215528681824
 30
0.0
 11
-3.000000000007629
 21
31.91893326719622
 31
0.0
1001
REVIT
1002
{
1070
     3
1000
217411
1002
}
  0
LINE
  5
3B2
  8
0
  6
DASH
 10
-2.9308787023294749
 20
22.353547248911429
 30
0.0
 11
-351.67851402171442
 21
-104.5802112779316
 31
0.0
1001
REVIT
1002
{
1070
     3
1000
217411
1002
}
  0
LINE
  5
3B3
  8
0
  6
DASH
 10
-352.61820664250041
 20
-104.922231421257
 30
0.0
 11
-515.74160580682076
 21
-164.29429322932961
 31
0.0
1001
REVIT
1002
{
1070
     3
1000
217411
1002
}
  0
INSERT
  5
3B4
  8
0
  6
CONTINUOUS
  2
*X37
 10
0.0
 20
0.0
 30
0.0
1001
ACAD
1000
HATCH
1002
{
1070
    19
1000
FP_1
1040
1.0
1040
3.1415926535897931
1000
R14_HATCH_DATA
1000
3B4
1011
1.0
1021
0.0
1031
0.0
1021
0.0
1031
0.0
1011
0.0
1021
0.0
1031
0.0
1021
1.0
1031
0.0
1011
0.0
1021
0.0
1031
0.0
1021
0.0
1031
1.0
1040
0.0
1010
0.0
1020
0.0
1030
1.0
1000
FP_1
1070
     0
1070
     0
1071
        1
1071
        0
1071
        4
1070
     1
1040
-12.000000000003901
1040
109.4233700056931
1040
-12.000000000004951
1040
381.6278670034082
1070
     1
1040
-12.00000000000494
1040
381.6278670034082
1040
-24.000000000004921
1040
381.6278670034082
1070
     1
1040
-24.000000000004921
1040
381.6278670034082
1040
-24.00000000000388
1040
109.4233700056931
1070
     1
1040
-24.00000000000388
1040
109.4233700056931
1040
-12.000000000003901
1040
109.4233700056931
1071
        0
1070
     0
1070
     2
1040
3.1415926535897931
1040
1.0
1070
     0
1070
     1
1040
6.2831853071795862
1040
-0.0000000000057945
1040
-0.0001329965924128
1040
0.0
1040
12.0
1070
     0
1071
        1
1040
-18.000000000005748
1040
381.62786700340757
1040
0.0
1002
}
  0
LINE
  5
3B5
  8
0
 10
-24.000000000004
 20
109.4233700056929
 30
0.0
 11
-12.000000000004
 21
109.4233700056929
 31
0.0
1001
REVIT
1002
{
1070
     3
1000
224526
1002
}
  0
LINE
  5
3B6
  8
0
 10
-12.000000000004
 20
109.4233700056929
 30
0.0
 11
-12.00000000000488
 21
381.62786700340791
 31
0.0
1001
REVIT
1002
{
1070
     3
1000
224526
1002
}
  0
LINE
  5
3B7
  8
0
 10
-24.000000000004871
 20
381.6278670034078
 30
0.0
 11
-24.000000000004
 21
109.4233700056929
 31
0.0
1001
REVIT
1002
{
1070
     3
1000
224526
1002
}
  0
LINE
  5
3B8
  8
0
 10
-12.389680539935229
 20
25.103358245730352
 30
0.0
 11
-12.41468168301696
 21
60.490074040662087
 31
0.0
  0
LINE
  5
3B9
  8
0
 10
-29.285709779257559
 20
18.284958414556741
 30
0.0
 11
-12.389680539935229
 21
25.103358245730352
 31
0.0
1001
REVIT
1002
{
1070
     3
1000
773559
1002
}
  0
LINE
  5
3BA
  8
0
 10
-389.91182617850052
 20
-94.522961998155765
 30
0.0
 11
-29.28570977926233
 21
18.28495841455447
 31
0.0
1001
REVIT
1002
{
1070
     3
1000
773559
1002
}
  0
LINE
  5
3BB
  8
0
 10
-391.66345462149059
 20
-98.466812177800307
 30
0.0
 11
-391.3722215833713
 21
-96.285757957298514
 31
0.0
1001
REVIT
1002
{
1070
     3
1000
773559
1002
}
  0
LINE
  5
3BC
  8
0
 10
-391.61861775462341
 20
-99.280666549986023
 30
0.0
 11
-391.66345462149059
 21
-98.466812177800307
 31
0.0
1001
REVIT
1002
{
1070
     3
1000
773559
1002
}
  0
LINE
  5
3BD
  8
0
 10
-389.27417240912069
 20
-108.4519183996281
 30
0.0
 11
-391.61861775462341
 21
-99.280666549985966
 31
0.0
1001
REVIT
1002
{
1070
     3
1000
773559
1002
}
  0
LINE
  5
3BE
  8
0
 10
-372.26282214453408
 20
-106.1677644285371
 30
0.0
 11
-386.84141433651178
 21
-109.89415606006639
 31
0.0
1001
REVIT
1002
{
1070
     3
1000
773559
1002
}
  0
ARC
  5
3BF
  8
0
 10
-389.32198702632252
 20
-96.497949821032165
 30
0.0
 40
2.0611858542964998
 50
106.62849598174761
 51
174.09113167162749
1001
REVIT
1002
{
1070
     3
1000
773559
1002
}
  0
ARC
  5
3C0
  8
0
 10
-387.33665917000792
 20
-107.9566322631488
 30
0.0
 40
1.9998164687606921
 50
194.33942886434181
 51
284.3382074635648
1001
REVIT
1002
{
1070
     3
1000
773559
1002
}
  0
ARC
  5
3C1
  8
0
 10
-738.22466087732857
 20
-234.0339916337347
 30
0.0
 40
1.999816468760713
 50
193.74816403320611
 51
283.74694263243208
1001
REVIT
1002
{
1070
     3
1000
773559
1002
}
  0
ARC
  5
3C2
  8
0
 10
-740.09163704176558
 20
-222.55543205477369
 30
0.0
 40
2.0611858542965171
 50
106.0372311505765
 51
173.49986684050239
1001
REVIT
1002
{
1070
     3
1000
773559
1002
}
  0
ARC
  5
3C3
  8
0
 10
-372.85614691283217
 20
-106.30576449003991
 30
0.0
 40
2.6309694047366419
 50
292.02229061155839
 51
104.6782553486654
1001
REVIT
1002
{
1070
     3
1000
773559
1002
}
  0
ARC
  5
3C4
  8
0
 10
-385.12100878442033
 20
-103.8409134930565
 30
0.0
 40
3.0000413488272741
 50
106.2177580300834
 51
284.55283328428038
1001
REVIT
1002
{
1070
     3
1000
773559
1002
}
  0
LINE
  5
3C5
  8
0
 10
-723.13316654339962
 20
-232.40077102118909
 30
0.0
 11
-737.74943637044828
 21
-235.97652286303
 31
0.0
1001
REVIT
1002
{
1070
     3
1000
773559
1002
}
  0
LINE
  5
3C6
  8
0
 10
-740.16718197560056
 20
-234.50925755034839
 30
0.0
 11
-742.41686127008165
 21
-225.31430091425719
 31
0.0
1001
REVIT
1002
{
1070
     3
1000
773559
1002
}
  0
LINE
  5
3C7
  8
0
 10
-742.41686127008165
 20
-225.31430091425719
 30
0.0
 11
-742.45329731375193
 21
-224.50002718971629
 31
0.0
1001
REVIT
1002
{
1070
     3
1000
773559
1002
}
  0
LINE
  5
3C8
  8
0
 10
-742.45329731375193
 20
-224.50002718971629
 30
0.0
 11
-742.13957275362554
 21
-222.32209443234461
 31
0.0
1001
REVIT
1002
{
1070
     3
1000
773559
1002
}
  0
LINE
  5
3C9
  8
0
 10
-740.66106422675011
 20
-220.5744626438659
 30
0.0
 11
-378.89004692717708
 21
-111.4939704416723
 31
0.0
1001
REVIT
1002
{
1070
     3
1000
773559
1002
}
  0
LINE
  5
3CA
  8
0
 10
-378.89004692718481
 20
-111.4939704416747
 30
0.0
 11
-371.86961946901789
 21
-108.7447732254203
 31
0.0
1001
REVIT
1002
{
1070
     3
1000
773559
1002
}
  0
LINE
  5
3CB
  8
0
 10
-373.52281044179659
 20
-103.7606594336996
 30
0.0
 11
-384.3671804724504
 21
-106.7447025643813
 31
0.0
1001
REVIT
1002
{
1070
     3
1000
773559
1002
}
  0
LINE
  5
3CC
  8
0
 10
-385.9588864996058
 20
-100.960252279191
 30
0.0
 11
-356.96417439586469
 21
-92.981783153213144
 31
0.0
1001
REVIT
1002
{
1070
     3
1000
773559
1002
}
  0
LINE
  5
3CD
  8
0
 10
-355.9968751419193
 20
-92.715611611120465
 30
0.0
 11
-339.5998237651396
 21
-88.203638265821084
 31
0.0
1001
REVIT
1002
{
1070
     3
1000
773559
1002
}
  0
ARC
  5
3CE
  8
0
 10
50.056108817492827
 20
204.61912273478799
 30
0.0
 40
2.0000000000000031
 50
0.0
 51
90.000000000000185
1001
REVIT
1002
{
1070
     3
1000
224526
1002
}
  0
ARC
  5
3CF
  8
0
 10
4.0561088174928868
 20
204.61912273478811
 30
0.0
 40
2.0000000000000031
 50
89.999999999999801
 51
180.0
1001
REVIT
1002
{
1070
     3
1000
224526
1002
}
  0
ARC
  5
3D0
  8
0
 10
4.0561088174928983
 20
58.619122734788057
 30
0.0
 40
2.0000000000000031
 50
180.0
 51
269.9999999999996
1001
REVIT
1002
{
1070
     3
1000
224526
1002
}
  0
ARC
  5
3D1
  8
0
 10
50.056108817492891
 20
58.61912273478805
 30
0.0
 40
1.9999999999999969
 50
269.99999999999977
 51
0.0
1001
REVIT
1002
{
1070
     3
1000
224526
1002
}
  0
LINE
  5
3D2
  8
0
 10
50.056108817492827
 20
206.61912273478811
 30
0.0
 11
4.0561088174928983
 21
206.61912273478811
 31
0.0
1001
REVIT
1002
{
1070
     3
1000
224526
1002
}
  0
LINE
  5
3D3
  8
0
 10
2.0561088174928872
 20
204.61912273478811
 30
0.0
 11
2.0561088174928872
 21
58.619122734788057
 31
0.0
1001
REVIT
1002
{
1070
     3
1000
224526
1002
}
  0
LINE
  5
3D4
  8
0
 10
4.0561088174928841
 20
56.619122734788043
 30
0.0
 11
50.056108817492898
 21
56.619122734788043
 31
0.0
1001
REVIT
1002
{
1070
     3
1000
224526
1002
}
  0
LINE
  5
3D5
  8
0
 10
52.056108817492898
 20
58.61912273478805
 30
0.0
 11
52.056108817492898
 21
204.61912273478799
 31
0.0
1001
REVIT
1002
{
1070
     3
1000
224526
1002
}
  0
LINE
  5
3D6
  8
0
 10
4.0561088174927269
 20
204.61912273478831
 30
0.0
 11
50.056108817492927
 21
58.619122734788121
 31
0.0
  0
LINE
  5
3D7
  8
0
 10
50.056108817492927
 20
204.61912273478831
 30
0.0
 11
4.0561088174929303
 21
58.61912273478805
 31
0.0
  0
LINE
  5
3D8
  8
0
 10
100.0000000000024
 20
-339.78379451763669
 30
0.0
 11
100.00000000000369
 21
347.57015353608938
 31
0.0
1001
REVIT
1002
{
1070
     3
1000
206265
1002
}
  0
LINE
  5
3D9
  8
0
 10
0.0000000000035953
 20
347.57015353608961
 30
0.0
 11
0.0000000000022453
 21
-339.78379451763652
 31
0.0
1001
REVIT
1002
{
1070
     3
1000
206265
1002
}
  0
ARC
  5
3DA
  8
0
 10
-3.9999999999994378
 20
-108.6986460757394
 30
0.0
 40
1.9999999999999969
 50
0.0
 51
90.000000000000185
1001
REVIT
1002
{
1070
     3
1000
224526
1002
}
  0
ARC
  5
3DB
  8
0
 10
-49.999999999999368
 20
-108.6986460757394
 30
0.0
 40
2.0
 50
89.999999999999801
 51
180.0
1001
REVIT
1002
{
1070
     3
1000
224526
1002
}
  0
ARC
  5
3DC
  8
0
 10
-49.999999999999361
 20
-204.69864607573939
 30
0.0
 40
1.999999999999996
 50
180.0
 51
269.99999999999937
1001
REVIT
1002
{
1070
     3
1000
224526
1002
}
  0
ARC
  5
3DD
  8
0
 10
-3.9999999999993712
 20
-204.69864607573939
 30
0.0
 40
2.0000000000000009
 50
269.99999999999977
 51
0.0
1001
REVIT
1002
{
1070
     3
1000
224526
1002
}
  0
LINE
  5
3DE
  8
0
 10
-3.9999999999994351
 20
-106.6986460757394
 30
0.0
 11
-49.999999999999368
 21
-106.6986460757394
 31
0.0
1001
REVIT
1002
{
1070
     3
1000
224526
1002
}
  0
LINE
  5
3DF
  8
0
 10
-51.999999999999382
 20
-108.6986460757393
 30
0.0
 11
-51.999999999999382
 21
-204.69864607573939
 31
0.0
1001
REVIT
1002
{
1070
     3
1000
224526
1002
}
  0
LINE
  5
3E0
  8
0
 10
-49.999999999999368
 20
-206.69864607573939
 30
0.0
 11
-3.9999999999993641
 21
-206.69864607573939
 31
0.0
1001
REVIT
1002
{
1070
     3
1000
224526
1002
}
  0
LINE
  5
3E1
  8
0
 10
-1.9999999999993641
 20
-204.69864607573939
 30
0.0
 11
-1.9999999999993641
 21
-108.6986460757394
 31
0.0
1001
REVIT
1002
{
1070
     3
1000
224526
1002
}
  0
LINE
  5
3E2
  8
0
 10
-49.999999999999531
 20
-108.69864607573921
 30
0.0
 11
-3.9999999999993392
 21
-204.6986460757393
 31
0.0
  0
LINE
  5
3E3
  8
0
 10
-3.9999999999993392
 20
-108.69864607573921
 30
0.0
 11
-49.999999999999332
 21
-204.69864607573939
 31
0.0
  0
LINE
  5
3E4
  8
0
 10
-0.0000000000003411
 20
-0.0000000000001137
 30
0.0
 11
-515.90679836560901
 21
-187.7747182603386
 31
0.0
1001
REVIT
1002
{
1070
     3
1000
206265
1002
}
  0
LINE
  5
3E5
  8
0
 10
-515.9067983656671
 20
-294.19249550793012
 30
0.0
 11
-51.999999999999211
 21
-125.34422942938041
 31
0.0
1001
REVIT
1002
{
1070
     3
1000
206265
1002
}
  0
LINE
  5
3E6
  8
0
 10
-1.999999999999204
 20
-107.1457177161011
 30
0.0
 11
-0.0000000000585487
 21
-106.4177772475915
 31
0.0
1001
REVIT
1002
{
1070
     3
1000
206265
1002
}
  0
LINE
  5
3E7
  8
0
  6
DASH
 10
-6.7731699255729181
 20
24.147600929800561
 30
0.0
 11
-3.0000000000075651
 21
31.918933267196209
 31
0.0
1001
REVIT
1002
{
1070
     3
1000
217411
1002
}
  0
LINE
  5
3E8
  8
0
  6
DASH
 10
-3.0000000000072751
 20
212.215528681824
 30
0.0
 11
-3.000000000007629
 21
31.91893326719622
 31
0.0
1001
REVIT
1002
{
1070
     3
1000
217411
1002
}
  0
VIEWPORT
  5
368
 67
     1
  8
0
  6
CONTINUOUS
 10
128.5
 20
97.5
 30
0.0
 40
582.84205479452055
 41
222.18000000000001
 68
     1
 69
     1
1001
ACAD
1000
MVIEW
1002
{
1070
    16
1010
0.0
1020
0.0
1030
0.0
1010
0.0
1020
0.0
1030
1.0
1040
0.0
1040
222.18000000000001
1040
128.5
1040
97.5
1040
50.0
1040
0.0
1040
0.0
1070
     0
1070
   100
1070
     1
1070
     1
1070
     0
1070
     0
1070
     0
1070
     0
1040
0.0
1040
0.0
1040
0.0
1040
10.0
1040
10.0
1040
10.0
1040
10.0
1070
     0
1002
{
1002
}
1002
}
  0
VIEWPORT
  5
36C
 67
     1
  8
0
  6
CONTINUOUS
 10
128.5
 20
97.5
 30
0.0
 40
205.59999999999999
 41
156.0
 68
     2
 69
     2
1001
ACAD
1000
MVIEW
1002
{
1070
    16
1010
0.0
1020
0.0
1030
0.0
1010
0.0
1020
0.0
1030
1.0
1040
0.0
1040
832.26021508111103
1040
-198.91743449954831
1040
20.922036242885611
1040
50.0
1040
0.0
1040
0.0
1070
     0
1070
  1000
1070
     1
1070
     1
1070
     0
1070
     0
1070
     0
1070
     0
1040
0.0
1040
0.0
1040
0.0
1040
1.0
1040
1.0
1040
0.0
1040
0.0
1070
     0
1002
{
1002
}
1002
}
  0
ENDSEC
  0
EOF
