  0
SECTION
  2
HEADER
  9
$ACADVER
  1
AC1009
  9
$INSBASE
 10
0.0
 20
0.0
 30
0.0
  9
$EXTMIN
 10
-280.49937484784959
 20
-279.61497359287671
 30
0.0
  9
$EXTMAX
 10
782.68615675663955
 20
333.63165972216581
 30
0.0
  9
$LIMMIN
 10
0.0
 20
0.0
  9
$LIMMAX
 10
12.0
 20
9.0
  9
$ORTHOMODE
 70
     0
  9
$REGENMODE
 70
     1
  9
$FILLMODE
 70
     1
  9
$QTEXTMODE
 70
     0
  9
$MIRRTEXT
 70
     0
  9
$DRAGMODE
 70
     2
  9
$LTSCALE
 40
1.0
  9
$OSMODE
 70
     0
  9
$ATTMODE
 70
     1
  9
$TEXTSIZE
 40
0.2
  9
$TRACEWID
 40
0.05
  9
$TEXTSTYLE
  7
STANDARD
  9
$CLAYER
  8
0
  9
$CELTYPE
  6
CONTINUOUS
  9
$CECOLOR
 62
   256
  9
$DIMSCALE
 40
1.0
  9
$DIMASZ
 40
0.18
  9
$DIMEXO
 40
0.0625
  9
$DIMDLI
 40
0.38
  9
$DIMRND
 40
0.0
  9
$DIMDLE
 40
0.0
  9
$DIMEXE
 40
0.18
  9
$DIMTP
 40
0.0
  9
$DIMTM
 40
0.0
  9
$DIMTXT
 40
0.18
  9
$DIMCEN
 40
0.09
  9
$DIMTSZ
 40
0.0
  9
$DIMTOL
 70
     0
  9
$DIMLIM
 70
     0
  9
$DIMTIH
 70
     1
  9
$DIMTOH
 70
     1
  9
$DIMSE1
 70
     0
  9
$DIMSE2
 70
     0
  9
$DIMTAD
 70
     0
  9
$DIMZIN
 70
     0
  9
$DIMBLK
  1

  9
$DIMASO
 70
     1
  9
$DIMSHO
 70
     1
  9
$DIMPOST
  1

  9
$DIMAPOST
  1

  9
$DIMALT
 70
     0
  9
$DIMALTD
 70
     2
  9
$DIMALTF
 40
25.399999999999999
  9
$DIMLFAC
 40
1.0
  9
$DIMTOFL
 70
     0
  9
$DIMTVP
 40
0.0
  9
$DIMTIX
 70
     0
  9
$DIMSOXD
 70
     0
  9
$DIMSAH
 70
     0
  9
$DIMBLK1
  1

  9
$DIMBLK2
  1

  9
$DIMSTYLE
  2
STANDARD
  9
$DIMCLRD
 70
     0
  9
$DIMCLRE
 70
     0
  9
$DIMCLRT
 70
     0
  9
$DIMTFAC
 40
1.0
  9
$DIMGAP
 40
0.09
  9
$LUNITS
 70
     2
  9
$LUPREC
 70
     4
  9
$SKETCHINC
 40
0.1
  9
$FILLETRAD
 40
0.0
  9
$AUNITS
 70
     0
  9
$AUPREC
 70
     0
  9
$MENU
  1
.
  9
$ELEVATION
 40
0.0
  9
$PELEVATION
 40
0.0
  9
$THICKNESS
 40
0.0
  9
$LIMCHECK
 70
     0
  9
$BLIPMODE
 70
     0
  9
$CHAMFERA
 40
0.0
  9
$CHAMFERB
 40
0.0
  9
$SKPOLY
 70
     0
  9
$TDCREATE
 40
2458069.997713611
  9
$TDUPDATE
 40
2458070.0790879279
  9
$TDINDWG
 40
0.0009335648
  9
$TDUSRTIMER
 40
0.0009335648
  9
$USRTIMER
 70
     1
  9
$ANGBASE
 50
0.0
  9
$ANGDIR
 70
     0
  9
$PDMODE
 70
     0
  9
$PDSIZE
 40
0.0
  9
$PLINEWID
 40
0.0
  9
$COORDS
 70
     2
  9
$SPLFRAME
 70
     0
  9
$SPLINETYPE
 70
     6
  9
$SPLINESEGS
 70
     8
  9
$ATTDIA
 70
     1
  9
$ATTREQ
 70
     0
  9
$HANDLING
 70
     1
  9
$HANDSEED
  5
7F4
  9
$SURFTAB1
 70
     6
  9
$SURFTAB2
 70
     6
  9
$SURFTYPE
 70
     6
  9
$SURFU
 70
     6
  9
$SURFV
 70
     6
  9
$UCSNAME
  2

  9
$UCSORG
 10
0.0
 20
0.0
 30
0.0
  9
$UCSXDIR
 10
1.0
 20
0.0
 30
0.0
  9
$UCSYDIR
 10
0.0
 20
1.0
 30
0.0
  9
$PUCSNAME
  2

  9
$PUCSORG
 10
0.0
 20
0.0
 30
0.0
  9
$PUCSXDIR
 10
1.0
 20
0.0
 30
0.0
  9
$PUCSYDIR
 10
0.0
 20
1.0
 30
0.0
  9
$USERI1
 70
     0
  9
$USERI2
 70
     0
  9
$USERI3
 70
     0
  9
$USERI4
 70
     0
  9
$USERI5
 70
     0
  9
$USERR1
 40
0.0
  9
$USERR2
 40
0.0
  9
$USERR3
 40
0.0
  9
$USERR4
 40
0.0
  9
$USERR5
 40
0.0
  9
$WORLDVIEW
 70
     1
  9
$SHADEDGE
 70
     3
  9
$SHADEDIF
 70
    70
  9
$TILEMODE
 70
     1
  9
$MAXACTVP
 70
    64
  9
$PLIMCHECK
 70
     0
  9
$PEXTMIN
 10
0.0
 20
0.0
 30
0.0
  9
$PEXTMAX
 10
0.0
 20
0.0
 30
0.0
  9
$PLIMMIN
 10
0.0
 20
0.0
  9
$PLIMMAX
 10
12.0
 20
9.0
  9
$UNITMODE
 70
     0
  9
$VISRETAIN
 70
     1
  9
$PLINEGEN
 70
     0
  9
$PSLTSCALE
 70
     1
  0
ENDSEC
  0
SECTION
  2
TABLES
  0
TABLE
  2
VPORT
 70
     1
  0
VPORT
  2
*ACTIVE
 70
     0
 10
0.0
 20
0.0
 11
1.0
 21
1.0
 12
502.43375056006403
 22
27.008344492470659
 13
0.0
 23
0.0
 14
1.0
 24
1.0
 15
0.0
 25
0.0
 16
0.0
 26
0.0
 36
1.0
 17
0.0
 27
0.0
 37
0.0
 40
598.16941542167103
 41
2.6232876712328759
 42
50.0
 43
0.0
 44
0.0
 50
0.0
 51
0.0
 71
     0
 72
  1000
 73
     1
 74
     3
 75
     0
 76
     0
 77
     0
 78
     0
  0
ENDTAB
  0
TABLE
  2
LTYPE
 70
     2
  0
LTYPE
  2
CONTINUOUS
 70
     0
  3
Solid line
 72
    65
 73
     0
 40
0.0
  0
LTYPE
  2
DASH
 70
     0
  3

 72
    65
 73
     2
 40
6.3499999999999988
 49
3.1749999999999989
 49
-3.1749999999999989
  0
ENDTAB
  0
TABLE
  2
LAYER
 70
     7
  0
LAYER
  2
0
 70
     0
 62
     7
  6
CONTINUOUS
  0
ENDTAB
  0
TABLE
  2
STYLE
 70
     2
  0
STYLE
  2
STANDARD
 70
     0
 40
0.0
 41
1.0
 50
0.0
 71
     0
 42
0.2
  3
txt
  4

  0
STYLE
  2
ARIAL
 70
     0
 40
9.8353293413173617
 41
1.0
 50
0.0
 71
     0
 42
0.2
  3
txt
  4

  0
ENDTAB
  0
TABLE
  2
VIEW
 70
     0
  0
ENDTAB
  0
TABLE
  2
UCS
 70
     0
  0
ENDTAB
  0
TABLE
  2
APPID
 70
     6
  0
APPID
  2
ACAD
 70
     0
  0
APPID
  2
ACADANNOTATIVE
 70
     0
  0
APPID
  2
REVIT
 70
     0
  0
APPID
  2
ACAD_PSEXT
 70
     0
  0
APPID
  2
ACAD_MLEADERVER
 70
     0
  0
APPID
  2
ACAD_NAV_VCDISPLAY
 70
     0
  0
ENDTAB
  0
TABLE
  2
DIMSTYLE
 70
     1
  0
DIMSTYLE
  2
STANDARD
 70
     0
  3

  4

  5

  6

  7

 40
1.0
 41
0.18
 42
0.0625
 43
0.38
 44
0.18
 45
0.0
 46
0.0
 47
0.0
 48
0.0
140
0.18
141
0.09
142
0.0
143
25.399999999999999
144
1.0
145
0.0
146
1.0
147
0.09
 71
     0
 72
     0
 73
     1
 74
     1
 75
     0
 76
     0
 77
     0
 78
     0
170
     0
171
     2
172
     0
173
     0
174
     0
175
     0
176
     0
177
     0
178
     0
  0
ENDTAB
  0
ENDSEC
  0
SECTION
  2
BLOCKS
  0
BLOCK
  8
0
  2
$MODEL_SPACE
 70
     0
 10
0.0
 20
0.0
 30
0.0
  3
$MODEL_SPACE
  1

  0
ENDBLK
  5
72
  8
0
  0
BLOCK
 67
     1
  8
0
  2
$PAPER_SPACE
 70
     0
 10
0.0
 20
0.0
 30
0.0
  3
$PAPER_SPACE
  1

  0
ENDBLK
  5
3EB
 67
     1
  8
0
  0
BLOCK
  8
0
  2
*U21
 70
     1
 10
0.0
 20
0.0
 30
0.0
  3
*U21
  1

  0
SOLID
  5
512
  8
0
  6
CONTINUOUS
 10
16.483701512987839
 20
122.4080480157685
 30
0.0
 11
15.71833464825766
 21
122.2558070807911
 31
0.0
 12
17.249068377718022
 22
122.2558070807911
 32
0.0
 13
17.249068377718022
 23
122.2558070807911
 33
0.0
210
0.0
220
0.0
230
1.0
  0
SOLID
  5
513
  8
0
  6
CONTINUOUS
 10
15.71833464825766
 20
122.2558070807911
 30
0.0
 11
15.069487950614739
 21
121.82226157814161
 31
0.0
 12
17.897915075360931
 22
121.82226157814161
 32
0.0
 13
17.897915075360931
 23
121.82226157814161
 33
0.0
210
0.0
220
0.0
230
1.0
  0
SOLID
  5
514
  8
0
  6
CONTINUOUS
 10
-15.71833464825766
 20
122.2558070807911
 30
0.0
 11
-17.249068377718022
 21
122.2558070807911
 31
0.0
 12
-17.897915075360931
 22
121.82226157814161
 32
0.0
 13
-17.897915075360931
 23
121.82226157814161
 33
0.0
210
0.0
220
0.0
230
-1.0
  0
SOLID
  5
515
  8
0
  6
CONTINUOUS
 10
15.069487950614739
 20
121.82226157814161
 30
0.0
 11
14.63594244796526
 21
121.1734148804987
 31
0.0
 12
18.331460578010411
 22
121.1734148804987
 32
0.0
 13
18.331460578010411
 23
121.1734148804987
 33
0.0
210
0.0
220
0.0
230
1.0
  0
SOLID
  5
516
  8
0
  6
CONTINUOUS
 10
-15.069487950614739
 20
121.82226157814161
 30
0.0
 11
-17.897915075360931
 21
121.82226157814161
 31
0.0
 12
-18.331460578010411
 22
121.1734148804987
 32
0.0
 13
-18.331460578010411
 23
121.1734148804987
 33
0.0
210
0.0
220
0.0
230
-1.0
  0
SOLID
  5
517
  8
0
  6
CONTINUOUS
 10
14.63594244796526
 20
121.1734148804987
 30
0.0
 11
14.483701512987841
 21
120.4080480157685
 31
0.0
 12
18.483701512987839
 22
120.4080480157685
 32
0.0
 13
18.483701512987839
 23
120.4080480157685
 33
0.0
210
0.0
220
0.0
230
1.0
  0
SOLID
  5
518
  8
0
  6
CONTINUOUS
 10
-14.63594244796526
 20
121.1734148804987
 30
0.0
 11
-18.331460578010411
 21
121.1734148804987
 31
0.0
 12
-18.483701512987839
 22
120.4080480157685
 32
0.0
 13
-18.483701512987839
 23
120.4080480157685
 33
0.0
210
0.0
220
0.0
230
-1.0
  0
SOLID
  5
519
  8
0
  6
CONTINUOUS
 10
14.483701512987841
 20
120.4080480157685
 30
0.0
 11
14.63594244796526
 21
119.6426811510383
 31
0.0
 12
18.331460578010411
 22
119.6426811510383
 32
0.0
 13
18.331460578010411
 23
119.6426811510383
 33
0.0
210
0.0
220
0.0
230
1.0
  0
SOLID
  5
51A
  8
0
  6
CONTINUOUS
 10
-14.483701512987841
 20
120.4080480157685
 30
0.0
 11
-18.483701512987839
 21
120.4080480157685
 31
0.0
 12
-18.331460578010411
 22
119.6426811510383
 32
0.0
 13
-18.331460578010411
 23
119.6426811510383
 33
0.0
210
0.0
220
0.0
230
-1.0
  0
SOLID
  5
51B
  8
0
  6
CONTINUOUS
 10
14.63594244796526
 20
119.6426811510383
 30
0.0
 11
15.069487950614739
 21
118.99383445339539
 31
0.0
 12
17.897915075360931
 22
118.99383445339539
 32
0.0
 13
17.897915075360931
 23
118.99383445339539
 33
0.0
210
0.0
220
0.0
230
1.0
  0
SOLID
  5
51C
  8
0
  6
CONTINUOUS
 10
-14.63594244796526
 20
119.6426811510383
 30
0.0
 11
-18.331460578010411
 21
119.6426811510383
 31
0.0
 12
-17.897915075360931
 22
118.99383445339539
 32
0.0
 13
-17.897915075360931
 23
118.99383445339539
 33
0.0
210
0.0
220
0.0
230
-1.0
  0
SOLID
  5
51D
  8
0
  6
CONTINUOUS
 10
-15.71833464825766
 20
118.560288950746
 30
0.0
 11
-17.249068377718022
 21
118.560288950746
 31
0.0
 12
-16.483701512987839
 22
118.4080480157685
 32
0.0
 13
-16.483701512987839
 23
118.4080480157685
 33
0.0
210
0.0
220
0.0
230
-1.0
  0
SOLID
  5
51E
  8
0
  6
CONTINUOUS
 10
15.069487950614739
 20
118.99383445339539
 30
0.0
 11
15.71833464825766
 21
118.560288950746
 31
0.0
 12
17.249068377718022
 22
118.560288950746
 32
0.0
 13
17.249068377718022
 23
118.560288950746
 33
0.0
210
0.0
220
0.0
230
1.0
  0
SOLID
  5
51F
  8
0
  6
CONTINUOUS
 10
-15.069487950614739
 20
118.99383445339539
 30
0.0
 11
-17.897915075360931
 21
118.99383445339539
 31
0.0
 12
-17.249068377718022
 22
118.560288950746
 32
0.0
 13
-17.249068377718022
 23
118.560288950746
 33
0.0
210
0.0
220
0.0
230
-1.0
  0
LINE
  5
520
  8
0
  6
CONTINUOUS
 10
16.483701512987839
 20
122.4080480157685
 30
0.0
 11
15.71833464825766
 21
122.2558070807911
 31
0.0
  0
LINE
  5
521
  8
0
  6
CONTINUOUS
 10
17.249068377718022
 20
122.2558070807911
 30
0.0
 11
16.483701512987839
 21
122.4080480157685
 31
0.0
  0
LINE
  5
522
  8
0
  6
CONTINUOUS
 10
15.71833464825766
 20
122.2558070807911
 30
0.0
 11
15.069487950614739
 21
121.82226157814161
 31
0.0
  0
LINE
  5
523
  8
0
  6
CONTINUOUS
 10
17.249068377718022
 20
122.2558070807911
 30
0.0
 11
17.897915075360931
 21
121.82226157814161
 31
0.0
  0
LINE
  5
524
  8
0
  6
CONTINUOUS
 10
15.069487950614739
 20
121.82226157814161
 30
0.0
 11
14.63594244796526
 21
121.1734148804987
 31
0.0
  0
LINE
  5
525
  8
0
  6
CONTINUOUS
 10
17.897915075360931
 20
121.82226157814161
 30
0.0
 11
18.331460578010411
 21
121.1734148804987
 31
0.0
  0
LINE
  5
526
  8
0
  6
CONTINUOUS
 10
14.63594244796526
 20
121.1734148804987
 30
0.0
 11
14.483701512987841
 21
120.4080480157685
 31
0.0
  0
LINE
  5
527
  8
0
  6
CONTINUOUS
 10
18.331460578010411
 20
121.1734148804987
 30
0.0
 11
18.483701512987839
 21
120.4080480157685
 31
0.0
  0
LINE
  5
528
  8
0
  6
CONTINUOUS
 10
14.483701512987841
 20
120.4080480157685
 30
0.0
 11
14.63594244796526
 21
119.6426811510383
 31
0.0
  0
LINE
  5
529
  8
0
  6
CONTINUOUS
 10
18.483701512987839
 20
120.4080480157685
 30
0.0
 11
18.331460578010411
 21
119.6426811510383
 31
0.0
  0
LINE
  5
52A
  8
0
  6
CONTINUOUS
 10
14.63594244796526
 20
119.6426811510383
 30
0.0
 11
15.069487950614739
 21
118.99383445339539
 31
0.0
  0
LINE
  5
52B
  8
0
  6
CONTINUOUS
 10
18.331460578010411
 20
119.6426811510383
 30
0.0
 11
17.897915075360931
 21
118.99383445339539
 31
0.0
  0
LINE
  5
52C
  8
0
  6
CONTINUOUS
 10
17.249068377718022
 20
118.560288950746
 30
0.0
 11
16.483701512987839
 21
118.4080480157685
 31
0.0
  0
LINE
  5
52D
  8
0
  6
CONTINUOUS
 10
16.483701512987839
 20
118.4080480157685
 30
0.0
 11
15.71833464825766
 21
118.560288950746
 31
0.0
  0
LINE
  5
52E
  8
0
  6
CONTINUOUS
 10
15.069487950614739
 20
118.99383445339539
 30
0.0
 11
15.71833464825766
 21
118.560288950746
 31
0.0
  0
LINE
  5
52F
  8
0
  6
CONTINUOUS
 10
17.897915075360931
 20
118.99383445339539
 30
0.0
 11
17.249068377718022
 21
118.560288950746
 31
0.0
  0
ENDBLK
  5
531
  8
0
  0
BLOCK
  8
0
  2
*U22
 70
     1
 10
0.0
 20
0.0
 30
0.0
  3
*U22
  1

  0
TEXT
  5
533
  8
0
  6
CONTINUOUS
 10
-210.46914101577471
 20
261.9585473180253
 30
0.0
 40
9.8353293413173617
  1
Underlay
  7
ARIAL
  0
ENDBLK
  5
535
  8
0
  0
BLOCK
  8
0
  2
*U23
 70
     1
 10
0.0
 20
0.0
 30
0.0
  3
*U23
  1

  0
SOLID
  5
537
  8
0
  6
CONTINUOUS
 10
-31.106703976503031
 20
115.77888224415101
 30
0.0
 11
-31.87207084123321
 21
115.62664130917361
 31
0.0
 12
-30.341337111772852
 22
115.62664130917361
 32
0.0
 13
-30.341337111772852
 23
115.62664130917361
 33
0.0
210
0.0
220
0.0
230
1.0
  0
SOLID
  5
538
  8
0
  6
CONTINUOUS
 10
-31.87207084123321
 20
115.62664130917361
 30
0.0
 11
-32.52091753887612
 21
115.1930958065241
 31
0.0
 12
-29.692490414129932
 22
115.1930958065241
 32
0.0
 13
-29.692490414129932
 23
115.1930958065241
 33
0.0
210
0.0
220
0.0
230
1.0
  0
SOLID
  5
539
  8
0
  6
CONTINUOUS
 10
31.87207084123321
 20
115.62664130917361
 30
0.0
 11
30.341337111772852
 21
115.62664130917361
 31
0.0
 12
29.692490414129932
 22
115.1930958065241
 32
0.0
 13
29.692490414129932
 23
115.1930958065241
 33
0.0
210
0.0
220
0.0
230
-1.0
  0
SOLID
  5
53A
  8
0
  6
CONTINUOUS
 10
-32.52091753887612
 20
115.1930958065241
 30
0.0
 11
-32.954463041525599
 21
114.5442491088812
 31
0.0
 12
-29.258944911480452
 22
114.5442491088812
 32
0.0
 13
-29.258944911480452
 23
114.5442491088812
 33
0.0
210
0.0
220
0.0
230
1.0
  0
SOLID
  5
53B
  8
0
  6
CONTINUOUS
 10
32.52091753887612
 20
115.1930958065241
 30
0.0
 11
29.692490414129932
 21
115.1930958065241
 31
0.0
 12
29.258944911480452
 22
114.5442491088812
 32
0.0
 13
29.258944911480452
 23
114.5442491088812
 33
0.0
210
0.0
220
0.0
230
-1.0
  0
SOLID
  5
53C
  8
0
  6
CONTINUOUS
 10
-32.954463041525599
 20
114.5442491088812
 30
0.0
 11
-33.106703976503027
 21
113.77888224415101
 31
0.0
 12
-29.10670397650302
 22
113.77888224415101
 32
0.0
 13
-29.10670397650302
 23
113.77888224415101
 33
0.0
210
0.0
220
0.0
230
1.0
  0
SOLID
  5
53D
  8
0
  6
CONTINUOUS
 10
32.954463041525599
 20
114.5442491088812
 30
0.0
 11
29.258944911480452
 21
114.5442491088812
 31
0.0
 12
29.10670397650302
 22
113.77888224415101
 32
0.0
 13
29.10670397650302
 23
113.77888224415101
 33
0.0
210
0.0
220
0.0
230
-1.0
  0
SOLID
  5
53E
  8
0
  6
CONTINUOUS
 10
-33.106703976503027
 20
113.77888224415101
 30
0.0
 11
-32.954463041525599
 21
113.0135153794208
 31
0.0
 12
-29.258944911480452
 22
113.0135153794208
 32
0.0
 13
-29.258944911480452
 23
113.0135153794208
 33
0.0
210
0.0
220
0.0
230
1.0
  0
SOLID
  5
53F
  8
0
  6
CONTINUOUS
 10
33.106703976503027
 20
113.77888224415101
 30
0.0
 11
29.10670397650302
 21
113.77888224415101
 31
0.0
 12
29.258944911480452
 22
113.0135153794208
 32
0.0
 13
29.258944911480452
 23
113.0135153794208
 33
0.0
210
0.0
220
0.0
230
-1.0
  0
SOLID
  5
540
  8
0
  6
CONTINUOUS
 10
-32.954463041525599
 20
113.0135153794208
 30
0.0
 11
-32.52091753887612
 21
112.3646686817779
 31
0.0
 12
-29.692490414129932
 22
112.3646686817779
 32
0.0
 13
-29.692490414129932
 23
112.3646686817779
 33
0.0
210
0.0
220
0.0
230
1.0
  0
SOLID
  5
541
  8
0
  6
CONTINUOUS
 10
32.954463041525599
 20
113.0135153794208
 30
0.0
 11
29.258944911480452
 21
113.0135153794208
 31
0.0
 12
29.692490414129932
 22
112.3646686817779
 32
0.0
 13
29.692490414129932
 23
112.3646686817779
 33
0.0
210
0.0
220
0.0
230
-1.0
  0
SOLID
  5
542
  8
0
  6
CONTINUOUS
 10
31.87207084123321
 20
111.93112317912841
 30
0.0
 11
30.341337111772852
 21
111.93112317912841
 31
0.0
 12
31.106703976503031
 22
111.77888224415101
 32
0.0
 13
31.106703976503031
 23
111.77888224415101
 33
0.0
210
0.0
220
0.0
230
-1.0
  0
SOLID
  5
543
  8
0
  6
CONTINUOUS
 10
-32.52091753887612
 20
112.3646686817779
 30
0.0
 11
-31.87207084123321
 21
111.93112317912841
 31
0.0
 12
-30.341337111772852
 22
111.93112317912841
 32
0.0
 13
-30.341337111772852
 23
111.93112317912841
 33
0.0
210
0.0
220
0.0
230
1.0
  0
SOLID
  5
544
  8
0
  6
CONTINUOUS
 10
32.52091753887612
 20
112.3646686817779
 30
0.0
 11
29.692490414129932
 21
112.3646686817779
 31
0.0
 12
30.341337111772852
 22
111.93112317912841
 32
0.0
 13
30.341337111772852
 23
111.93112317912841
 33
0.0
210
0.0
220
0.0
230
-1.0
  0
LINE
  5
545
  8
0
  6
CONTINUOUS
 10
-31.106703976503031
 20
115.77888224415101
 30
0.0
 11
-31.87207084123321
 21
115.62664130917361
 31
0.0
  0
LINE
  5
546
  8
0
  6
CONTINUOUS
 10
-30.341337111772852
 20
115.62664130917361
 30
0.0
 11
-31.106703976503031
 21
115.77888224415101
 31
0.0
  0
LINE
  5
547
  8
0
  6
CONTINUOUS
 10
-31.87207084123321
 20
115.62664130917361
 30
0.0
 11
-32.52091753887612
 21
115.1930958065241
 31
0.0
  0
LINE
  5
548
  8
0
  6
CONTINUOUS
 10
-30.341337111772852
 20
115.62664130917361
 30
0.0
 11
-29.692490414129932
 21
115.1930958065241
 31
0.0
  0
LINE
  5
549
  8
0
  6
CONTINUOUS
 10
-32.52091753887612
 20
115.1930958065241
 30
0.0
 11
-32.954463041525599
 21
114.5442491088812
 31
0.0
  0
LINE
  5
54A
  8
0
  6
CONTINUOUS
 10
-29.692490414129932
 20
115.1930958065241
 30
0.0
 11
-29.258944911480452
 21
114.5442491088812
 31
0.0
  0
LINE
  5
54B
  8
0
  6
CONTINUOUS
 10
-32.954463041525599
 20
114.5442491088812
 30
0.0
 11
-33.106703976503027
 21
113.77888224415101
 31
0.0
  0
LINE
  5
54C
  8
0
  6
CONTINUOUS
 10
-29.258944911480452
 20
114.5442491088812
 30
0.0
 11
-29.10670397650302
 21
113.77888224415101
 31
0.0
  0
LINE
  5
54D
  8
0
  6
CONTINUOUS
 10
-33.106703976503027
 20
113.77888224415101
 30
0.0
 11
-32.954463041525599
 21
113.0135153794208
 31
0.0
  0
LINE
  5
54E
  8
0
  6
CONTINUOUS
 10
-29.10670397650302
 20
113.77888224415101
 30
0.0
 11
-29.258944911480452
 21
113.0135153794208
 31
0.0
  0
LINE
  5
54F
  8
0
  6
CONTINUOUS
 10
-32.954463041525599
 20
113.0135153794208
 30
0.0
 11
-32.52091753887612
 21
112.3646686817779
 31
0.0
  0
LINE
  5
550
  8
0
  6
CONTINUOUS
 10
-29.258944911480452
 20
113.0135153794208
 30
0.0
 11
-29.692490414129932
 21
112.3646686817779
 31
0.0
  0
LINE
  5
551
  8
0
  6
CONTINUOUS
 10
-30.341337111772852
 20
111.93112317912841
 30
0.0
 11
-31.106703976503031
 21
111.77888224415101
 31
0.0
  0
LINE
  5
552
  8
0
  6
CONTINUOUS
 10
-31.106703976503031
 20
111.77888224415101
 30
0.0
 11
-31.87207084123321
 21
111.93112317912841
 31
0.0
  0
LINE
  5
553
  8
0
  6
CONTINUOUS
 10
-32.52091753887612
 20
112.3646686817779
 30
0.0
 11
-31.87207084123321
 21
111.93112317912841
 31
0.0
  0
LINE
  5
554
  8
0
  6
CONTINUOUS
 10
-29.692490414129932
 20
112.3646686817779
 30
0.0
 11
-30.341337111772852
 21
111.93112317912841
 31
0.0
  0
ENDBLK
  5
556
  8
0
  0
BLOCK
  8
0
  2
*U24
 70
     1
 10
0.0
 20
0.0
 30
0.0
  3
*U24
  1

  0
TEXT
  5
558
  8
0
  6
CONTINUOUS
 10
-210.00622305905509
 20
203.43824601235869
 30
0.0
 40
9.8353293413173617
  1
Substrate
  7
ARIAL
  0
ENDBLK
  5
55A
  8
0
  0
BLOCK
  8
0
  2
*U25
 70
     1
 10
0.0
 20
0.0
 30
0.0
  3
*U25
  1

  0
SOLID
  5
55C
  8
0
  6
CONTINUOUS
 10
414.80110512497521
 20
-5.3438215980008543
 30
0.0
 11
414.03573826024501
 21
-5.4960625329782804
 31
0.0
 12
415.56647198970529
 22
-5.4960625329782804
 32
0.0
 13
415.56647198970529
 23
-5.4960625329782804
 33
0.0
210
0.0
220
0.0
230
1.0
  0
SOLID
  5
55D
  8
0
  6
CONTINUOUS
 10
414.03573826024501
 20
-5.4960625329782804
 30
0.0
 11
413.38689156260199
 21
-5.9296080356277576
 31
0.0
 12
416.2153186873482
 22
-5.9296080356277576
 32
0.0
 13
416.2153186873482
 23
-5.9296080356277576
 33
0.0
210
0.0
220
0.0
230
1.0
  0
SOLID
  5
55E
  8
0
  6
CONTINUOUS
 10
-414.03573826024501
 20
-5.4960625329782804
 30
0.0
 11
-415.56647198970529
 21
-5.4960625329782804
 31
0.0
 12
-416.2153186873482
 22
-5.9296080356277576
 32
0.0
 13
-416.2153186873482
 23
-5.9296080356277576
 33
0.0
210
0.0
220
0.0
230
-1.0
  0
SOLID
  5
55F
  8
0
  6
CONTINUOUS
 10
413.38689156260199
 20
-5.9296080356277576
 30
0.0
 11
412.95334605995259
 21
-6.5784547332706733
 31
0.0
 12
416.64886418999771
 22
-6.5784547332706733
 32
0.0
 13
416.64886418999771
 23
-6.5784547332706733
 33
0.0
210
0.0
220
0.0
230
1.0
  0
SOLID
  5
560
  8
0
  6
CONTINUOUS
 10
-413.38689156260199
 20
-5.9296080356277576
 30
0.0
 11
-416.2153186873482
 21
-5.9296080356277576
 31
0.0
 12
-416.64886418999771
 22
-6.5784547332706733
 32
0.0
 13
-416.64886418999771
 23
-6.5784547332706733
 33
0.0
210
0.0
220
0.0
230
-1.0
  0
SOLID
  5
561
  8
0
  6
CONTINUOUS
 10
412.95334605995259
 20
-6.5784547332706733
 30
0.0
 11
412.80110512497509
 21
-7.3438215980008508
 31
0.0
 12
416.80110512497509
 22
-7.3438215980008508
 32
0.0
 13
416.80110512497509
 23
-7.3438215980008508
 33
0.0
210
0.0
220
0.0
230
1.0
  0
SOLID
  5
562
  8
0
  6
CONTINUOUS
 10
-412.95334605995259
 20
-6.5784547332706733
 30
0.0
 11
-416.64886418999771
 21
-6.5784547332706733
 31
0.0
 12
-416.80110512497509
 22
-7.3438215980008508
 32
0.0
 13
-416.80110512497509
 23
-7.3438215980008508
 33
0.0
210
0.0
220
0.0
230
-1.0
  0
SOLID
  5
563
  8
0
  6
CONTINUOUS
 10
412.80110512497509
 20
-7.3438215980008508
 30
0.0
 11
412.95334605995259
 21
-8.10918846273103
 31
0.0
 12
416.64886418999771
 22
-8.10918846273103
 32
0.0
 13
416.64886418999771
 23
-8.10918846273103
 33
0.0
210
0.0
220
0.0
230
1.0
  0
SOLID
  5
564
  8
0
  6
CONTINUOUS
 10
-412.80110512497509
 20
-7.3438215980008508
 30
0.0
 11
-416.80110512497509
 21
-7.3438215980008508
 31
0.0
 12
-416.64886418999771
 22
-8.10918846273103
 32
0.0
 13
-416.64886418999771
 23
-8.10918846273103
 33
0.0
210
0.0
220
0.0
230
-1.0
  0
SOLID
  5
565
  8
0
  6
CONTINUOUS
 10
412.95334605995259
 20
-8.10918846273103
 30
0.0
 11
413.38689156260199
 21
-8.7580351603739448
 31
0.0
 12
416.2153186873482
 22
-8.7580351603739448
 32
0.0
 13
416.2153186873482
 23
-8.7580351603739448
 33
0.0
210
0.0
220
0.0
230
1.0
  0
SOLID
  5
566
  8
0
  6
CONTINUOUS
 10
-412.95334605995259
 20
-8.10918846273103
 30
0.0
 11
-416.64886418999771
 21
-8.10918846273103
 31
0.0
 12
-416.2153186873482
 22
-8.7580351603739448
 32
0.0
 13
-416.2153186873482
 23
-8.7580351603739448
 33
0.0
210
0.0
220
0.0
230
-1.0
  0
SOLID
  5
567
  8
0
  6
CONTINUOUS
 10
-414.03573826024501
 20
-9.1915806630234211
 30
0.0
 11
-415.56647198970529
 21
-9.1915806630234211
 31
0.0
 12
-414.80110512497521
 22
-9.3438215980008472
 32
0.0
 13
-414.80110512497521
 23
-9.3438215980008472
 33
0.0
210
0.0
220
0.0
230
-1.0
  0
SOLID
  5
568
  8
0
  6
CONTINUOUS
 10
413.38689156260199
 20
-8.7580351603739448
 30
0.0
 11
414.03573826024501
 21
-9.1915806630234211
 31
0.0
 12
415.56647198970529
 22
-9.1915806630234211
 32
0.0
 13
415.56647198970529
 23
-9.1915806630234211
 33
0.0
210
0.0
220
0.0
230
1.0
  0
SOLID
  5
569
  8
0
  6
CONTINUOUS
 10
-413.38689156260199
 20
-8.7580351603739448
 30
0.0
 11
-416.2153186873482
 21
-8.7580351603739448
 31
0.0
 12
-415.56647198970529
 22
-9.1915806630234211
 32
0.0
 13
-415.56647198970529
 23
-9.1915806630234211
 33
0.0
210
0.0
220
0.0
230
-1.0
  0
LINE
  5
56A
  8
0
  6
CONTINUOUS
 10
414.80110512497521
 20
-5.3438215980008543
 30
0.0
 11
414.03573826024501
 21
-5.4960625329782804
 31
0.0
  0
LINE
  5
56B
  8
0
  6
CONTINUOUS
 10
415.56647198970529
 20
-5.4960625329782804
 30
0.0
 11
414.80110512497521
 21
-5.3438215980008543
 31
0.0
  0
LINE
  5
56C
  8
0
  6
CONTINUOUS
 10
414.03573826024501
 20
-5.4960625329782804
 30
0.0
 11
413.38689156260199
 21
-5.9296080356277576
 31
0.0
  0
LINE
  5
56D
  8
0
  6
CONTINUOUS
 10
415.56647198970529
 20
-5.4960625329782804
 30
0.0
 11
416.2153186873482
 21
-5.9296080356277576
 31
0.0
  0
LINE
  5
56E
  8
0
  6
CONTINUOUS
 10
413.38689156260199
 20
-5.9296080356277576
 30
0.0
 11
412.95334605995259
 21
-6.5784547332706733
 31
0.0
  0
LINE
  5
56F
  8
0
  6
CONTINUOUS
 10
416.2153186873482
 20
-5.9296080356277576
 30
0.0
 11
416.64886418999771
 21
-6.5784547332706733
 31
0.0
  0
LINE
  5
570
  8
0
  6
CONTINUOUS
 10
412.95334605995259
 20
-6.5784547332706733
 30
0.0
 11
412.80110512497509
 21
-7.3438215980008508
 31
0.0
  0
LINE
  5
571
  8
0
  6
CONTINUOUS
 10
416.64886418999771
 20
-6.5784547332706733
 30
0.0
 11
416.80110512497509
 21
-7.3438215980008508
 31
0.0
  0
LINE
  5
572
  8
0
  6
CONTINUOUS
 10
412.80110512497509
 20
-7.3438215980008508
 30
0.0
 11
412.95334605995259
 21
-8.10918846273103
 31
0.0
  0
LINE
  5
573
  8
0
  6
CONTINUOUS
 10
416.80110512497509
 20
-7.3438215980008508
 30
0.0
 11
416.64886418999771
 21
-8.10918846273103
 31
0.0
  0
LINE
  5
574
  8
0
  6
CONTINUOUS
 10
412.95334605995259
 20
-8.10918846273103
 30
0.0
 11
413.38689156260199
 21
-8.7580351603739448
 31
0.0
  0
LINE
  5
575
  8
0
  6
CONTINUOUS
 10
416.64886418999771
 20
-8.10918846273103
 30
0.0
 11
416.2153186873482
 21
-8.7580351603739448
 31
0.0
  0
LINE
  5
576
  8
0
  6
CONTINUOUS
 10
415.56647198970529
 20
-9.1915806630234211
 30
0.0
 11
414.80110512497521
 21
-9.3438215980008472
 31
0.0
  0
LINE
  5
577
  8
0
  6
CONTINUOUS
 10
414.80110512497521
 20
-9.3438215980008472
 30
0.0
 11
414.03573826024501
 21
-9.1915806630234211
 31
0.0
  0
LINE
  5
578
  8
0
  6
CONTINUOUS
 10
413.38689156260199
 20
-8.7580351603739448
 30
0.0
 11
414.03573826024501
 21
-9.1915806630234211
 31
0.0
  0
LINE
  5
579
  8
0
  6
CONTINUOUS
 10
416.2153186873482
 20
-8.7580351603739448
 30
0.0
 11
415.56647198970529
 21
-9.1915806630234211
 31
0.0
  0
ENDBLK
  5
57B
  8
0
  0
BLOCK
  8
0
  2
*U26
 70
     1
 10
0.0
 20
0.0
 30
0.0
  3
*U26
  1

  0
TEXT
  5
57D
  8
0
  6
CONTINUOUS
 10
582.44623890461787
 20
-158.8489120456926
 30
0.0
 40
9.8353293413173617
  1
Soffit lining
  7
ARIAL
  0
ENDBLK
  5
57F
  8
0
  0
BLOCK
  8
0
  2
*U27
 70
     1
 10
0.0
 20
0.0
 30
0.0
  3
*U27
  1

  0
TEXT
  5
581
  8
0
  6
CONTINUOUS
 10
289.83795124406299
 20
-273.87769814377498
 30
0.0
 40
9.8353293413173652
  1
* Barge board must not project higher than the top of plywood sheet
  7
ARIAL
  0
ENDBLK
  5
583
  8
0
  0
BLOCK
  8
0
  2
*U28
 70
     1
 10
0.0
 20
0.0
 30
0.0
  3
*U28
  1

  0
SOLID
  5
585
  8
0
  6
CONTINUOUS
 10
514.52881619290054
 20
-15.206838883836349
 30
0.0
 11
513.76344932817028
 21
-15.359079818813781
 31
0.0
 12
515.29418305763056
 22
-15.359079818813781
 32
0.0
 13
515.29418305763056
 23
-15.359079818813781
 33
0.0
210
0.0
220
0.0
230
1.0
  0
SOLID
  5
586
  8
0
  6
CONTINUOUS
 10
513.76344932817028
 20
-15.359079818813781
 30
0.0
 11
513.11460263052743
 21
-15.792625321463261
 31
0.0
 12
515.94302975527364
 22
-15.792625321463261
 32
0.0
 13
515.94302975527364
 23
-15.792625321463261
 33
0.0
210
0.0
220
0.0
230
1.0
  0
SOLID
  5
587
  8
0
  6
CONTINUOUS
 10
-513.76344932817028
 20
-15.359079818813781
 30
0.0
 11
-515.29418305763056
 21
-15.359079818813781
 31
0.0
 12
-515.94302975527364
 22
-15.792625321463261
 32
0.0
 13
-515.94302975527364
 23
-15.792625321463261
 33
0.0
210
0.0
220
0.0
230
-1.0
  0
SOLID
  5
588
  8
0
  6
CONTINUOUS
 10
513.11460263052743
 20
-15.792625321463261
 30
0.0
 11
512.68105712787792
 21
-16.44147201910619
 31
0.0
 12
516.37657525792315
 22
-16.44147201910619
 32
0.0
 13
516.37657525792315
 23
-16.44147201910619
 33
0.0
210
0.0
220
0.0
230
1.0
  0
SOLID
  5
589
  8
0
  6
CONTINUOUS
 10
-513.11460263052743
 20
-15.792625321463261
 30
0.0
 11
-515.94302975527364
 21
-15.792625321463261
 31
0.0
 12
-516.37657525792315
 22
-16.44147201910619
 32
0.0
 13
-516.37657525792315
 23
-16.44147201910619
 33
0.0
210
0.0
220
0.0
230
-1.0
  0
SOLID
  5
58A
  8
0
  6
CONTINUOUS
 10
512.68105712787792
 20
-16.44147201910619
 30
0.0
 11
512.52881619290054
 21
-17.20683888383639
 31
0.0
 12
516.52881619290054
 22
-17.20683888383639
 32
0.0
 13
516.52881619290054
 23
-17.20683888383639
 33
0.0
210
0.0
220
0.0
230
1.0
  0
SOLID
  5
58B
  8
0
  6
CONTINUOUS
 10
-512.68105712787792
 20
-16.44147201910619
 30
0.0
 11
-516.37657525792315
 21
-16.44147201910619
 31
0.0
 12
-516.52881619290054
 22
-17.20683888383639
 32
0.0
 13
-516.52881619290054
 23
-17.20683888383639
 33
0.0
210
0.0
220
0.0
230
-1.0
  0
SOLID
  5
58C
  8
0
  6
CONTINUOUS
 10
512.52881619290054
 20
-17.20683888383639
 30
0.0
 11
512.68105712787792
 21
-17.97220574856658
 31
0.0
 12
516.37657525792315
 22
-17.97220574856658
 32
0.0
 13
516.37657525792315
 23
-17.97220574856658
 33
0.0
  0
SOLID
  5
58D
  8
0
  6
CONTINUOUS
 10
-512.52881619290054
 20
-17.20683888383639
 30
0.0
 11
-516.52881619290054
 21
-17.20683888383639
 31
0.0
 12
-516.37657525792315
 22
-17.97220574856658
 32
0.0
 13
-516.37657525792315
 23
-17.97220574856658
 33
0.0
210
0.0
220
0.0
230
-1.0
  0
SOLID
  5
58E
  8
0
  6
CONTINUOUS
 10
512.68105712787792
 20
-17.97220574856658
 30
0.0
 11
513.11460263052743
 21
-18.6210524462095
 31
0.0
 12
515.94302975527364
 22
-18.6210524462095
 32
0.0
 13
515.94302975527364
 23
-18.6210524462095
 33
0.0
210
0.0
220
0.0
230
1.0
  0
SOLID
  5
58F
  8
0
  6
CONTINUOUS
 10
-512.68105712787792
 20
-17.97220574856658
 30
0.0
 11
-516.37657525792315
 21
-17.97220574856658
 31
0.0
 12
-515.94302975527364
 22
-18.6210524462095
 32
0.0
 13
-515.94302975527364
 23
-18.6210524462095
 33
0.0
210
0.0
220
0.0
230
-1.0
  0
SOLID
  5
590
  8
0
  6
CONTINUOUS
 10
-513.76344932817028
 20
-19.054597948858991
 30
0.0
 11
-515.29418305763056
 21
-19.054597948858991
 31
0.0
 12
-514.52881619290054
 22
-19.206838883836419
 32
0.0
 13
-514.52881619290054
 23
-19.206838883836419
 33
0.0
210
0.0
220
0.0
230
-1.0
  0
SOLID
  5
591
  8
0
  6
CONTINUOUS
 10
513.11460263052743
 20
-18.6210524462095
 30
0.0
 11
513.76344932817028
 21
-19.054597948858991
 31
0.0
 12
515.29418305763056
 22
-19.054597948858991
 32
0.0
 13
515.29418305763056
 23
-19.054597948858991
 33
0.0
  0
SOLID
  5
592
  8
0
  6
CONTINUOUS
 10
-513.11460263052743
 20
-18.6210524462095
 30
0.0
 11
-515.94302975527364
 21
-18.6210524462095
 31
0.0
 12
-515.29418305763056
 22
-19.054597948858991
 32
0.0
 13
-515.29418305763056
 23
-19.054597948858991
 33
0.0
210
0.0
220
0.0
230
-1.0
  0
LINE
  5
593
  8
0
  6
CONTINUOUS
 10
514.52881619290054
 20
-15.206838883836349
 30
0.0
 11
513.76344932817028
 21
-15.359079818813781
 31
0.0
  0
LINE
  5
594
  8
0
  6
CONTINUOUS
 10
515.29418305763056
 20
-15.359079818813781
 30
0.0
 11
514.52881619290054
 21
-15.206838883836349
 31
0.0
  0
LINE
  5
595
  8
0
  6
CONTINUOUS
 10
513.76344932817028
 20
-15.359079818813781
 30
0.0
 11
513.11460263052743
 21
-15.792625321463261
 31
0.0
  0
LINE
  5
596
  8
0
  6
CONTINUOUS
 10
515.29418305763056
 20
-15.359079818813781
 30
0.0
 11
515.94302975527364
 21
-15.792625321463261
 31
0.0
  0
LINE
  5
597
  8
0
  6
CONTINUOUS
 10
513.11460263052743
 20
-15.792625321463261
 30
0.0
 11
512.68105712787792
 21
-16.44147201910619
 31
0.0
  0
LINE
  5
598
  8
0
  6
CONTINUOUS
 10
515.94302975527364
 20
-15.792625321463261
 30
0.0
 11
516.37657525792315
 21
-16.44147201910619
 31
0.0
  0
LINE
  5
599
  8
0
  6
CONTINUOUS
 10
512.68105712787792
 20
-16.44147201910619
 30
0.0
 11
512.52881619290054
 21
-17.20683888383639
 31
0.0
  0
LINE
  5
59A
  8
0
  6
CONTINUOUS
 10
516.37657525792315
 20
-16.44147201910619
 30
0.0
 11
516.52881619290054
 21
-17.20683888383639
 31
0.0
  0
LINE
  5
59B
  8
0
  6
CONTINUOUS
 10
512.52881619290054
 20
-17.20683888383639
 30
0.0
 11
512.68105712787792
 21
-17.97220574856658
 31
0.0
  0
LINE
  5
59C
  8
0
  6
CONTINUOUS
 10
516.52881619290054
 20
-17.20683888383639
 30
0.0
 11
516.37657525792315
 21
-17.97220574856658
 31
0.0
  0
LINE
  5
59D
  8
0
  6
CONTINUOUS
 10
512.68105712787792
 20
-17.97220574856658
 30
0.0
 11
513.11460263052743
 21
-18.6210524462095
 31
0.0
  0
LINE
  5
59E
  8
0
  6
CONTINUOUS
 10
516.37657525792315
 20
-17.97220574856658
 30
0.0
 11
515.94302975527364
 21
-18.6210524462095
 31
0.0
  0
LINE
  5
59F
  8
0
  6
CONTINUOUS
 10
515.29418305763056
 20
-19.054597948858991
 30
0.0
 11
514.52881619290054
 21
-19.206838883836419
 31
0.0
  0
LINE
  5
5A0
  8
0
  6
CONTINUOUS
 10
514.52881619290054
 20
-19.206838883836419
 30
0.0
 11
513.76344932817028
 21
-19.054597948858991
 31
0.0
  0
LINE
  5
5A1
  8
0
  6
CONTINUOUS
 10
513.11460263052743
 20
-18.6210524462095
 30
0.0
 11
513.76344932817028
 21
-19.054597948858991
 31
0.0
  0
LINE
  5
5A2
  8
0
  6
CONTINUOUS
 10
515.94302975527364
 20
-18.6210524462095
 30
0.0
 11
515.29418305763056
 21
-19.054597948858991
 31
0.0
  0
ENDBLK
  5
5A4
  8
0
  0
BLOCK
  8
0
  2
*U29
 70
     1
 10
0.0
 20
0.0
 30
0.0
  3
*U29
  1

  0
TEXT
  5
5A6
  8
0
  6
CONTINUOUS
 10
582.05711946273766
 20
-77.835485313063288
 30
0.0
 40
9.8353293413173617
  1
Barge board *
  7
ARIAL
  0
ENDBLK
  5
5A8
  8
0
  0
BLOCK
  8
0
  2
*U30
 70
     1
 10
0.0
 20
0.0
 30
0.0
  3
*U30
  1

  0
SOLID
  5
5AA
  8
0
  6
CONTINUOUS
 10
63.608844761259633
 20
144.52139031750761
 30
0.0
 11
62.843477896529457
 21
144.3691493825302
 31
0.0
 12
64.374211625989815
 22
144.3691493825302
 32
0.0
 13
64.374211625989815
 23
144.3691493825302
 33
0.0
210
0.0
220
0.0
230
1.0
  0
SOLID
  5
5AB
  8
0
  6
CONTINUOUS
 10
62.843477896529457
 20
144.3691493825302
 30
0.0
 11
62.19463119888654
 21
143.93560387988069
 31
0.0
 12
65.023058323632739
 22
143.93560387988069
 32
0.0
 13
65.023058323632739
 23
143.93560387988069
 33
0.0
210
0.0
220
0.0
230
1.0
  0
SOLID
  5
5AC
  8
0
  6
CONTINUOUS
 10
-62.843477896529457
 20
144.3691493825302
 30
0.0
 11
-64.374211625989815
 21
144.3691493825302
 31
0.0
 12
-65.023058323632739
 22
143.93560387988069
 32
0.0
 13
-65.023058323632739
 23
143.93560387988069
 33
0.0
210
0.0
220
0.0
230
-1.0
  0
SOLID
  5
5AD
  8
0
  6
CONTINUOUS
 10
62.19463119888654
 20
143.93560387988069
 30
0.0
 11
61.761085696237068
 21
143.28675718223781
 31
0.0
 12
65.456603826282219
 22
143.28675718223781
 32
0.0
 13
65.456603826282219
 23
143.28675718223781
 33
0.0
210
0.0
220
0.0
230
1.0
  0
SOLID
  5
5AE
  8
0
  6
CONTINUOUS
 10
-62.19463119888654
 20
143.93560387988069
 30
0.0
 11
-65.023058323632739
 21
143.93560387988069
 31
0.0
 12
-65.456603826282219
 22
143.28675718223781
 32
0.0
 13
-65.456603826282219
 23
143.28675718223781
 33
0.0
210
0.0
220
0.0
230
-1.0
  0
SOLID
  5
5AF
  8
0
  6
CONTINUOUS
 10
61.761085696237068
 20
143.28675718223781
 30
0.0
 11
61.60884476125964
 21
142.52139031750761
 31
0.0
 12
65.608844761259633
 22
142.52139031750761
 32
0.0
 13
65.608844761259633
 23
142.52139031750761
 33
0.0
210
0.0
220
0.0
230
1.0
  0
SOLID
  5
5B0
  8
0
  6
CONTINUOUS
 10
-61.761085696237068
 20
143.28675718223781
 30
0.0
 11
-65.456603826282219
 21
143.28675718223781
 31
0.0
 12
-65.608844761259633
 22
142.52139031750761
 32
0.0
 13
-65.608844761259633
 23
142.52139031750761
 33
0.0
210
0.0
220
0.0
230
-1.0
  0
SOLID
  5
5B1
  8
0
  6
CONTINUOUS
 10
61.60884476125964
 20
142.52139031750761
 30
0.0
 11
61.761085696237068
 21
141.75602345277741
 31
0.0
 12
65.456603826282219
 22
141.75602345277741
 32
0.0
 13
65.456603826282219
 23
141.75602345277741
 33
0.0
210
0.0
220
0.0
230
1.0
  0
SOLID
  5
5B2
  8
0
  6
CONTINUOUS
 10
-61.60884476125964
 20
142.52139031750761
 30
0.0
 11
-65.608844761259633
 21
142.52139031750761
 31
0.0
 12
-65.456603826282219
 22
141.75602345277741
 32
0.0
 13
-65.456603826282219
 23
141.75602345277741
 33
0.0
210
0.0
220
0.0
230
-1.0
  0
SOLID
  5
5B3
  8
0
  6
CONTINUOUS
 10
61.761085696237068
 20
141.75602345277741
 30
0.0
 11
62.19463119888654
 21
141.1071767551345
 31
0.0
 12
65.023058323632739
 22
141.1071767551345
 32
0.0
 13
65.023058323632739
 23
141.1071767551345
 33
0.0
210
0.0
220
0.0
230
1.0
  0
SOLID
  5
5B4
  8
0
  6
CONTINUOUS
 10
-61.761085696237068
 20
141.75602345277741
 30
0.0
 11
-65.456603826282219
 21
141.75602345277741
 31
0.0
 12
-65.023058323632739
 22
141.1071767551345
 32
0.0
 13
-65.023058323632739
 23
141.1071767551345
 33
0.0
210
0.0
220
0.0
230
-1.0
  0
SOLID
  5
5B5
  8
0
  6
CONTINUOUS
 10
-62.843477896529457
 20
140.673631252485
 30
0.0
 11
-64.374211625989673
 21
140.673631252485
 31
0.0
 12
-63.608844761259633
 22
140.52139031750761
 32
0.0
 13
-63.608844761259633
 23
140.52139031750761
 33
0.0
210
0.0
220
0.0
230
-1.0
  0
SOLID
  5
5B6
  8
0
  6
CONTINUOUS
 10
62.19463119888654
 20
141.1071767551345
 30
0.0
 11
62.843477896529457
 21
140.673631252485
 31
0.0
 12
64.374211625989773
 22
140.673631252485
 32
0.0
 13
64.374211625989773
 23
140.673631252485
 33
0.0
210
0.0
220
0.0
230
1.0
  0
SOLID
  5
5B7
  8
0
  6
CONTINUOUS
 10
-62.19463119888654
 20
141.1071767551345
 30
0.0
 11
-65.023058323632739
 21
141.1071767551345
 31
0.0
 12
-64.374211625989773
 22
140.673631252485
 32
0.0
 13
-64.374211625989773
 23
140.673631252485
 33
0.0
210
0.0
220
0.0
230
-1.0
  0
LINE
  5
5B8
  8
0
  6
CONTINUOUS
 10
63.608844761259633
 20
144.52139031750761
 30
0.0
 11
62.843477896529457
 21
144.3691493825302
 31
0.0
  0
LINE
  5
5B9
  8
0
  6
CONTINUOUS
 10
64.374211625989815
 20
144.3691493825302
 30
0.0
 11
63.608844761259633
 21
144.52139031750761
 31
0.0
  0
LINE
  5
5BA
  8
0
  6
CONTINUOUS
 10
62.843477896529457
 20
144.3691493825302
 30
0.0
 11
62.19463119888654
 21
143.93560387988069
 31
0.0
  0
LINE
  5
5BB
  8
0
  6
CONTINUOUS
 10
64.374211625989815
 20
144.3691493825302
 30
0.0
 11
65.023058323632739
 21
143.93560387988069
 31
0.0
  0
LINE
  5
5BC
  8
0
  6
CONTINUOUS
 10
62.19463119888654
 20
143.93560387988069
 30
0.0
 11
61.761085696237068
 21
143.28675718223781
 31
0.0
  0
LINE
  5
5BD
  8
0
  6
CONTINUOUS
 10
65.023058323632739
 20
143.93560387988069
 30
0.0
 11
65.456603826282219
 21
143.28675718223781
 31
0.0
  0
LINE
  5
5BE
  8
0
  6
CONTINUOUS
 10
61.761085696237068
 20
143.28675718223781
 30
0.0
 11
61.60884476125964
 21
142.52139031750761
 31
0.0
  0
LINE
  5
5BF
  8
0
  6
CONTINUOUS
 10
65.456603826282219
 20
143.28675718223781
 30
0.0
 11
65.608844761259633
 21
142.52139031750761
 31
0.0
  0
LINE
  5
5C0
  8
0
  6
CONTINUOUS
 10
61.60884476125964
 20
142.52139031750761
 30
0.0
 11
61.761085696237068
 21
141.75602345277741
 31
0.0
  0
LINE
  5
5C1
  8
0
  6
CONTINUOUS
 10
65.608844761259633
 20
142.52139031750761
 30
0.0
 11
65.456603826282219
 21
141.75602345277741
 31
0.0
  0
LINE
  5
5C2
  8
0
  6
CONTINUOUS
 10
61.761085696237068
 20
141.75602345277741
 30
0.0
 11
62.19463119888654
 21
141.1071767551345
 31
0.0
  0
LINE
  5
5C3
  8
0
  6
CONTINUOUS
 10
65.456603826282219
 20
141.75602345277741
 30
0.0
 11
65.023058323632739
 21
141.1071767551345
 31
0.0
  0
LINE
  5
5C4
  8
0
  6
CONTINUOUS
 10
64.374211625989673
 20
140.673631252485
 30
0.0
 11
63.608844761259633
 21
140.52139031750761
 31
0.0
  0
LINE
  5
5C5
  8
0
  6
CONTINUOUS
 10
63.608844761259633
 20
140.52139031750761
 30
0.0
 11
62.843477896529457
 21
140.673631252485
 31
0.0
  0
LINE
  5
5C6
  8
0
  6
CONTINUOUS
 10
62.19463119888654
 20
141.1071767551345
 30
0.0
 11
62.843477896529457
 21
140.673631252485
 31
0.0
  0
LINE
  5
5C7
  8
0
  6
CONTINUOUS
 10
65.023058323632739
 20
141.1071767551345
 30
0.0
 11
64.374211625989773
 21
140.673631252485
 31
0.0
  0
ENDBLK
  5
5C9
  8
0
  0
BLOCK
  8
0
  2
*U31
 70
     1
 10
0.0
 20
0.0
 30
0.0
  3
*U31
  1

  0
TEXT
  5
5CB
  8
0
  6
CONTINUOUS
 10
-209.7110289996977
 20
321.1932554937876
 30
0.0
 40
9.8353293413173617
  1
Tilcor CF Shake Panel
  7
ARIAL
  0
ENDBLK
  5
5CD
  8
0
  0
BLOCK
  8
0
  2
*U32
 70
     1
 10
0.0
 20
0.0
 30
0.0
  3
*U32
  1

  0
SOLID
  5
5CF
  8
0
  6
CONTINUOUS
 10
-97.224949441907796
 20
52.000000000000391
 30
0.0
 11
-97.990316306637965
 21
51.847759065022963
 31
0.0
 12
-96.459582577177613
 22
51.847759065022963
 32
0.0
 13
-96.459582577177613
 23
51.847759065022963
 33
0.0
210
0.0
220
0.0
230
1.0
  0
SOLID
  5
5D0
  8
0
  6
CONTINUOUS
 10
-97.990316306637965
 20
51.847759065022963
 30
0.0
 11
-98.639163004280903
 21
51.414213562373483
 31
0.0
 12
-95.810735879534704
 22
51.414213562373483
 32
0.0
 13
-95.810735879534704
 23
51.414213562373483
 33
0.0
210
0.0
220
0.0
230
1.0
  0
SOLID
  5
5D1
  8
0
  6
CONTINUOUS
 10
97.990316306637965
 20
51.847759065022963
 30
0.0
 11
96.459582577177613
 21
51.847759065022963
 31
0.0
 12
95.810735879534704
 22
51.414213562373483
 32
0.0
 13
95.810735879534704
 23
51.414213562373483
 33
0.0
210
0.0
220
0.0
230
-1.0
  0
SOLID
  5
5D2
  8
0
  6
CONTINUOUS
 10
-98.639163004280903
 20
51.414213562373483
 30
0.0
 11
-99.072708506930383
 21
50.765366864730566
 31
0.0
 12
-95.377190376885224
 22
50.765366864730566
 32
0.0
 13
-95.377190376885224
 23
50.765366864730566
 33
0.0
210
0.0
220
0.0
230
1.0
  0
SOLID
  5
5D3
  8
0
  6
CONTINUOUS
 10
98.639163004280903
 20
51.414213562373483
 30
0.0
 11
95.810735879534704
 21
51.414213562373483
 31
0.0
 12
95.377190376885224
 22
50.765366864730566
 32
0.0
 13
95.377190376885224
 23
50.765366864730566
 33
0.0
210
0.0
220
0.0
230
-1.0
  0
SOLID
  5
5D4
  8
0
  6
CONTINUOUS
 10
-99.072708506930383
 20
50.765366864730566
 30
0.0
 11
-99.22494944190781
 21
50.000000000000391
 31
0.0
 12
-95.224949441907796
 22
50.000000000000391
 32
0.0
 13
-95.224949441907796
 23
50.000000000000391
 33
0.0
210
0.0
220
0.0
230
1.0
  0
SOLID
  5
5D5
  8
0
  6
CONTINUOUS
 10
99.072708506930383
 20
50.765366864730566
 30
0.0
 11
95.377190376885224
 21
50.765366864730566
 31
0.0
 12
95.224949441907796
 22
50.000000000000391
 32
0.0
 13
95.224949441907796
 23
50.000000000000391
 33
0.0
210
0.0
220
0.0
230
-1.0
  0
SOLID
  5
5D6
  8
0
  6
CONTINUOUS
 10
-99.22494944190781
 20
50.000000000000391
 30
0.0
 11
-99.072708506930383
 21
49.234633135270201
 31
0.0
 12
-95.377190376885224
 22
49.234633135270201
 32
0.0
 13
-95.377190376885224
 23
49.234633135270201
 33
0.0
  0
SOLID
  5
5D7
  8
0
  6
CONTINUOUS
 10
99.22494944190781
 20
50.000000000000391
 30
0.0
 11
95.224949441907796
 21
50.000000000000391
 31
0.0
 12
95.377190376885224
 22
49.234633135270201
 32
0.0
 13
95.377190376885224
 23
49.234633135270201
 33
0.0
210
0.0
220
0.0
230
-1.0
  0
SOLID
  5
5D8
  8
0
  6
CONTINUOUS
 10
-99.072708506930383
 20
49.234633135270201
 30
0.0
 11
-98.639163004280888
 21
48.585786437627277
 31
0.0
 12
-95.810735879534676
 22
48.585786437627277
 32
0.0
 13
-95.810735879534676
 23
48.585786437627277
 33
0.0
210
0.0
220
0.0
230
1.0
  0
SOLID
  5
5D9
  8
0
  6
CONTINUOUS
 10
99.072708506930383
 20
49.234633135270201
 30
0.0
 11
95.377190376885224
 21
49.234633135270201
 31
0.0
 12
95.810735879534676
 22
48.585786437627277
 32
0.0
 13
95.810735879534676
 23
48.585786437627277
 33
0.0
210
0.0
220
0.0
230
-1.0
  0
SOLID
  5
5DA
  8
0
  6
CONTINUOUS
 10
97.990316306637965
 20
48.152240934977797
 30
0.0
 11
96.459582577177613
 21
48.152240934977797
 31
0.0
 12
97.224949441907796
 22
48.000000000000377
 32
0.0
 13
97.224949441907796
 23
48.000000000000377
 33
0.0
210
0.0
220
0.0
230
-1.0
  0
SOLID
  5
5DB
  8
0
  6
CONTINUOUS
 10
-98.639163004280888
 20
48.585786437627277
 30
0.0
 11
-97.990316306637965
 21
48.152240934977797
 31
0.0
 12
-96.459582577177613
 22
48.152240934977797
 32
0.0
 13
-96.459582577177613
 23
48.152240934977797
 33
0.0
210
0.0
220
0.0
230
1.0
  0
SOLID
  5
5DC
  8
0
  6
CONTINUOUS
 10
98.639163004280888
 20
48.585786437627277
 30
0.0
 11
95.810735879534676
 21
48.585786437627277
 31
0.0
 12
96.459582577177613
 22
48.152240934977797
 32
0.0
 13
96.459582577177613
 23
48.152240934977797
 33
0.0
210
0.0
220
0.0
230
-1.0
  0
LINE
  5
5DD
  8
0
  6
CONTINUOUS
 10
-97.224949441907796
 20
52.000000000000391
 30
0.0
 11
-97.990316306637965
 21
51.847759065022963
 31
0.0
  0
LINE
  5
5DE
  8
0
  6
CONTINUOUS
 10
-96.459582577177613
 20
51.847759065022963
 30
0.0
 11
-97.224949441907796
 21
52.000000000000391
 31
0.0
  0
LINE
  5
5DF
  8
0
  6
CONTINUOUS
 10
-97.990316306637965
 20
51.847759065022963
 30
0.0
 11
-98.639163004280903
 21
51.414213562373483
 31
0.0
  0
LINE
  5
5E0
  8
0
  6
CONTINUOUS
 10
-96.459582577177613
 20
51.847759065022963
 30
0.0
 11
-95.810735879534704
 21
51.414213562373483
 31
0.0
  0
LINE
  5
5E1
  8
0
  6
CONTINUOUS
 10
-98.639163004280903
 20
51.414213562373483
 30
0.0
 11
-99.072708506930383
 21
50.765366864730566
 31
0.0
  0
LINE
  5
5E2
  8
0
  6
CONTINUOUS
 10
-95.810735879534704
 20
51.414213562373483
 30
0.0
 11
-95.377190376885224
 21
50.765366864730566
 31
0.0
  0
LINE
  5
5E3
  8
0
  6
CONTINUOUS
 10
-99.072708506930383
 20
50.765366864730566
 30
0.0
 11
-99.22494944190781
 21
50.000000000000391
 31
0.0
  0
LINE
  5
5E4
  8
0
  6
CONTINUOUS
 10
-95.377190376885224
 20
50.765366864730566
 30
0.0
 11
-95.224949441907796
 21
50.000000000000391
 31
0.0
  0
LINE
  5
5E5
  8
0
  6
CONTINUOUS
 10
-99.22494944190781
 20
50.000000000000391
 30
0.0
 11
-99.072708506930383
 21
49.234633135270201
 31
0.0
  0
LINE
  5
5E6
  8
0
  6
CONTINUOUS
 10
-95.224949441907796
 20
50.000000000000391
 30
0.0
 11
-95.377190376885224
 21
49.234633135270201
 31
0.0
  0
LINE
  5
5E7
  8
0
  6
CONTINUOUS
 10
-99.072708506930383
 20
49.234633135270201
 30
0.0
 11
-98.639163004280888
 21
48.585786437627277
 31
0.0
  0
LINE
  5
5E8
  8
0
  6
CONTINUOUS
 10
-95.377190376885224
 20
49.234633135270201
 30
0.0
 11
-95.810735879534676
 21
48.585786437627277
 31
0.0
  0
LINE
  5
5E9
  8
0
  6
CONTINUOUS
 10
-96.459582577177613
 20
48.152240934977797
 30
0.0
 11
-97.224949441907796
 21
48.000000000000377
 31
0.0
  0
LINE
  5
5EA
  8
0
  6
CONTINUOUS
 10
-97.224949441907796
 20
48.000000000000377
 30
0.0
 11
-97.990316306637965
 21
48.152240934977797
 31
0.0
  0
LINE
  5
5EB
  8
0
  6
CONTINUOUS
 10
-98.639163004280888
 20
48.585786437627277
 30
0.0
 11
-97.990316306637965
 21
48.152240934977797
 31
0.0
  0
LINE
  5
5EC
  8
0
  6
CONTINUOUS
 10
-95.810735879534676
 20
48.585786437627277
 30
0.0
 11
-96.459582577177613
 21
48.152240934977797
 31
0.0
  0
ENDBLK
  5
5EE
  8
0
  0
BLOCK
  8
0
  2
*U33
 70
     1
 10
0.0
 20
0.0
 30
0.0
  3
*U33
  1

  0
TEXT
  5
5F0
  8
0
  6
CONTINUOUS
 10
-210.44901414809121
 20
-32.174941993303449
 30
0.0
 40
9.8353293413173617
  1
Purlin
  7
ARIAL
  0
ENDBLK
  5
5F2
  8
0
  0
BLOCK
  8
0
  2
*U34
 70
     1
 10
0.0
 20
0.0
 30
0.0
  3
*U34
  1

  0
SOLID
  5
5F4
  8
0
  6
CONTINUOUS
 10
475.4287047401358
 20
20.013544642077619
 30
0.0
 11
474.66333787540549
 21
19.861303707100191
 31
0.0
 12
476.194071604866
 22
19.861303707100191
 32
0.0
 13
476.194071604866
 23
19.861303707100191
 33
0.0
210
0.0
220
0.0
230
1.0
  0
SOLID
  5
5F5
  8
0
  6
CONTINUOUS
 10
474.66333787540549
 20
19.861303707100191
 30
0.0
 11
474.01449117776258
 21
19.427758204450711
 31
0.0
 12
476.84291830250891
 22
19.427758204450711
 32
0.0
 13
476.84291830250891
 23
19.427758204450711
 33
0.0
210
0.0
220
0.0
230
1.0
  0
SOLID
  5
5F6
  8
0
  6
CONTINUOUS
 10
-474.66333787540549
 20
19.861303707100191
 30
0.0
 11
-476.194071604866
 21
19.861303707100191
 31
0.0
 12
-476.84291830250891
 22
19.427758204450711
 32
0.0
 13
-476.84291830250891
 23
19.427758204450711
 33
0.0
210
0.0
220
0.0
230
-1.0
  0
SOLID
  5
5F7
  8
0
  6
CONTINUOUS
 10
474.01449117776258
 20
19.427758204450711
 30
0.0
 11
473.58094567511313
 21
18.778911506807791
 31
0.0
 12
477.27646380515841
 22
18.778911506807791
 32
0.0
 13
477.27646380515841
 23
18.778911506807791
 33
0.0
  0
SOLID
  5
5F8
  8
0
  6
CONTINUOUS
 10
-474.01449117776258
 20
19.427758204450711
 30
0.0
 11
-476.84291830250891
 21
19.427758204450711
 31
0.0
 12
-477.27646380515841
 22
18.778911506807791
 32
0.0
 13
-477.27646380515841
 23
18.778911506807791
 33
0.0
210
0.0
220
0.0
230
-1.0
  0
SOLID
  5
5F9
  8
0
  6
CONTINUOUS
 10
473.58094567511313
 20
18.778911506807791
 30
0.0
 11
473.4287047401358
 21
18.013544642077601
 31
0.0
 12
477.42870474013569
 22
18.013544642077601
 32
0.0
 13
477.42870474013569
 23
18.013544642077601
 33
0.0
210
0.0
220
0.0
230
1.0
  0
SOLID
  5
5FA
  8
0
  6
CONTINUOUS
 10
-473.58094567511313
 20
18.778911506807791
 30
0.0
 11
-477.27646380515841
 21
18.778911506807791
 31
0.0
 12
-477.42870474013569
 22
18.013544642077601
 32
0.0
 13
-477.42870474013569
 23
18.013544642077601
 33
0.0
210
0.0
220
0.0
230
-1.0
  0
SOLID
  5
5FB
  8
0
  6
CONTINUOUS
 10
473.4287047401358
 20
18.013544642077601
 30
0.0
 11
473.58094567511313
 21
17.248177777347411
 31
0.0
 12
477.27646380515841
 22
17.248177777347411
 32
0.0
 13
477.27646380515841
 23
17.248177777347411
 33
0.0
210
0.0
220
0.0
230
1.0
  0
SOLID
  5
5FC
  8
0
  6
CONTINUOUS
 10
-473.4287047401358
 20
18.013544642077601
 30
0.0
 11
-477.42870474013569
 21
18.013544642077601
 31
0.0
 12
-477.27646380515841
 22
17.248177777347411
 32
0.0
 13
-477.27646380515841
 23
17.248177777347411
 33
0.0
210
0.0
220
0.0
230
-1.0
  0
SOLID
  5
5FD
  8
0
  6
CONTINUOUS
 10
473.58094567511313
 20
17.248177777347411
 30
0.0
 11
474.01449117776258
 21
16.599331079704491
 31
0.0
 12
476.84291830250891
 22
16.599331079704491
 32
0.0
 13
476.84291830250891
 23
16.599331079704491
 33
0.0
210
0.0
220
0.0
230
1.0
  0
SOLID
  5
5FE
  8
0
  6
CONTINUOUS
 10
-473.58094567511313
 20
17.248177777347411
 30
0.0
 11
-477.27646380515841
 21
17.248177777347411
 31
0.0
 12
-476.84291830250891
 22
16.599331079704491
 32
0.0
 13
-476.84291830250891
 23
16.599331079704491
 33
0.0
210
0.0
220
0.0
230
-1.0
  0
SOLID
  5
5FF
  8
0
  6
CONTINUOUS
 10
-474.66333787540549
 20
16.165785577055001
 30
0.0
 11
-476.194071604866
 21
16.165785577055001
 31
0.0
 12
-475.4287047401358
 22
16.013544642077569
 32
0.0
 13
-475.4287047401358
 23
16.013544642077569
 33
0.0
210
0.0
220
0.0
230
-1.0
  0
SOLID
  5
600
  8
0
  6
CONTINUOUS
 10
474.01449117776258
 20
16.599331079704491
 30
0.0
 11
474.66333787540549
 21
16.165785577055001
 31
0.0
 12
476.194071604866
 22
16.165785577055001
 32
0.0
 13
476.194071604866
 23
16.165785577055001
 33
0.0
210
0.0
220
0.0
230
1.0
  0
SOLID
  5
601
  8
0
  6
CONTINUOUS
 10
-474.01449117776258
 20
16.599331079704491
 30
0.0
 11
-476.84291830250891
 21
16.599331079704491
 31
0.0
 12
-476.194071604866
 22
16.165785577055001
 32
0.0
 13
-476.194071604866
 23
16.165785577055001
 33
0.0
210
0.0
220
0.0
230
-1.0
  0
LINE
  5
602
  8
0
  6
CONTINUOUS
 10
475.4287047401358
 20
20.013544642077619
 30
0.0
 11
474.66333787540549
 21
19.861303707100191
 31
0.0
  0
LINE
  5
603
  8
0
  6
CONTINUOUS
 10
476.194071604866
 20
19.861303707100191
 30
0.0
 11
475.4287047401358
 21
20.013544642077619
 31
0.0
  0
LINE
  5
604
  8
0
  6
CONTINUOUS
 10
474.66333787540549
 20
19.861303707100191
 30
0.0
 11
474.01449117776258
 21
19.427758204450711
 31
0.0
  0
LINE
  5
605
  8
0
  6
CONTINUOUS
 10
476.194071604866
 20
19.861303707100191
 30
0.0
 11
476.84291830250891
 21
19.427758204450711
 31
0.0
  0
LINE
  5
606
  8
0
  6
CONTINUOUS
 10
474.01449117776258
 20
19.427758204450711
 30
0.0
 11
473.58094567511313
 21
18.778911506807791
 31
0.0
  0
LINE
  5
607
  8
0
  6
CONTINUOUS
 10
476.84291830250891
 20
19.427758204450711
 30
0.0
 11
477.27646380515841
 21
18.778911506807791
 31
0.0
  0
LINE
  5
608
  8
0
  6
CONTINUOUS
 10
473.58094567511313
 20
18.778911506807791
 30
0.0
 11
473.4287047401358
 21
18.013544642077601
 31
0.0
  0
LINE
  5
609
  8
0
  6
CONTINUOUS
 10
477.27646380515841
 20
18.778911506807791
 30
0.0
 11
477.42870474013569
 21
18.013544642077601
 31
0.0
  0
LINE
  5
60A
  8
0
  6
CONTINUOUS
 10
473.4287047401358
 20
18.013544642077601
 30
0.0
 11
473.58094567511313
 21
17.248177777347411
 31
0.0
  0
LINE
  5
60B
  8
0
  6
CONTINUOUS
 10
477.42870474013569
 20
18.013544642077601
 30
0.0
 11
477.27646380515841
 21
17.248177777347411
 31
0.0
  0
LINE
  5
60C
  8
0
  6
CONTINUOUS
 10
473.58094567511313
 20
17.248177777347411
 30
0.0
 11
474.01449117776258
 21
16.599331079704491
 31
0.0
  0
LINE
  5
60D
  8
0
  6
CONTINUOUS
 10
477.27646380515841
 20
17.248177777347411
 30
0.0
 11
476.84291830250891
 21
16.599331079704491
 31
0.0
  0
LINE
  5
60E
  8
0
  6
CONTINUOUS
 10
476.194071604866
 20
16.165785577055001
 30
0.0
 11
475.4287047401358
 21
16.013544642077569
 31
0.0
  0
LINE
  5
60F
  8
0
  6
CONTINUOUS
 10
475.4287047401358
 20
16.013544642077569
 30
0.0
 11
474.66333787540549
 21
16.165785577055001
 31
0.0
  0
LINE
  5
610
  8
0
  6
CONTINUOUS
 10
474.01449117776258
 20
16.599331079704491
 30
0.0
 11
474.66333787540549
 21
16.165785577055001
 31
0.0
  0
LINE
  5
611
  8
0
  6
CONTINUOUS
 10
476.84291830250891
 20
16.599331079704491
 30
0.0
 11
476.194071604866
 21
16.165785577055001
 31
0.0
  0
ENDBLK
  5
613
  8
0
  0
BLOCK
  8
0
  2
*U35
 70
     1
 10
0.0
 20
0.0
 30
0.0
  3
*U35
  1

  0
TEXT
  5
615
  8
0
  6
CONTINUOUS
 10
582.05711946273766
 20
-116.78233233869661
 30
0.0
 40
9.8353293413173617
  1
Barge Rafter
  7
ARIAL
  0
ENDBLK
  5
617
  8
0
  0
BLOCK
  8
0
  2
*U36
 70
     1
 10
0.0
 20
0.0
 30
0.0
  3
*U36
  1

  0
SOLID
  5
619
  8
0
  6
CONTINUOUS
 10
523.51745389984455
 20
76.82631077755353
 30
0.0
 11
522.7520870351143
 21
76.674069842576102
 31
0.0
 12
524.28282076457469
 22
76.674069842576102
 32
0.0
 13
524.28282076457469
 23
76.674069842576102
 33
0.0
210
0.0
220
0.0
230
1.0
  0
SOLID
  5
61A
  8
0
  6
CONTINUOUS
 10
522.7520870351143
 20
76.674069842576102
 30
0.0
 11
522.10324033747145
 21
76.240524339926608
 31
0.0
 12
524.93166746221766
 22
76.240524339926608
 32
0.0
 13
524.93166746221766
 23
76.240524339926608
 33
0.0
210
0.0
220
0.0
230
1.0
  0
SOLID
  5
61B
  8
0
  6
CONTINUOUS
 10
-522.7520870351143
 20
76.674069842576102
 30
0.0
 11
-524.28282076457469
 21
76.674069842576102
 31
0.0
 12
-524.93166746221766
 22
76.240524339926608
 32
0.0
 13
-524.93166746221766
 23
76.240524339926608
 33
0.0
210
0.0
220
0.0
230
-1.0
  0
SOLID
  5
61C
  8
0
  6
CONTINUOUS
 10
522.10324033747145
 20
76.240524339926608
 30
0.0
 11
521.66969483482194
 21
75.59167764228367
 31
0.0
 12
525.36521296486717
 22
75.59167764228367
 32
0.0
 13
525.36521296486717
 23
75.59167764228367
 33
0.0
  0
SOLID
  5
61D
  8
0
  6
CONTINUOUS
 10
-522.10324033747145
 20
76.240524339926608
 30
0.0
 11
-524.93166746221766
 21
76.240524339926608
 31
0.0
 12
-525.36521296486717
 22
75.59167764228367
 32
0.0
 13
-525.36521296486717
 23
75.59167764228367
 33
0.0
210
0.0
220
0.0
230
-1.0
  0
SOLID
  5
61E
  8
0
  6
CONTINUOUS
 10
521.66969483482194
 20
75.59167764228367
 30
0.0
 11
521.51745389984444
 21
74.826310777553473
 31
0.0
 12
525.51745389984455
 22
74.826310777553473
 32
0.0
 13
525.51745389984455
 23
74.826310777553473
 33
0.0
210
0.0
220
0.0
230
1.0
  0
SOLID
  5
61F
  8
0
  6
CONTINUOUS
 10
-521.66969483482194
 20
75.59167764228367
 30
0.0
 11
-525.36521296486717
 21
75.59167764228367
 31
0.0
 12
-525.51745389984455
 22
74.826310777553473
 32
0.0
 13
-525.51745389984455
 23
74.826310777553473
 33
0.0
210
0.0
220
0.0
230
-1.0
  0
SOLID
  5
620
  8
0
  6
CONTINUOUS
 10
521.51745389984444
 20
74.826310777553473
 30
0.0
 11
521.66969483482194
 21
74.060943912823276
 31
0.0
 12
525.36521296486717
 22
74.060943912823276
 32
0.0
 13
525.36521296486717
 23
74.060943912823276
 33
0.0
  0
SOLID
  5
621
  8
0
  6
CONTINUOUS
 10
-521.51745389984444
 20
74.826310777553473
 30
0.0
 11
-525.51745389984455
 21
74.826310777553473
 31
0.0
 12
-525.36521296486717
 22
74.060943912823276
 32
0.0
 13
-525.36521296486717
 23
74.060943912823276
 33
0.0
210
0.0
220
0.0
230
-1.0
  0
SOLID
  5
622
  8
0
  6
CONTINUOUS
 10
521.66969483482194
 20
74.060943912823276
 30
0.0
 11
522.10324033747145
 21
73.412097215180324
 31
0.0
 12
524.93166746221766
 22
73.412097215180324
 32
0.0
 13
524.93166746221766
 23
73.412097215180324
 33
0.0
210
0.0
220
0.0
230
1.0
  0
SOLID
  5
623
  8
0
  6
CONTINUOUS
 10
-521.66969483482194
 20
74.060943912823276
 30
0.0
 11
-525.36521296486717
 21
74.060943912823276
 31
0.0
 12
-524.93166746221766
 22
73.412097215180324
 32
0.0
 13
-524.93166746221766
 23
73.412097215180324
 33
0.0
210
0.0
220
0.0
230
-1.0
  0
SOLID
  5
624
  8
0
  6
CONTINUOUS
 10
-522.7520870351143
 20
72.978551712530844
 30
0.0
 11
-524.28282076457469
 21
72.978551712530844
 31
0.0
 12
-523.51745389984455
 22
72.826310777553417
 32
0.0
 13
-523.51745389984455
 23
72.826310777553417
 33
0.0
210
0.0
220
0.0
230
-1.0
  0
SOLID
  5
625
  8
0
  6
CONTINUOUS
 10
522.10324033747145
 20
73.412097215180324
 30
0.0
 11
522.7520870351143
 21
72.978551712530844
 31
0.0
 12
524.28282076457469
 22
72.978551712530844
 32
0.0
 13
524.28282076457469
 23
72.978551712530844
 33
0.0
210
0.0
220
0.0
230
1.0
  0
SOLID
  5
626
  8
0
  6
CONTINUOUS
 10
-522.10324033747145
 20
73.412097215180324
 30
0.0
 11
-524.93166746221766
 21
73.412097215180324
 31
0.0
 12
-524.28282076457469
 22
72.978551712530844
 32
0.0
 13
-524.28282076457469
 23
72.978551712530844
 33
0.0
210
0.0
220
0.0
230
-1.0
  0
LINE
  5
627
  8
0
  6
CONTINUOUS
 10
523.51745389984455
 20
76.82631077755353
 30
0.0
 11
522.7520870351143
 21
76.674069842576102
 31
0.0
  0
LINE
  5
628
  8
0
  6
CONTINUOUS
 10
524.28282076457469
 20
76.674069842576102
 30
0.0
 11
523.51745389984455
 21
76.82631077755353
 31
0.0
  0
LINE
  5
629
  8
0
  6
CONTINUOUS
 10
522.7520870351143
 20
76.674069842576102
 30
0.0
 11
522.10324033747145
 21
76.240524339926608
 31
0.0
  0
LINE
  5
62A
  8
0
  6
CONTINUOUS
 10
524.28282076457469
 20
76.674069842576102
 30
0.0
 11
524.93166746221766
 21
76.240524339926608
 31
0.0
  0
LINE
  5
62B
  8
0
  6
CONTINUOUS
 10
522.10324033747145
 20
76.240524339926608
 30
0.0
 11
521.66969483482194
 21
75.59167764228367
 31
0.0
  0
LINE
  5
62C
  8
0
  6
CONTINUOUS
 10
524.93166746221766
 20
76.240524339926608
 30
0.0
 11
525.36521296486717
 21
75.59167764228367
 31
0.0
  0
LINE
  5
62D
  8
0
  6
CONTINUOUS
 10
521.66969483482194
 20
75.59167764228367
 30
0.0
 11
521.51745389984444
 21
74.826310777553473
 31
0.0
  0
LINE
  5
62E
  8
0
  6
CONTINUOUS
 10
525.36521296486717
 20
75.59167764228367
 30
0.0
 11
525.51745389984455
 21
74.826310777553473
 31
0.0
  0
LINE
  5
62F
  8
0
  6
CONTINUOUS
 10
521.51745389984444
 20
74.826310777553473
 30
0.0
 11
521.66969483482194
 21
74.060943912823276
 31
0.0
  0
LINE
  5
630
  8
0
  6
CONTINUOUS
 10
525.51745389984455
 20
74.826310777553473
 30
0.0
 11
525.36521296486717
 21
74.060943912823276
 31
0.0
  0
LINE
  5
631
  8
0
  6
CONTINUOUS
 10
521.66969483482194
 20
74.060943912823276
 30
0.0
 11
522.10324033747145
 21
73.412097215180324
 31
0.0
  0
LINE
  5
632
  8
0
  6
CONTINUOUS
 10
525.36521296486717
 20
74.060943912823276
 30
0.0
 11
524.93166746221766
 21
73.412097215180324
 31
0.0
  0
LINE
  5
633
  8
0
  6
CONTINUOUS
 10
524.28282076457469
 20
72.978551712530844
 30
0.0
 11
523.51745389984455
 21
72.826310777553417
 31
0.0
  0
LINE
  5
634
  8
0
  6
CONTINUOUS
 10
523.51745389984455
 20
72.826310777553417
 30
0.0
 11
522.7520870351143
 21
72.978551712530844
 31
0.0
  0
LINE
  5
635
  8
0
  6
CONTINUOUS
 10
522.10324033747145
 20
73.412097215180324
 30
0.0
 11
522.7520870351143
 21
72.978551712530844
 31
0.0
  0
LINE
  5
636
  8
0
  6
CONTINUOUS
 10
524.93166746221766
 20
73.412097215180324
 30
0.0
 11
524.28282076457469
 21
72.978551712530844
 31
0.0
  0
ENDBLK
  5
638
  8
0
  0
BLOCK
  8
0
  2
*U37
 70
     1
 10
0.0
 20
0.0
 30
0.0
  3
*U37
  1

  0
TEXT
  5
63A
  8
0
  6
CONTINUOUS
 10
582.05711946273755
 20
47.638571541837237
 30
0.0
 40
9.8353293413173617
  1
Bottom of barge/verge cap
  7
ARIAL
  0
TEXT
  5
63B
  8
0
  6
CONTINUOUS
 10
582.15775380115485
 20
32.253956157221872
 30
0.0
 40
9.8353293413173617
  1
nailed to timber fascia
  7
ARIAL
  0
ENDBLK
  5
63D
  8
0
  0
BLOCK
  8
0
  2
*U38
 70
     1
 10
0.0
 20
0.0
 30
0.0
  3
*U38
  1

  0
SOLID
  5
63F
  8
0
  6
CONTINUOUS
 10
517.44353966597384
 20
125.38977527258901
 30
0.0
 11
516.6781728012437
 21
125.23753433761151
 31
0.0
 12
518.20890653070398
 22
125.23753433761151
 32
0.0
 13
518.20890653070398
 23
125.23753433761151
 33
0.0
210
0.0
220
0.0
230
1.0
  0
SOLID
  5
640
  8
0
  6
CONTINUOUS
 10
516.6781728012437
 20
125.23753433761151
 30
0.0
 11
516.02932610360074
 21
124.8039888349621
 31
0.0
 12
518.85775322834695
 22
124.8039888349621
 32
0.0
 13
518.85775322834695
 23
124.8039888349621
 33
0.0
210
0.0
220
0.0
230
1.0
  0
SOLID
  5
641
  8
0
  6
CONTINUOUS
 10
-516.6781728012437
 20
125.23753433761151
 30
0.0
 11
-518.20890653070398
 21
125.23753433761151
 31
0.0
 12
-518.85775322834695
 22
124.8039888349621
 32
0.0
 13
-518.85775322834695
 23
124.8039888349621
 33
0.0
210
0.0
220
0.0
230
-1.0
  0
SOLID
  5
642
  8
0
  6
CONTINUOUS
 10
516.02932610360074
 20
124.8039888349621
 30
0.0
 11
515.59578060095123
 21
124.1551421373191
 31
0.0
 12
519.29129873099646
 22
124.1551421373191
 32
0.0
 13
519.29129873099646
 23
124.1551421373191
 33
0.0
  0
SOLID
  5
643
  8
0
  6
CONTINUOUS
 10
-516.02932610360074
 20
124.8039888349621
 30
0.0
 11
-518.85775322834695
 21
124.8039888349621
 31
0.0
 12
-519.29129873099646
 22
124.1551421373191
 32
0.0
 13
-519.29129873099646
 23
124.1551421373191
 33
0.0
210
0.0
220
0.0
230
-1.0
  0
SOLID
  5
644
  8
0
  6
CONTINUOUS
 10
515.59578060095123
 20
124.1551421373191
 30
0.0
 11
515.44353966597384
 21
123.38977527258901
 31
0.0
 12
519.44353966597384
 22
123.38977527258901
 32
0.0
 13
519.44353966597384
 23
123.38977527258901
 33
0.0
210
0.0
220
0.0
230
1.0
  0
SOLID
  5
645
  8
0
  6
CONTINUOUS
 10
-515.59578060095123
 20
124.1551421373191
 30
0.0
 11
-519.29129873099646
 21
124.1551421373191
 31
0.0
 12
-519.44353966597384
 22
123.38977527258901
 32
0.0
 13
-519.44353966597384
 23
123.38977527258901
 33
0.0
210
0.0
220
0.0
230
-1.0
  0
SOLID
  5
646
  8
0
  6
CONTINUOUS
 10
515.44353966597384
 20
123.38977527258901
 30
0.0
 11
515.59578060095123
 21
122.62440840785879
 31
0.0
 12
519.29129873099646
 22
122.62440840785879
 32
0.0
 13
519.29129873099646
 23
122.62440840785879
 33
0.0
210
0.0
220
0.0
230
1.0
  0
SOLID
  5
647
  8
0
  6
CONTINUOUS
 10
-515.44353966597384
 20
123.38977527258901
 30
0.0
 11
-519.44353966597384
 21
123.38977527258901
 31
0.0
 12
-519.29129873099646
 22
122.62440840785879
 32
0.0
 13
-519.29129873099646
 23
122.62440840785879
 33
0.0
210
0.0
220
0.0
230
-1.0
  0
SOLID
  5
648
  8
0
  6
CONTINUOUS
 10
515.59578060095123
 20
122.62440840785879
 30
0.0
 11
516.02932610360074
 21
121.9755617102158
 31
0.0
 12
518.85775322834695
 22
121.9755617102158
 32
0.0
 13
518.85775322834695
 23
121.9755617102158
 33
0.0
210
0.0
220
0.0
230
1.0
  0
SOLID
  5
649
  8
0
  6
CONTINUOUS
 10
-515.59578060095123
 20
122.62440840785879
 30
0.0
 11
-519.29129873099646
 21
122.62440840785879
 31
0.0
 12
-518.85775322834695
 22
121.9755617102158
 32
0.0
 13
-518.85775322834695
 23
121.9755617102158
 33
0.0
210
0.0
220
0.0
230
-1.0
  0
SOLID
  5
64A
  8
0
  6
CONTINUOUS
 10
-516.6781728012437
 20
121.54201620756641
 30
0.0
 11
-518.20890653070398
 21
121.54201620756641
 31
0.0
 12
-517.44353966597384
 22
121.38977527258891
 32
0.0
 13
-517.44353966597384
 23
121.38977527258891
 33
0.0
210
0.0
220
0.0
230
-1.0
  0
SOLID
  5
64B
  8
0
  6
CONTINUOUS
 10
516.02932610360074
 20
121.9755617102158
 30
0.0
 11
516.6781728012437
 21
121.54201620756641
 31
0.0
 12
518.20890653070398
 22
121.54201620756641
 32
0.0
 13
518.20890653070398
 23
121.54201620756641
 33
0.0
210
0.0
220
0.0
230
1.0
  0
SOLID
  5
64C
  8
0
  6
CONTINUOUS
 10
-516.02932610360074
 20
121.9755617102158
 30
0.0
 11
-518.85775322834695
 21
121.9755617102158
 31
0.0
 12
-518.20890653070398
 22
121.54201620756641
 32
0.0
 13
-518.20890653070398
 23
121.54201620756641
 33
0.0
210
0.0
220
0.0
230
-1.0
  0
LINE
  5
64D
  8
0
  6
CONTINUOUS
 10
517.44353966597384
 20
125.38977527258901
 30
0.0
 11
516.6781728012437
 21
125.23753433761151
 31
0.0
  0
LINE
  5
64E
  8
0
  6
CONTINUOUS
 10
518.20890653070398
 20
125.23753433761151
 30
0.0
 11
517.44353966597384
 21
125.38977527258901
 31
0.0
  0
LINE
  5
64F
  8
0
  6
CONTINUOUS
 10
516.6781728012437
 20
125.23753433761151
 30
0.0
 11
516.02932610360074
 21
124.8039888349621
 31
0.0
  0
LINE
  5
650
  8
0
  6
CONTINUOUS
 10
518.20890653070398
 20
125.23753433761151
 30
0.0
 11
518.85775322834695
 21
124.8039888349621
 31
0.0
  0
LINE
  5
651
  8
0
  6
CONTINUOUS
 10
516.02932610360074
 20
124.8039888349621
 30
0.0
 11
515.59578060095123
 21
124.1551421373191
 31
0.0
  0
LINE
  5
652
  8
0
  6
CONTINUOUS
 10
518.85775322834695
 20
124.8039888349621
 30
0.0
 11
519.29129873099646
 21
124.1551421373191
 31
0.0
  0
LINE
  5
653
  8
0
  6
CONTINUOUS
 10
515.59578060095123
 20
124.1551421373191
 30
0.0
 11
515.44353966597384
 21
123.38977527258901
 31
0.0
  0
LINE
  5
654
  8
0
  6
CONTINUOUS
 10
519.29129873099646
 20
124.1551421373191
 30
0.0
 11
519.44353966597384
 21
123.38977527258901
 31
0.0
  0
LINE
  5
655
  8
0
  6
CONTINUOUS
 10
515.44353966597384
 20
123.38977527258901
 30
0.0
 11
515.59578060095123
 21
122.62440840785879
 31
0.0
  0
LINE
  5
656
  8
0
  6
CONTINUOUS
 10
519.44353966597384
 20
123.38977527258901
 30
0.0
 11
519.29129873099646
 21
122.62440840785879
 31
0.0
  0
LINE
  5
657
  8
0
  6
CONTINUOUS
 10
515.59578060095123
 20
122.62440840785879
 30
0.0
 11
516.02932610360074
 21
121.9755617102158
 31
0.0
  0
LINE
  5
658
  8
0
  6
CONTINUOUS
 10
519.29129873099646
 20
122.62440840785879
 30
0.0
 11
518.85775322834695
 21
121.9755617102158
 31
0.0
  0
LINE
  5
659
  8
0
  6
CONTINUOUS
 10
518.20890653070398
 20
121.54201620756641
 30
0.0
 11
517.44353966597384
 21
121.38977527258891
 31
0.0
  0
LINE
  5
65A
  8
0
  6
CONTINUOUS
 10
517.44353966597384
 20
121.38977527258891
 30
0.0
 11
516.6781728012437
 21
121.54201620756641
 31
0.0
  0
LINE
  5
65B
  8
0
  6
CONTINUOUS
 10
516.02932610360074
 20
121.9755617102158
 30
0.0
 11
516.6781728012437
 21
121.54201620756641
 31
0.0
  0
LINE
  5
65C
  8
0
  6
CONTINUOUS
 10
518.85775322834695
 20
121.9755617102158
 30
0.0
 11
518.20890653070398
 21
121.54201620756641
 31
0.0
  0
ENDBLK
  5
65E
  8
0
  0
BLOCK
  8
0
  2
*U39
 70
     1
 10
0.0
 20
0.0
 30
0.0
  3
*U39
  1

  0
TEXT
  5
660
  8
0
  6
CONTINUOUS
 10
581.24320159587933
 20
99.901070400407093
 30
0.0
 40
9.8353293413173617
  1
905 CF Barge Channel
  7
ARIAL
  0
ENDBLK
  5
662
  8
0
  0
BLOCK
  8
0
  2
*U40
 70
     1
 10
0.0
 20
0.0
 30
0.0
  3
*U40
  1

  0
SOLID
  5
664
  8
0
  6
CONTINUOUS
 10
16.483701512987839
 20
122.4080480157685
 30
0.0
 11
15.71833464825766
 21
122.2558070807911
 31
0.0
 12
17.249068377718022
 22
122.2558070807911
 32
0.0
 13
17.249068377718022
 23
122.2558070807911
 33
0.0
210
0.0
220
0.0
230
1.0
  0
SOLID
  5
665
  8
0
  6
CONTINUOUS
 10
15.71833464825766
 20
122.2558070807911
 30
0.0
 11
15.069487950614739
 21
121.82226157814161
 31
0.0
 12
17.897915075360931
 22
121.82226157814161
 32
0.0
 13
17.897915075360931
 23
121.82226157814161
 33
0.0
210
0.0
220
0.0
230
1.0
  0
SOLID
  5
666
  8
0
  6
CONTINUOUS
 10
-15.71833464825766
 20
122.2558070807911
 30
0.0
 11
-17.249068377718022
 21
122.2558070807911
 31
0.0
 12
-17.897915075360931
 22
121.82226157814161
 32
0.0
 13
-17.897915075360931
 23
121.82226157814161
 33
0.0
210
0.0
220
0.0
230
-1.0
  0
SOLID
  5
667
  8
0
  6
CONTINUOUS
 10
15.069487950614739
 20
121.82226157814161
 30
0.0
 11
14.63594244796526
 21
121.1734148804987
 31
0.0
 12
18.331460578010411
 22
121.1734148804987
 32
0.0
 13
18.331460578010411
 23
121.1734148804987
 33
0.0
210
0.0
220
0.0
230
1.0
  0
SOLID
  5
668
  8
0
  6
CONTINUOUS
 10
-15.069487950614739
 20
121.82226157814161
 30
0.0
 11
-17.897915075360931
 21
121.82226157814161
 31
0.0
 12
-18.331460578010411
 22
121.1734148804987
 32
0.0
 13
-18.331460578010411
 23
121.1734148804987
 33
0.0
210
0.0
220
0.0
230
-1.0
  0
SOLID
  5
669
  8
0
  6
CONTINUOUS
 10
14.63594244796526
 20
121.1734148804987
 30
0.0
 11
14.483701512987841
 21
120.4080480157685
 31
0.0
 12
18.483701512987839
 22
120.4080480157685
 32
0.0
 13
18.483701512987839
 23
120.4080480157685
 33
0.0
210
0.0
220
0.0
230
1.0
  0
SOLID
  5
66A
  8
0
  6
CONTINUOUS
 10
-14.63594244796526
 20
121.1734148804987
 30
0.0
 11
-18.331460578010411
 21
121.1734148804987
 31
0.0
 12
-18.483701512987839
 22
120.4080480157685
 32
0.0
 13
-18.483701512987839
 23
120.4080480157685
 33
0.0
210
0.0
220
0.0
230
-1.0
  0
SOLID
  5
66B
  8
0
  6
CONTINUOUS
 10
14.483701512987841
 20
120.4080480157685
 30
0.0
 11
14.63594244796526
 21
119.6426811510383
 31
0.0
 12
18.331460578010411
 22
119.6426811510383
 32
0.0
 13
18.331460578010411
 23
119.6426811510383
 33
0.0
210
0.0
220
0.0
230
1.0
  0
SOLID
  5
66C
  8
0
  6
CONTINUOUS
 10
-14.483701512987841
 20
120.4080480157685
 30
0.0
 11
-18.483701512987839
 21
120.4080480157685
 31
0.0
 12
-18.331460578010411
 22
119.6426811510383
 32
0.0
 13
-18.331460578010411
 23
119.6426811510383
 33
0.0
210
0.0
220
0.0
230
-1.0
  0
SOLID
  5
66D
  8
0
  6
CONTINUOUS
 10
14.63594244796526
 20
119.6426811510383
 30
0.0
 11
15.069487950614739
 21
118.99383445339539
 31
0.0
 12
17.897915075360931
 22
118.99383445339539
 32
0.0
 13
17.897915075360931
 23
118.99383445339539
 33
0.0
210
0.0
220
0.0
230
1.0
  0
SOLID
  5
66E
  8
0
  6
CONTINUOUS
 10
-14.63594244796526
 20
119.6426811510383
 30
0.0
 11
-18.331460578010411
 21
119.6426811510383
 31
0.0
 12
-17.897915075360931
 22
118.99383445339539
 32
0.0
 13
-17.897915075360931
 23
118.99383445339539
 33
0.0
210
0.0
220
0.0
230
-1.0
  0
SOLID
  5
66F
  8
0
  6
CONTINUOUS
 10
-15.71833464825766
 20
118.560288950746
 30
0.0
 11
-17.249068377718022
 21
118.560288950746
 31
0.0
 12
-16.483701512987839
 22
118.4080480157685
 32
0.0
 13
-16.483701512987839
 23
118.4080480157685
 33
0.0
210
0.0
220
0.0
230
-1.0
  0
SOLID
  5
670
  8
0
  6
CONTINUOUS
 10
15.069487950614739
 20
118.99383445339539
 30
0.0
 11
15.71833464825766
 21
118.560288950746
 31
0.0
 12
17.249068377718022
 22
118.560288950746
 32
0.0
 13
17.249068377718022
 23
118.560288950746
 33
0.0
210
0.0
220
0.0
230
1.0
  0
SOLID
  5
671
  8
0
  6
CONTINUOUS
 10
-15.069487950614739
 20
118.99383445339539
 30
0.0
 11
-17.897915075360931
 21
118.99383445339539
 31
0.0
 12
-17.249068377718022
 22
118.560288950746
 32
0.0
 13
-17.249068377718022
 23
118.560288950746
 33
0.0
210
0.0
220
0.0
230
-1.0
  0
LINE
  5
672
  8
0
  6
CONTINUOUS
 10
16.483701512987839
 20
122.4080480157685
 30
0.0
 11
15.71833464825766
 21
122.2558070807911
 31
0.0
  0
LINE
  5
673
  8
0
  6
CONTINUOUS
 10
17.249068377718022
 20
122.2558070807911
 30
0.0
 11
16.483701512987839
 21
122.4080480157685
 31
0.0
  0
LINE
  5
674
  8
0
  6
CONTINUOUS
 10
15.71833464825766
 20
122.2558070807911
 30
0.0
 11
15.069487950614739
 21
121.82226157814161
 31
0.0
  0
LINE
  5
675
  8
0
  6
CONTINUOUS
 10
17.249068377718022
 20
122.2558070807911
 30
0.0
 11
17.897915075360931
 21
121.82226157814161
 31
0.0
  0
LINE
  5
676
  8
0
  6
CONTINUOUS
 10
15.069487950614739
 20
121.82226157814161
 30
0.0
 11
14.63594244796526
 21
121.1734148804987
 31
0.0
  0
LINE
  5
677
  8
0
  6
CONTINUOUS
 10
17.897915075360931
 20
121.82226157814161
 30
0.0
 11
18.331460578010411
 21
121.1734148804987
 31
0.0
  0
LINE
  5
678
  8
0
  6
CONTINUOUS
 10
14.63594244796526
 20
121.1734148804987
 30
0.0
 11
14.483701512987841
 21
120.4080480157685
 31
0.0
  0
LINE
  5
679
  8
0
  6
CONTINUOUS
 10
18.331460578010411
 20
121.1734148804987
 30
0.0
 11
18.483701512987839
 21
120.4080480157685
 31
0.0
  0
LINE
  5
67A
  8
0
  6
CONTINUOUS
 10
14.483701512987841
 20
120.4080480157685
 30
0.0
 11
14.63594244796526
 21
119.6426811510383
 31
0.0
  0
LINE
  5
67B
  8
0
  6
CONTINUOUS
 10
18.483701512987839
 20
120.4080480157685
 30
0.0
 11
18.331460578010411
 21
119.6426811510383
 31
0.0
  0
LINE
  5
67C
  8
0
  6
CONTINUOUS
 10
14.63594244796526
 20
119.6426811510383
 30
0.0
 11
15.069487950614739
 21
118.99383445339539
 31
0.0
  0
LINE
  5
67D
  8
0
  6
CONTINUOUS
 10
18.331460578010411
 20
119.6426811510383
 30
0.0
 11
17.897915075360931
 21
118.99383445339539
 31
0.0
  0
LINE
  5
67E
  8
0
  6
CONTINUOUS
 10
17.249068377718022
 20
118.560288950746
 30
0.0
 11
16.483701512987839
 21
118.4080480157685
 31
0.0
  0
LINE
  5
67F
  8
0
  6
CONTINUOUS
 10
16.483701512987839
 20
118.4080480157685
 30
0.0
 11
15.71833464825766
 21
118.560288950746
 31
0.0
  0
LINE
  5
680
  8
0
  6
CONTINUOUS
 10
15.069487950614739
 20
118.99383445339539
 30
0.0
 11
15.71833464825766
 21
118.560288950746
 31
0.0
  0
LINE
  5
681
  8
0
  6
CONTINUOUS
 10
17.897915075360931
 20
118.99383445339539
 30
0.0
 11
17.249068377718022
 21
118.560288950746
 31
0.0
  0
ENDBLK
  5
683
  8
0
  0
BLOCK
  8
0
  2
*U41
 70
     1
 10
0.0
 20
0.0
 30
0.0
  3
*U41
  1

  0
TEXT
  5
685
  8
0
  6
CONTINUOUS
 10
-210.46914101577471
 20
261.9585473180253
 30
0.0
 40
9.8353293413173617
  1
Underlay
  7
ARIAL
  0
ENDBLK
  5
687
  8
0
  0
BLOCK
  8
0
  2
*U42
 70
     1
 10
0.0
 20
0.0
 30
0.0
  3
*U42
  1

  0
SOLID
  5
689
  8
0
  6
CONTINUOUS
 10
-31.106703976503031
 20
115.77888224415101
 30
0.0
 11
-31.87207084123321
 21
115.62664130917361
 31
0.0
 12
-30.341337111772852
 22
115.62664130917361
 32
0.0
 13
-30.341337111772852
 23
115.62664130917361
 33
0.0
210
0.0
220
0.0
230
1.0
  0
SOLID
  5
68A
  8
0
  6
CONTINUOUS
 10
-31.87207084123321
 20
115.62664130917361
 30
0.0
 11
-32.52091753887612
 21
115.1930958065241
 31
0.0
 12
-29.692490414129932
 22
115.1930958065241
 32
0.0
 13
-29.692490414129932
 23
115.1930958065241
 33
0.0
210
0.0
220
0.0
230
1.0
  0
SOLID
  5
68B
  8
0
  6
CONTINUOUS
 10
31.87207084123321
 20
115.62664130917361
 30
0.0
 11
30.341337111772852
 21
115.62664130917361
 31
0.0
 12
29.692490414129932
 22
115.1930958065241
 32
0.0
 13
29.692490414129932
 23
115.1930958065241
 33
0.0
210
0.0
220
0.0
230
-1.0
  0
SOLID
  5
68C
  8
0
  6
CONTINUOUS
 10
-32.52091753887612
 20
115.1930958065241
 30
0.0
 11
-32.954463041525599
 21
114.5442491088812
 31
0.0
 12
-29.258944911480452
 22
114.5442491088812
 32
0.0
 13
-29.258944911480452
 23
114.5442491088812
 33
0.0
210
0.0
220
0.0
230
1.0
  0
SOLID
  5
68D
  8
0
  6
CONTINUOUS
 10
32.52091753887612
 20
115.1930958065241
 30
0.0
 11
29.692490414129932
 21
115.1930958065241
 31
0.0
 12
29.258944911480452
 22
114.5442491088812
 32
0.0
 13
29.258944911480452
 23
114.5442491088812
 33
0.0
210
0.0
220
0.0
230
-1.0
  0
SOLID
  5
68E
  8
0
  6
CONTINUOUS
 10
-32.954463041525599
 20
114.5442491088812
 30
0.0
 11
-33.106703976503027
 21
113.77888224415101
 31
0.0
 12
-29.10670397650302
 22
113.77888224415101
 32
0.0
 13
-29.10670397650302
 23
113.77888224415101
 33
0.0
210
0.0
220
0.0
230
1.0
  0
SOLID
  5
68F
  8
0
  6
CONTINUOUS
 10
32.954463041525599
 20
114.5442491088812
 30
0.0
 11
29.258944911480452
 21
114.5442491088812
 31
0.0
 12
29.10670397650302
 22
113.77888224415101
 32
0.0
 13
29.10670397650302
 23
113.77888224415101
 33
0.0
210
0.0
220
0.0
230
-1.0
  0
SOLID
  5
690
  8
0
  6
CONTINUOUS
 10
-33.106703976503027
 20
113.77888224415101
 30
0.0
 11
-32.954463041525599
 21
113.0135153794208
 31
0.0
 12
-29.258944911480452
 22
113.0135153794208
 32
0.0
 13
-29.258944911480452
 23
113.0135153794208
 33
0.0
210
0.0
220
0.0
230
1.0
  0
SOLID
  5
691
  8
0
  6
CONTINUOUS
 10
33.106703976503027
 20
113.77888224415101
 30
0.0
 11
29.10670397650302
 21
113.77888224415101
 31
0.0
 12
29.258944911480452
 22
113.0135153794208
 32
0.0
 13
29.258944911480452
 23
113.0135153794208
 33
0.0
210
0.0
220
0.0
230
-1.0
  0
SOLID
  5
692
  8
0
  6
CONTINUOUS
 10
-32.954463041525599
 20
113.0135153794208
 30
0.0
 11
-32.52091753887612
 21
112.3646686817779
 31
0.0
 12
-29.692490414129932
 22
112.3646686817779
 32
0.0
 13
-29.692490414129932
 23
112.3646686817779
 33
0.0
210
0.0
220
0.0
230
1.0
  0
SOLID
  5
693
  8
0
  6
CONTINUOUS
 10
32.954463041525599
 20
113.0135153794208
 30
0.0
 11
29.258944911480452
 21
113.0135153794208
 31
0.0
 12
29.692490414129932
 22
112.3646686817779
 32
0.0
 13
29.692490414129932
 23
112.3646686817779
 33
0.0
210
0.0
220
0.0
230
-1.0
  0
SOLID
  5
694
  8
0
  6
CONTINUOUS
 10
31.87207084123321
 20
111.93112317912841
 30
0.0
 11
30.341337111772852
 21
111.93112317912841
 31
0.0
 12
31.106703976503031
 22
111.77888224415101
 32
0.0
 13
31.106703976503031
 23
111.77888224415101
 33
0.0
210
0.0
220
0.0
230
-1.0
  0
SOLID
  5
695
  8
0
  6
CONTINUOUS
 10
-32.52091753887612
 20
112.3646686817779
 30
0.0
 11
-31.87207084123321
 21
111.93112317912841
 31
0.0
 12
-30.341337111772852
 22
111.93112317912841
 32
0.0
 13
-30.341337111772852
 23
111.93112317912841
 33
0.0
210
0.0
220
0.0
230
1.0
  0
SOLID
  5
696
  8
0
  6
CONTINUOUS
 10
32.52091753887612
 20
112.3646686817779
 30
0.0
 11
29.692490414129932
 21
112.3646686817779
 31
0.0
 12
30.341337111772852
 22
111.93112317912841
 32
0.0
 13
30.341337111772852
 23
111.93112317912841
 33
0.0
210
0.0
220
0.0
230
-1.0
  0
LINE
  5
697
  8
0
  6
CONTINUOUS
 10
-31.106703976503031
 20
115.77888224415101
 30
0.0
 11
-31.87207084123321
 21
115.62664130917361
 31
0.0
  0
LINE
  5
698
  8
0
  6
CONTINUOUS
 10
-30.341337111772852
 20
115.62664130917361
 30
0.0
 11
-31.106703976503031
 21
115.77888224415101
 31
0.0
  0
LINE
  5
699
  8
0
  6
CONTINUOUS
 10
-31.87207084123321
 20
115.62664130917361
 30
0.0
 11
-32.52091753887612
 21
115.1930958065241
 31
0.0
  0
LINE
  5
69A
  8
0
  6
CONTINUOUS
 10
-30.341337111772852
 20
115.62664130917361
 30
0.0
 11
-29.692490414129932
 21
115.1930958065241
 31
0.0
  0
LINE
  5
69B
  8
0
  6
CONTINUOUS
 10
-32.52091753887612
 20
115.1930958065241
 30
0.0
 11
-32.954463041525599
 21
114.5442491088812
 31
0.0
  0
LINE
  5
69C
  8
0
  6
CONTINUOUS
 10
-29.692490414129932
 20
115.1930958065241
 30
0.0
 11
-29.258944911480452
 21
114.5442491088812
 31
0.0
  0
LINE
  5
69D
  8
0
  6
CONTINUOUS
 10
-32.954463041525599
 20
114.5442491088812
 30
0.0
 11
-33.106703976503027
 21
113.77888224415101
 31
0.0
  0
LINE
  5
69E
  8
0
  6
CONTINUOUS
 10
-29.258944911480452
 20
114.5442491088812
 30
0.0
 11
-29.10670397650302
 21
113.77888224415101
 31
0.0
  0
LINE
  5
69F
  8
0
  6
CONTINUOUS
 10
-33.106703976503027
 20
113.77888224415101
 30
0.0
 11
-32.954463041525599
 21
113.0135153794208
 31
0.0
  0
LINE
  5
6A0
  8
0
  6
CONTINUOUS
 10
-29.10670397650302
 20
113.77888224415101
 30
0.0
 11
-29.258944911480452
 21
113.0135153794208
 31
0.0
  0
LINE
  5
6A1
  8
0
  6
CONTINUOUS
 10
-32.954463041525599
 20
113.0135153794208
 30
0.0
 11
-32.52091753887612
 21
112.3646686817779
 31
0.0
  0
LINE
  5
6A2
  8
0
  6
CONTINUOUS
 10
-29.258944911480452
 20
113.0135153794208
 30
0.0
 11
-29.692490414129932
 21
112.3646686817779
 31
0.0
  0
LINE
  5
6A3
  8
0
  6
CONTINUOUS
 10
-30.341337111772852
 20
111.93112317912841
 30
0.0
 11
-31.106703976503031
 21
111.77888224415101
 31
0.0
  0
LINE
  5
6A4
  8
0
  6
CONTINUOUS
 10
-31.106703976503031
 20
111.77888224415101
 30
0.0
 11
-31.87207084123321
 21
111.93112317912841
 31
0.0
  0
LINE
  5
6A5
  8
0
  6
CONTINUOUS
 10
-32.52091753887612
 20
112.3646686817779
 30
0.0
 11
-31.87207084123321
 21
111.93112317912841
 31
0.0
  0
LINE
  5
6A6
  8
0
  6
CONTINUOUS
 10
-29.692490414129932
 20
112.3646686817779
 30
0.0
 11
-30.341337111772852
 21
111.93112317912841
 31
0.0
  0
ENDBLK
  5
6A8
  8
0
  0
BLOCK
  8
0
  2
*U43
 70
     1
 10
0.0
 20
0.0
 30
0.0
  3
*U43
  1

  0
TEXT
  5
6AA
  8
0
  6
CONTINUOUS
 10
-210.00622305905509
 20
203.43824601235869
 30
0.0
 40
9.8353293413173617
  1
Substrate
  7
ARIAL
  0
ENDBLK
  5
6AC
  8
0
  0
BLOCK
  8
0
  2
*U44
 70
     1
 10
0.0
 20
0.0
 30
0.0
  3
*U44
  1

  0
SOLID
  5
6AE
  8
0
  6
CONTINUOUS
 10
414.80110512497521
 20
-5.3438215980008543
 30
0.0
 11
414.03573826024501
 21
-5.4960625329782804
 31
0.0
 12
415.56647198970529
 22
-5.4960625329782804
 32
0.0
 13
415.56647198970529
 23
-5.4960625329782804
 33
0.0
210
0.0
220
0.0
230
1.0
  0
SOLID
  5
6AF
  8
0
  6
CONTINUOUS
 10
414.03573826024501
 20
-5.4960625329782804
 30
0.0
 11
413.38689156260199
 21
-5.9296080356277576
 31
0.0
 12
416.2153186873482
 22
-5.9296080356277576
 32
0.0
 13
416.2153186873482
 23
-5.9296080356277576
 33
0.0
210
0.0
220
0.0
230
1.0
  0
SOLID
  5
6B0
  8
0
  6
CONTINUOUS
 10
-414.03573826024501
 20
-5.4960625329782804
 30
0.0
 11
-415.56647198970529
 21
-5.4960625329782804
 31
0.0
 12
-416.2153186873482
 22
-5.9296080356277576
 32
0.0
 13
-416.2153186873482
 23
-5.9296080356277576
 33
0.0
210
0.0
220
0.0
230
-1.0
  0
SOLID
  5
6B1
  8
0
  6
CONTINUOUS
 10
413.38689156260199
 20
-5.9296080356277576
 30
0.0
 11
412.95334605995259
 21
-6.5784547332706733
 31
0.0
 12
416.64886418999771
 22
-6.5784547332706733
 32
0.0
 13
416.64886418999771
 23
-6.5784547332706733
 33
0.0
210
0.0
220
0.0
230
1.0
  0
SOLID
  5
6B2
  8
0
  6
CONTINUOUS
 10
-413.38689156260199
 20
-5.9296080356277576
 30
0.0
 11
-416.2153186873482
 21
-5.9296080356277576
 31
0.0
 12
-416.64886418999771
 22
-6.5784547332706733
 32
0.0
 13
-416.64886418999771
 23
-6.5784547332706733
 33
0.0
210
0.0
220
0.0
230
-1.0
  0
SOLID
  5
6B3
  8
0
  6
CONTINUOUS
 10
412.95334605995259
 20
-6.5784547332706733
 30
0.0
 11
412.80110512497509
 21
-7.3438215980008508
 31
0.0
 12
416.80110512497509
 22
-7.3438215980008508
 32
0.0
 13
416.80110512497509
 23
-7.3438215980008508
 33
0.0
210
0.0
220
0.0
230
1.0
  0
SOLID
  5
6B4
  8
0
  6
CONTINUOUS
 10
-412.95334605995259
 20
-6.5784547332706733
 30
0.0
 11
-416.64886418999771
 21
-6.5784547332706733
 31
0.0
 12
-416.80110512497509
 22
-7.3438215980008508
 32
0.0
 13
-416.80110512497509
 23
-7.3438215980008508
 33
0.0
210
0.0
220
0.0
230
-1.0
  0
SOLID
  5
6B5
  8
0
  6
CONTINUOUS
 10
412.80110512497509
 20
-7.3438215980008508
 30
0.0
 11
412.95334605995259
 21
-8.10918846273103
 31
0.0
 12
416.64886418999771
 22
-8.10918846273103
 32
0.0
 13
416.64886418999771
 23
-8.10918846273103
 33
0.0
210
0.0
220
0.0
230
1.0
  0
SOLID
  5
6B6
  8
0
  6
CONTINUOUS
 10
-412.80110512497509
 20
-7.3438215980008508
 30
0.0
 11
-416.80110512497509
 21
-7.3438215980008508
 31
0.0
 12
-416.64886418999771
 22
-8.10918846273103
 32
0.0
 13
-416.64886418999771
 23
-8.10918846273103
 33
0.0
210
0.0
220
0.0
230
-1.0
  0
SOLID
  5
6B7
  8
0
  6
CONTINUOUS
 10
412.95334605995259
 20
-8.10918846273103
 30
0.0
 11
413.38689156260199
 21
-8.7580351603739448
 31
0.0
 12
416.2153186873482
 22
-8.7580351603739448
 32
0.0
 13
416.2153186873482
 23
-8.7580351603739448
 33
0.0
210
0.0
220
0.0
230
1.0
  0
SOLID
  5
6B8
  8
0
  6
CONTINUOUS
 10
-412.95334605995259
 20
-8.10918846273103
 30
0.0
 11
-416.64886418999771
 21
-8.10918846273103
 31
0.0
 12
-416.2153186873482
 22
-8.7580351603739448
 32
0.0
 13
-416.2153186873482
 23
-8.7580351603739448
 33
0.0
210
0.0
220
0.0
230
-1.0
  0
SOLID
  5
6B9
  8
0
  6
CONTINUOUS
 10
-414.03573826024501
 20
-9.1915806630234211
 30
0.0
 11
-415.56647198970529
 21
-9.1915806630234211
 31
0.0
 12
-414.80110512497521
 22
-9.3438215980008472
 32
0.0
 13
-414.80110512497521
 23
-9.3438215980008472
 33
0.0
210
0.0
220
0.0
230
-1.0
  0
SOLID
  5
6BA
  8
0
  6
CONTINUOUS
 10
413.38689156260199
 20
-8.7580351603739448
 30
0.0
 11
414.03573826024501
 21
-9.1915806630234211
 31
0.0
 12
415.56647198970529
 22
-9.1915806630234211
 32
0.0
 13
415.56647198970529
 23
-9.1915806630234211
 33
0.0
210
0.0
220
0.0
230
1.0
  0
SOLID
  5
6BB
  8
0
  6
CONTINUOUS
 10
-413.38689156260199
 20
-8.7580351603739448
 30
0.0
 11
-416.2153186873482
 21
-8.7580351603739448
 31
0.0
 12
-415.56647198970529
 22
-9.1915806630234211
 32
0.0
 13
-415.56647198970529
 23
-9.1915806630234211
 33
0.0
210
0.0
220
0.0
230
-1.0
  0
LINE
  5
6BC
  8
0
  6
CONTINUOUS
 10
414.80110512497521
 20
-5.3438215980008543
 30
0.0
 11
414.03573826024501
 21
-5.4960625329782804
 31
0.0
  0
LINE
  5
6BD
  8
0
  6
CONTINUOUS
 10
415.56647198970529
 20
-5.4960625329782804
 30
0.0
 11
414.80110512497521
 21
-5.3438215980008543
 31
0.0
  0
LINE
  5
6BE
  8
0
  6
CONTINUOUS
 10
414.03573826024501
 20
-5.4960625329782804
 30
0.0
 11
413.38689156260199
 21
-5.9296080356277576
 31
0.0
  0
LINE
  5
6BF
  8
0
  6
CONTINUOUS
 10
415.56647198970529
 20
-5.4960625329782804
 30
0.0
 11
416.2153186873482
 21
-5.9296080356277576
 31
0.0
  0
LINE
  5
6C0
  8
0
  6
CONTINUOUS
 10
413.38689156260199
 20
-5.9296080356277576
 30
0.0
 11
412.95334605995259
 21
-6.5784547332706733
 31
0.0
  0
LINE
  5
6C1
  8
0
  6
CONTINUOUS
 10
416.2153186873482
 20
-5.9296080356277576
 30
0.0
 11
416.64886418999771
 21
-6.5784547332706733
 31
0.0
  0
LINE
  5
6C2
  8
0
  6
CONTINUOUS
 10
412.95334605995259
 20
-6.5784547332706733
 30
0.0
 11
412.80110512497509
 21
-7.3438215980008508
 31
0.0
  0
LINE
  5
6C3
  8
0
  6
CONTINUOUS
 10
416.64886418999771
 20
-6.5784547332706733
 30
0.0
 11
416.80110512497509
 21
-7.3438215980008508
 31
0.0
  0
LINE
  5
6C4
  8
0
  6
CONTINUOUS
 10
412.80110512497509
 20
-7.3438215980008508
 30
0.0
 11
412.95334605995259
 21
-8.10918846273103
 31
0.0
  0
LINE
  5
6C5
  8
0
  6
CONTINUOUS
 10
416.80110512497509
 20
-7.3438215980008508
 30
0.0
 11
416.64886418999771
 21
-8.10918846273103
 31
0.0
  0
LINE
  5
6C6
  8
0
  6
CONTINUOUS
 10
412.95334605995259
 20
-8.10918846273103
 30
0.0
 11
413.38689156260199
 21
-8.7580351603739448
 31
0.0
  0
LINE
  5
6C7
  8
0
  6
CONTINUOUS
 10
416.64886418999771
 20
-8.10918846273103
 30
0.0
 11
416.2153186873482
 21
-8.7580351603739448
 31
0.0
  0
LINE
  5
6C8
  8
0
  6
CONTINUOUS
 10
415.56647198970529
 20
-9.1915806630234211
 30
0.0
 11
414.80110512497521
 21
-9.3438215980008472
 31
0.0
  0
LINE
  5
6C9
  8
0
  6
CONTINUOUS
 10
414.80110512497521
 20
-9.3438215980008472
 30
0.0
 11
414.03573826024501
 21
-9.1915806630234211
 31
0.0
  0
LINE
  5
6CA
  8
0
  6
CONTINUOUS
 10
413.38689156260199
 20
-8.7580351603739448
 30
0.0
 11
414.03573826024501
 21
-9.1915806630234211
 31
0.0
  0
LINE
  5
6CB
  8
0
  6
CONTINUOUS
 10
416.2153186873482
 20
-8.7580351603739448
 30
0.0
 11
415.56647198970529
 21
-9.1915806630234211
 31
0.0
  0
ENDBLK
  5
6CD
  8
0
  0
BLOCK
  8
0
  2
*U45
 70
     1
 10
0.0
 20
0.0
 30
0.0
  3
*U45
  1

  0
TEXT
  5
6CF
  8
0
  6
CONTINUOUS
 10
582.44623890461787
 20
-158.8489120456926
 30
0.0
 40
9.8353293413173617
  1
Soffit lining
  7
ARIAL
  0
ENDBLK
  5
6D1
  8
0
  0
BLOCK
  8
0
  2
*U46
 70
     1
 10
0.0
 20
0.0
 30
0.0
  3
*U46
  1

  0
SOLID
  5
6D3
  8
0
  6
CONTINUOUS
 10
514.52881619290054
 20
-15.206838883836349
 30
0.0
 11
513.76344932817028
 21
-15.359079818813781
 31
0.0
 12
515.29418305763056
 22
-15.359079818813781
 32
0.0
 13
515.29418305763056
 23
-15.359079818813781
 33
0.0
210
0.0
220
0.0
230
1.0
  0
SOLID
  5
6D4
  8
0
  6
CONTINUOUS
 10
513.76344932817028
 20
-15.359079818813781
 30
0.0
 11
513.11460263052743
 21
-15.792625321463261
 31
0.0
 12
515.94302975527364
 22
-15.792625321463261
 32
0.0
 13
515.94302975527364
 23
-15.792625321463261
 33
0.0
210
0.0
220
0.0
230
1.0
  0
SOLID
  5
6D5
  8
0
  6
CONTINUOUS
 10
-513.76344932817028
 20
-15.359079818813781
 30
0.0
 11
-515.29418305763056
 21
-15.359079818813781
 31
0.0
 12
-515.94302975527364
 22
-15.792625321463261
 32
0.0
 13
-515.94302975527364
 23
-15.792625321463261
 33
0.0
210
0.0
220
0.0
230
-1.0
  0
SOLID
  5
6D6
  8
0
  6
CONTINUOUS
 10
513.11460263052743
 20
-15.792625321463261
 30
0.0
 11
512.68105712787792
 21
-16.44147201910619
 31
0.0
 12
516.37657525792315
 22
-16.44147201910619
 32
0.0
 13
516.37657525792315
 23
-16.44147201910619
 33
0.0
210
0.0
220
0.0
230
1.0
  0
SOLID
  5
6D7
  8
0
  6
CONTINUOUS
 10
-513.11460263052743
 20
-15.792625321463261
 30
0.0
 11
-515.94302975527364
 21
-15.792625321463261
 31
0.0
 12
-516.37657525792315
 22
-16.44147201910619
 32
0.0
 13
-516.37657525792315
 23
-16.44147201910619
 33
0.0
210
0.0
220
0.0
230
-1.0
  0
SOLID
  5
6D8
  8
0
  6
CONTINUOUS
 10
512.68105712787792
 20
-16.44147201910619
 30
0.0
 11
512.52881619290054
 21
-17.20683888383639
 31
0.0
 12
516.52881619290054
 22
-17.20683888383639
 32
0.0
 13
516.52881619290054
 23
-17.20683888383639
 33
0.0
210
0.0
220
0.0
230
1.0
  0
SOLID
  5
6D9
  8
0
  6
CONTINUOUS
 10
-512.68105712787792
 20
-16.44147201910619
 30
0.0
 11
-516.37657525792315
 21
-16.44147201910619
 31
0.0
 12
-516.52881619290054
 22
-17.20683888383639
 32
0.0
 13
-516.52881619290054
 23
-17.20683888383639
 33
0.0
210
0.0
220
0.0
230
-1.0
  0
SOLID
  5
6DA
  8
0
  6
CONTINUOUS
 10
512.52881619290054
 20
-17.20683888383639
 30
0.0
 11
512.68105712787792
 21
-17.97220574856658
 31
0.0
 12
516.37657525792315
 22
-17.97220574856658
 32
0.0
 13
516.37657525792315
 23
-17.97220574856658
 33
0.0
  0
SOLID
  5
6DB
  8
0
  6
CONTINUOUS
 10
-512.52881619290054
 20
-17.20683888383639
 30
0.0
 11
-516.52881619290054
 21
-17.20683888383639
 31
0.0
 12
-516.37657525792315
 22
-17.97220574856658
 32
0.0
 13
-516.37657525792315
 23
-17.97220574856658
 33
0.0
210
0.0
220
0.0
230
-1.0
  0
SOLID
  5
6DC
  8
0
  6
CONTINUOUS
 10
512.68105712787792
 20
-17.97220574856658
 30
0.0
 11
513.11460263052743
 21
-18.6210524462095
 31
0.0
 12
515.94302975527364
 22
-18.6210524462095
 32
0.0
 13
515.94302975527364
 23
-18.6210524462095
 33
0.0
210
0.0
220
0.0
230
1.0
  0
SOLID
  5
6DD
  8
0
  6
CONTINUOUS
 10
-512.68105712787792
 20
-17.97220574856658
 30
0.0
 11
-516.37657525792315
 21
-17.97220574856658
 31
0.0
 12
-515.94302975527364
 22
-18.6210524462095
 32
0.0
 13
-515.94302975527364
 23
-18.6210524462095
 33
0.0
210
0.0
220
0.0
230
-1.0
  0
SOLID
  5
6DE
  8
0
  6
CONTINUOUS
 10
-513.76344932817028
 20
-19.054597948858991
 30
0.0
 11
-515.29418305763056
 21
-19.054597948858991
 31
0.0
 12
-514.52881619290054
 22
-19.206838883836419
 32
0.0
 13
-514.52881619290054
 23
-19.206838883836419
 33
0.0
210
0.0
220
0.0
230
-1.0
  0
SOLID
  5
6DF
  8
0
  6
CONTINUOUS
 10
513.11460263052743
 20
-18.6210524462095
 30
0.0
 11
513.76344932817028
 21
-19.054597948858991
 31
0.0
 12
515.29418305763056
 22
-19.054597948858991
 32
0.0
 13
515.29418305763056
 23
-19.054597948858991
 33
0.0
  0
SOLID
  5
6E0
  8
0
  6
CONTINUOUS
 10
-513.11460263052743
 20
-18.6210524462095
 30
0.0
 11
-515.94302975527364
 21
-18.6210524462095
 31
0.0
 12
-515.29418305763056
 22
-19.054597948858991
 32
0.0
 13
-515.29418305763056
 23
-19.054597948858991
 33
0.0
210
0.0
220
0.0
230
-1.0
  0
LINE
  5
6E1
  8
0
  6
CONTINUOUS
 10
514.52881619290054
 20
-15.206838883836349
 30
0.0
 11
513.76344932817028
 21
-15.359079818813781
 31
0.0
  0
LINE
  5
6E2
  8
0
  6
CONTINUOUS
 10
515.29418305763056
 20
-15.359079818813781
 30
0.0
 11
514.52881619290054
 21
-15.206838883836349
 31
0.0
  0
LINE
  5
6E3
  8
0
  6
CONTINUOUS
 10
513.76344932817028
 20
-15.359079818813781
 30
0.0
 11
513.11460263052743
 21
-15.792625321463261
 31
0.0
  0
LINE
  5
6E4
  8
0
  6
CONTINUOUS
 10
515.29418305763056
 20
-15.359079818813781
 30
0.0
 11
515.94302975527364
 21
-15.792625321463261
 31
0.0
  0
LINE
  5
6E5
  8
0
  6
CONTINUOUS
 10
513.11460263052743
 20
-15.792625321463261
 30
0.0
 11
512.68105712787792
 21
-16.44147201910619
 31
0.0
  0
LINE
  5
6E6
  8
0
  6
CONTINUOUS
 10
515.94302975527364
 20
-15.792625321463261
 30
0.0
 11
516.37657525792315
 21
-16.44147201910619
 31
0.0
  0
LINE
  5
6E7
  8
0
  6
CONTINUOUS
 10
512.68105712787792
 20
-16.44147201910619
 30
0.0
 11
512.52881619290054
 21
-17.20683888383639
 31
0.0
  0
LINE
  5
6E8
  8
0
  6
CONTINUOUS
 10
516.37657525792315
 20
-16.44147201910619
 30
0.0
 11
516.52881619290054
 21
-17.20683888383639
 31
0.0
  0
LINE
  5
6E9
  8
0
  6
CONTINUOUS
 10
512.52881619290054
 20
-17.20683888383639
 30
0.0
 11
512.68105712787792
 21
-17.97220574856658
 31
0.0
  0
LINE
  5
6EA
  8
0
  6
CONTINUOUS
 10
516.52881619290054
 20
-17.20683888383639
 30
0.0
 11
516.37657525792315
 21
-17.97220574856658
 31
0.0
  0
LINE
  5
6EB
  8
0
  6
CONTINUOUS
 10
512.68105712787792
 20
-17.97220574856658
 30
0.0
 11
513.11460263052743
 21
-18.6210524462095
 31
0.0
  0
LINE
  5
6EC
  8
0
  6
CONTINUOUS
 10
516.37657525792315
 20
-17.97220574856658
 30
0.0
 11
515.94302975527364
 21
-18.6210524462095
 31
0.0
  0
LINE
  5
6ED
  8
0
  6
CONTINUOUS
 10
515.29418305763056
 20
-19.054597948858991
 30
0.0
 11
514.52881619290054
 21
-19.206838883836419
 31
0.0
  0
LINE
  5
6EE
  8
0
  6
CONTINUOUS
 10
514.52881619290054
 20
-19.206838883836419
 30
0.0
 11
513.76344932817028
 21
-19.054597948858991
 31
0.0
  0
LINE
  5
6EF
  8
0
  6
CONTINUOUS
 10
513.11460263052743
 20
-18.6210524462095
 30
0.0
 11
513.76344932817028
 21
-19.054597948858991
 31
0.0
  0
LINE
  5
6F0
  8
0
  6
CONTINUOUS
 10
515.94302975527364
 20
-18.6210524462095
 30
0.0
 11
515.29418305763056
 21
-19.054597948858991
 31
0.0
  0
ENDBLK
  5
6F2
  8
0
  0
BLOCK
  8
0
  2
*U47
 70
     1
 10
0.0
 20
0.0
 30
0.0
  3
*U47
  1

  0
TEXT
  5
6F4
  8
0
  6
CONTINUOUS
 10
582.05711946273766
 20
-77.835485313063288
 30
0.0
 40
9.8353293413173617
  1
Barge board *
  7
ARIAL
  0
ENDBLK
  5
6F6
  8
0
  0
BLOCK
  8
0
  2
*U48
 70
     1
 10
0.0
 20
0.0
 30
0.0
  3
*U48
  1

  0
SOLID
  5
6F8
  8
0
  6
CONTINUOUS
 10
509.9890150658988
 20
163.2543169176212
 30
0.0
 11
509.2236482011686
 21
163.10207598264381
 31
0.0
 12
510.75438193062899
 22
163.10207598264381
 32
0.0
 13
510.75438193062899
 23
163.10207598264381
 33
0.0
210
0.0
220
0.0
230
1.0
  0
SOLID
  5
6F9
  8
0
  6
CONTINUOUS
 10
509.2236482011686
 20
163.10207598264381
 30
0.0
 11
508.57480150352569
 21
162.6685304799943
 31
0.0
 12
511.40322862827202
 22
162.6685304799943
 32
0.0
 13
511.40322862827202
 23
162.6685304799943
 33
0.0
210
0.0
220
0.0
230
1.0
  0
SOLID
  5
6FA
  8
0
  6
CONTINUOUS
 10
-509.2236482011686
 20
163.10207598264381
 30
0.0
 11
-510.75438193062899
 21
163.10207598264381
 31
0.0
 12
-511.40322862827202
 22
162.6685304799943
 32
0.0
 13
-511.40322862827202
 23
162.6685304799943
 33
0.0
210
0.0
220
0.0
230
-1.0
  0
SOLID
  5
6FB
  8
0
  6
CONTINUOUS
 10
508.57480150352569
 20
162.6685304799943
 30
0.0
 11
508.1412560008763
 21
162.01968378235139
 31
0.0
 12
511.83677413092141
 22
162.01968378235139
 32
0.0
 13
511.83677413092141
 23
162.01968378235139
 33
0.0
210
0.0
220
0.0
230
1.0
  0
SOLID
  5
6FC
  8
0
  6
CONTINUOUS
 10
-508.57480150352569
 20
162.6685304799943
 30
0.0
 11
-511.40322862827202
 21
162.6685304799943
 31
0.0
 12
-511.83677413092141
 22
162.01968378235139
 32
0.0
 13
-511.83677413092141
 23
162.01968378235139
 33
0.0
210
0.0
220
0.0
230
-1.0
  0
SOLID
  5
6FD
  8
0
  6
CONTINUOUS
 10
508.1412560008763
 20
162.01968378235139
 30
0.0
 11
507.98901506589891
 21
161.2543169176212
 31
0.0
 12
511.9890150658988
 22
161.2543169176212
 32
0.0
 13
511.9890150658988
 23
161.2543169176212
 33
0.0
210
0.0
220
0.0
230
1.0
  0
SOLID
  5
6FE
  8
0
  6
CONTINUOUS
 10
-508.1412560008763
 20
162.01968378235139
 30
0.0
 11
-511.83677413092141
 21
162.01968378235139
 31
0.0
 12
-511.9890150658988
 22
161.2543169176212
 32
0.0
 13
-511.9890150658988
 23
161.2543169176212
 33
0.0
210
0.0
220
0.0
230
-1.0
  0
SOLID
  5
6FF
  8
0
  6
CONTINUOUS
 10
507.98901506589891
 20
161.2543169176212
 30
0.0
 11
508.1412560008763
 21
160.488950052891
 31
0.0
 12
511.83677413092141
 22
160.488950052891
 32
0.0
 13
511.83677413092141
 23
160.488950052891
 33
0.0
210
0.0
220
0.0
230
1.0
  0
SOLID
  5
700
  8
0
  6
CONTINUOUS
 10
-507.98901506589891
 20
161.2543169176212
 30
0.0
 11
-511.9890150658988
 21
161.2543169176212
 31
0.0
 12
-511.83677413092141
 22
160.488950052891
 32
0.0
 13
-511.83677413092141
 23
160.488950052891
 33
0.0
210
0.0
220
0.0
230
-1.0
  0
SOLID
  5
701
  8
0
  6
CONTINUOUS
 10
508.1412560008763
 20
160.488950052891
 30
0.0
 11
508.57480150352569
 21
159.84010335524809
 31
0.0
 12
511.40322862827202
 22
159.84010335524809
 32
0.0
 13
511.40322862827202
 23
159.84010335524809
 33
0.0
210
0.0
220
0.0
230
1.0
  0
SOLID
  5
702
  8
0
  6
CONTINUOUS
 10
-508.1412560008763
 20
160.488950052891
 30
0.0
 11
-511.83677413092141
 21
160.488950052891
 31
0.0
 12
-511.40322862827202
 22
159.84010335524809
 32
0.0
 13
-511.40322862827202
 23
159.84010335524809
 33
0.0
210
0.0
220
0.0
230
-1.0
  0
SOLID
  5
703
  8
0
  6
CONTINUOUS
 10
-509.2236482011686
 20
159.40655785259861
 30
0.0
 11
-510.75438193062899
 21
159.40655785259861
 31
0.0
 12
-509.9890150658988
 22
159.2543169176212
 32
0.0
 13
-509.9890150658988
 23
159.2543169176212
 33
0.0
210
0.0
220
0.0
230
-1.0
  0
SOLID
  5
704
  8
0
  6
CONTINUOUS
 10
508.57480150352569
 20
159.84010335524809
 30
0.0
 11
509.2236482011686
 21
159.40655785259861
 31
0.0
 12
510.75438193062899
 22
159.40655785259861
 32
0.0
 13
510.75438193062899
 23
159.40655785259861
 33
0.0
210
0.0
220
0.0
230
1.0
  0
SOLID
  5
705
  8
0
  6
CONTINUOUS
 10
-508.57480150352569
 20
159.84010335524809
 30
0.0
 11
-511.40322862827202
 21
159.84010335524809
 31
0.0
 12
-510.75438193062899
 22
159.40655785259861
 32
0.0
 13
-510.75438193062899
 23
159.40655785259861
 33
0.0
210
0.0
220
0.0
230
-1.0
  0
LINE
  5
706
  8
0
  6
CONTINUOUS
 10
509.9890150658988
 20
163.2543169176212
 30
0.0
 11
509.2236482011686
 21
163.10207598264381
 31
0.0
  0
LINE
  5
707
  8
0
  6
CONTINUOUS
 10
510.75438193062899
 20
163.10207598264381
 30
0.0
 11
509.9890150658988
 21
163.2543169176212
 31
0.0
  0
LINE
  5
708
  8
0
  6
CONTINUOUS
 10
509.2236482011686
 20
163.10207598264381
 30
0.0
 11
508.57480150352569
 21
162.6685304799943
 31
0.0
  0
LINE
  5
709
  8
0
  6
CONTINUOUS
 10
510.75438193062899
 20
163.10207598264381
 30
0.0
 11
511.40322862827202
 21
162.6685304799943
 31
0.0
  0
LINE
  5
70A
  8
0
  6
CONTINUOUS
 10
508.57480150352569
 20
162.6685304799943
 30
0.0
 11
508.1412560008763
 21
162.01968378235139
 31
0.0
  0
LINE
  5
70B
  8
0
  6
CONTINUOUS
 10
511.40322862827202
 20
162.6685304799943
 30
0.0
 11
511.83677413092141
 21
162.01968378235139
 31
0.0
  0
LINE
  5
70C
  8
0
  6
CONTINUOUS
 10
508.1412560008763
 20
162.01968378235139
 30
0.0
 11
507.98901506589891
 21
161.2543169176212
 31
0.0
  0
LINE
  5
70D
  8
0
  6
CONTINUOUS
 10
511.83677413092141
 20
162.01968378235139
 30
0.0
 11
511.9890150658988
 21
161.2543169176212
 31
0.0
  0
LINE
  5
70E
  8
0
  6
CONTINUOUS
 10
507.98901506589891
 20
161.2543169176212
 30
0.0
 11
508.1412560008763
 21
160.488950052891
 31
0.0
  0
LINE
  5
70F
  8
0
  6
CONTINUOUS
 10
511.9890150658988
 20
161.2543169176212
 30
0.0
 11
511.83677413092141
 21
160.488950052891
 31
0.0
  0
LINE
  5
710
  8
0
  6
CONTINUOUS
 10
508.1412560008763
 20
160.488950052891
 30
0.0
 11
508.57480150352569
 21
159.84010335524809
 31
0.0
  0
LINE
  5
711
  8
0
  6
CONTINUOUS
 10
511.83677413092141
 20
160.488950052891
 30
0.0
 11
511.40322862827202
 21
159.84010335524809
 31
0.0
  0
LINE
  5
712
  8
0
  6
CONTINUOUS
 10
510.75438193062899
 20
159.40655785259861
 30
0.0
 11
509.9890150658988
 21
159.2543169176212
 31
0.0
  0
LINE
  5
713
  8
0
  6
CONTINUOUS
 10
509.9890150658988
 20
159.2543169176212
 30
0.0
 11
509.2236482011686
 21
159.40655785259861
 31
0.0
  0
LINE
  5
714
  8
0
  6
CONTINUOUS
 10
508.57480150352569
 20
159.84010335524809
 30
0.0
 11
509.2236482011686
 21
159.40655785259861
 31
0.0
  0
LINE
  5
715
  8
0
  6
CONTINUOUS
 10
511.40322862827202
 20
159.84010335524809
 30
0.0
 11
510.75438193062899
 21
159.40655785259861
 31
0.0
  0
ENDBLK
  5
717
  8
0
  0
BLOCK
  8
0
  2
*U49
 70
     1
 10
0.0
 20
0.0
 30
0.0
  3
*U49
  1

  0
TEXT
  5
719
  8
0
  6
CONTINUOUS
 10
582.49320159587921
 20
212.54444958429659
 30
0.0
 40
9.8353293413173617
  1
903 CF Barge Cover
  7
ARIAL
  0
ENDBLK
  5
71B
  8
0
  0
BLOCK
  8
0
  2
*U50
 70
     1
 10
0.0
 20
0.0
 30
0.0
  3
*U50
  1

  0
SOLID
  5
71D
  8
0
  6
CONTINUOUS
 10
-97.224949441907796
 20
52.000000000000391
 30
0.0
 11
-97.990316306637965
 21
51.847759065022963
 31
0.0
 12
-96.459582577177613
 22
51.847759065022963
 32
0.0
 13
-96.459582577177613
 23
51.847759065022963
 33
0.0
210
0.0
220
0.0
230
1.0
  0
SOLID
  5
71E
  8
0
  6
CONTINUOUS
 10
-97.990316306637965
 20
51.847759065022963
 30
0.0
 11
-98.639163004280903
 21
51.414213562373483
 31
0.0
 12
-95.810735879534704
 22
51.414213562373483
 32
0.0
 13
-95.810735879534704
 23
51.414213562373483
 33
0.0
210
0.0
220
0.0
230
1.0
  0
SOLID
  5
71F
  8
0
  6
CONTINUOUS
 10
97.990316306637965
 20
51.847759065022963
 30
0.0
 11
96.459582577177613
 21
51.847759065022963
 31
0.0
 12
95.810735879534704
 22
51.414213562373483
 32
0.0
 13
95.810735879534704
 23
51.414213562373483
 33
0.0
210
0.0
220
0.0
230
-1.0
  0
SOLID
  5
720
  8
0
  6
CONTINUOUS
 10
-98.639163004280903
 20
51.414213562373483
 30
0.0
 11
-99.072708506930383
 21
50.765366864730566
 31
0.0
 12
-95.377190376885224
 22
50.765366864730566
 32
0.0
 13
-95.377190376885224
 23
50.765366864730566
 33
0.0
210
0.0
220
0.0
230
1.0
  0
SOLID
  5
721
  8
0
  6
CONTINUOUS
 10
98.639163004280903
 20
51.414213562373483
 30
0.0
 11
95.810735879534704
 21
51.414213562373483
 31
0.0
 12
95.377190376885224
 22
50.765366864730566
 32
0.0
 13
95.377190376885224
 23
50.765366864730566
 33
0.0
210
0.0
220
0.0
230
-1.0
  0
SOLID
  5
722
  8
0
  6
CONTINUOUS
 10
-99.072708506930383
 20
50.765366864730566
 30
0.0
 11
-99.22494944190781
 21
50.000000000000391
 31
0.0
 12
-95.224949441907796
 22
50.000000000000391
 32
0.0
 13
-95.224949441907796
 23
50.000000000000391
 33
0.0
210
0.0
220
0.0
230
1.0
  0
SOLID
  5
723
  8
0
  6
CONTINUOUS
 10
99.072708506930383
 20
50.765366864730566
 30
0.0
 11
95.377190376885224
 21
50.765366864730566
 31
0.0
 12
95.224949441907796
 22
50.000000000000391
 32
0.0
 13
95.224949441907796
 23
50.000000000000391
 33
0.0
210
0.0
220
0.0
230
-1.0
  0
SOLID
  5
724
  8
0
  6
CONTINUOUS
 10
-99.22494944190781
 20
50.000000000000391
 30
0.0
 11
-99.072708506930383
 21
49.234633135270201
 31
0.0
 12
-95.377190376885224
 22
49.234633135270201
 32
0.0
 13
-95.377190376885224
 23
49.234633135270201
 33
0.0
  0
SOLID
  5
725
  8
0
  6
CONTINUOUS
 10
99.22494944190781
 20
50.000000000000391
 30
0.0
 11
95.224949441907796
 21
50.000000000000391
 31
0.0
 12
95.377190376885224
 22
49.234633135270201
 32
0.0
 13
95.377190376885224
 23
49.234633135270201
 33
0.0
210
0.0
220
0.0
230
-1.0
  0
SOLID
  5
726
  8
0
  6
CONTINUOUS
 10
-99.072708506930383
 20
49.234633135270201
 30
0.0
 11
-98.639163004280888
 21
48.585786437627277
 31
0.0
 12
-95.810735879534676
 22
48.585786437627277
 32
0.0
 13
-95.810735879534676
 23
48.585786437627277
 33
0.0
210
0.0
220
0.0
230
1.0
  0
SOLID
  5
727
  8
0
  6
CONTINUOUS
 10
99.072708506930383
 20
49.234633135270201
 30
0.0
 11
95.377190376885224
 21
49.234633135270201
 31
0.0
 12
95.810735879534676
 22
48.585786437627277
 32
0.0
 13
95.810735879534676
 23
48.585786437627277
 33
0.0
210
0.0
220
0.0
230
-1.0
  0
SOLID
  5
728
  8
0
  6
CONTINUOUS
 10
97.990316306637965
 20
48.152240934977797
 30
0.0
 11
96.459582577177613
 21
48.152240934977797
 31
0.0
 12
97.224949441907796
 22
48.000000000000377
 32
0.0
 13
97.224949441907796
 23
48.000000000000377
 33
0.0
210
0.0
220
0.0
230
-1.0
  0
SOLID
  5
729
  8
0
  6
CONTINUOUS
 10
-98.639163004280888
 20
48.585786437627277
 30
0.0
 11
-97.990316306637965
 21
48.152240934977797
 31
0.0
 12
-96.459582577177613
 22
48.152240934977797
 32
0.0
 13
-96.459582577177613
 23
48.152240934977797
 33
0.0
210
0.0
220
0.0
230
1.0
  0
SOLID
  5
72A
  8
0
  6
CONTINUOUS
 10
98.639163004280888
 20
48.585786437627277
 30
0.0
 11
95.810735879534676
 21
48.585786437627277
 31
0.0
 12
96.459582577177613
 22
48.152240934977797
 32
0.0
 13
96.459582577177613
 23
48.152240934977797
 33
0.0
210
0.0
220
0.0
230
-1.0
  0
LINE
  5
72B
  8
0
  6
CONTINUOUS
 10
-97.224949441907796
 20
52.000000000000391
 30
0.0
 11
-97.990316306637965
 21
51.847759065022963
 31
0.0
  0
LINE
  5
72C
  8
0
  6
CONTINUOUS
 10
-96.459582577177613
 20
51.847759065022963
 30
0.0
 11
-97.224949441907796
 21
52.000000000000391
 31
0.0
  0
LINE
  5
72D
  8
0
  6
CONTINUOUS
 10
-97.990316306637965
 20
51.847759065022963
 30
0.0
 11
-98.639163004280903
 21
51.414213562373483
 31
0.0
  0
LINE
  5
72E
  8
0
  6
CONTINUOUS
 10
-96.459582577177613
 20
51.847759065022963
 30
0.0
 11
-95.810735879534704
 21
51.414213562373483
 31
0.0
  0
LINE
  5
72F
  8
0
  6
CONTINUOUS
 10
-98.639163004280903
 20
51.414213562373483
 30
0.0
 11
-99.072708506930383
 21
50.765366864730566
 31
0.0
  0
LINE
  5
730
  8
0
  6
CONTINUOUS
 10
-95.810735879534704
 20
51.414213562373483
 30
0.0
 11
-95.377190376885224
 21
50.765366864730566
 31
0.0
  0
LINE
  5
731
  8
0
  6
CONTINUOUS
 10
-99.072708506930383
 20
50.765366864730566
 30
0.0
 11
-99.22494944190781
 21
50.000000000000391
 31
0.0
  0
LINE
  5
732
  8
0
  6
CONTINUOUS
 10
-95.377190376885224
 20
50.765366864730566
 30
0.0
 11
-95.224949441907796
 21
50.000000000000391
 31
0.0
  0
LINE
  5
733
  8
0
  6
CONTINUOUS
 10
-99.22494944190781
 20
50.000000000000391
 30
0.0
 11
-99.072708506930383
 21
49.234633135270201
 31
0.0
  0
LINE
  5
734
  8
0
  6
CONTINUOUS
 10
-95.224949441907796
 20
50.000000000000391
 30
0.0
 11
-95.377190376885224
 21
49.234633135270201
 31
0.0
  0
LINE
  5
735
  8
0
  6
CONTINUOUS
 10
-99.072708506930383
 20
49.234633135270201
 30
0.0
 11
-98.639163004280888
 21
48.585786437627277
 31
0.0
  0
LINE
  5
736
  8
0
  6
CONTINUOUS
 10
-95.377190376885224
 20
49.234633135270201
 30
0.0
 11
-95.810735879534676
 21
48.585786437627277
 31
0.0
  0
LINE
  5
737
  8
0
  6
CONTINUOUS
 10
-96.459582577177613
 20
48.152240934977797
 30
0.0
 11
-97.224949441907796
 21
48.000000000000377
 31
0.0
  0
LINE
  5
738
  8
0
  6
CONTINUOUS
 10
-97.224949441907796
 20
48.000000000000377
 30
0.0
 11
-97.990316306637965
 21
48.152240934977797
 31
0.0
  0
LINE
  5
739
  8
0
  6
CONTINUOUS
 10
-98.639163004280888
 20
48.585786437627277
 30
0.0
 11
-97.990316306637965
 21
48.152240934977797
 31
0.0
  0
LINE
  5
73A
  8
0
  6
CONTINUOUS
 10
-95.810735879534676
 20
48.585786437627277
 30
0.0
 11
-96.459582577177613
 21
48.152240934977797
 31
0.0
  0
ENDBLK
  5
73C
  8
0
  0
BLOCK
  8
0
  2
*U51
 70
     1
 10
0.0
 20
0.0
 30
0.0
  3
*U51
  1

  0
TEXT
  5
73E
  8
0
  6
CONTINUOUS
 10
-210.44901414809121
 20
-32.174941993303449
 30
0.0
 40
9.8353293413173617
  1
Purlin
  7
ARIAL
  0
ENDBLK
  5
740
  8
0
  0
BLOCK
  8
0
  2
*U52
 70
     1
 10
0.0
 20
0.0
 30
0.0
  3
*U52
  1

  0
SOLID
  5
742
  8
0
  6
CONTINUOUS
 10
475.4287047401358
 20
20.013544642077619
 30
0.0
 11
474.66333787540549
 21
19.861303707100191
 31
0.0
 12
476.194071604866
 22
19.861303707100191
 32
0.0
 13
476.194071604866
 23
19.861303707100191
 33
0.0
210
0.0
220
0.0
230
1.0
  0
SOLID
  5
743
  8
0
  6
CONTINUOUS
 10
474.66333787540549
 20
19.861303707100191
 30
0.0
 11
474.01449117776258
 21
19.427758204450711
 31
0.0
 12
476.84291830250891
 22
19.427758204450711
 32
0.0
 13
476.84291830250891
 23
19.427758204450711
 33
0.0
210
0.0
220
0.0
230
1.0
  0
SOLID
  5
744
  8
0
  6
CONTINUOUS
 10
-474.66333787540549
 20
19.861303707100191
 30
0.0
 11
-476.194071604866
 21
19.861303707100191
 31
0.0
 12
-476.84291830250891
 22
19.427758204450711
 32
0.0
 13
-476.84291830250891
 23
19.427758204450711
 33
0.0
210
0.0
220
0.0
230
-1.0
  0
SOLID
  5
745
  8
0
  6
CONTINUOUS
 10
474.01449117776258
 20
19.427758204450711
 30
0.0
 11
473.58094567511313
 21
18.778911506807791
 31
0.0
 12
477.27646380515841
 22
18.778911506807791
 32
0.0
 13
477.27646380515841
 23
18.778911506807791
 33
0.0
  0
SOLID
  5
746
  8
0
  6
CONTINUOUS
 10
-474.01449117776258
 20
19.427758204450711
 30
0.0
 11
-476.84291830250891
 21
19.427758204450711
 31
0.0
 12
-477.27646380515841
 22
18.778911506807791
 32
0.0
 13
-477.27646380515841
 23
18.778911506807791
 33
0.0
210
0.0
220
0.0
230
-1.0
  0
SOLID
  5
747
  8
0
  6
CONTINUOUS
 10
473.58094567511313
 20
18.778911506807791
 30
0.0
 11
473.4287047401358
 21
18.013544642077601
 31
0.0
 12
477.42870474013569
 22
18.013544642077601
 32
0.0
 13
477.42870474013569
 23
18.013544642077601
 33
0.0
210
0.0
220
0.0
230
1.0
  0
SOLID
  5
748
  8
0
  6
CONTINUOUS
 10
-473.58094567511313
 20
18.778911506807791
 30
0.0
 11
-477.27646380515841
 21
18.778911506807791
 31
0.0
 12
-477.42870474013569
 22
18.013544642077601
 32
0.0
 13
-477.42870474013569
 23
18.013544642077601
 33
0.0
210
0.0
220
0.0
230
-1.0
  0
SOLID
  5
749
  8
0
  6
CONTINUOUS
 10
473.4287047401358
 20
18.013544642077601
 30
0.0
 11
473.58094567511313
 21
17.248177777347411
 31
0.0
 12
477.27646380515841
 22
17.248177777347411
 32
0.0
 13
477.27646380515841
 23
17.248177777347411
 33
0.0
210
0.0
220
0.0
230
1.0
  0
SOLID
  5
74A
  8
0
  6
CONTINUOUS
 10
-473.4287047401358
 20
18.013544642077601
 30
0.0
 11
-477.42870474013569
 21
18.013544642077601
 31
0.0
 12
-477.27646380515841
 22
17.248177777347411
 32
0.0
 13
-477.27646380515841
 23
17.248177777347411
 33
0.0
210
0.0
220
0.0
230
-1.0
  0
SOLID
  5
74B
  8
0
  6
CONTINUOUS
 10
473.58094567511313
 20
17.248177777347411
 30
0.0
 11
474.01449117776258
 21
16.599331079704491
 31
0.0
 12
476.84291830250891
 22
16.599331079704491
 32
0.0
 13
476.84291830250891
 23
16.599331079704491
 33
0.0
210
0.0
220
0.0
230
1.0
  0
SOLID
  5
74C
  8
0
  6
CONTINUOUS
 10
-473.58094567511313
 20
17.248177777347411
 30
0.0
 11
-477.27646380515841
 21
17.248177777347411
 31
0.0
 12
-476.84291830250891
 22
16.599331079704491
 32
0.0
 13
-476.84291830250891
 23
16.599331079704491
 33
0.0
210
0.0
220
0.0
230
-1.0
  0
SOLID
  5
74D
  8
0
  6
CONTINUOUS
 10
-474.66333787540549
 20
16.165785577055001
 30
0.0
 11
-476.194071604866
 21
16.165785577055001
 31
0.0
 12
-475.4287047401358
 22
16.013544642077569
 32
0.0
 13
-475.4287047401358
 23
16.013544642077569
 33
0.0
210
0.0
220
0.0
230
-1.0
  0
SOLID
  5
74E
  8
0
  6
CONTINUOUS
 10
474.01449117776258
 20
16.599331079704491
 30
0.0
 11
474.66333787540549
 21
16.165785577055001
 31
0.0
 12
476.194071604866
 22
16.165785577055001
 32
0.0
 13
476.194071604866
 23
16.165785577055001
 33
0.0
210
0.0
220
0.0
230
1.0
  0
SOLID
  5
74F
  8
0
  6
CONTINUOUS
 10
-474.01449117776258
 20
16.599331079704491
 30
0.0
 11
-476.84291830250891
 21
16.599331079704491
 31
0.0
 12
-476.194071604866
 22
16.165785577055001
 32
0.0
 13
-476.194071604866
 23
16.165785577055001
 33
0.0
210
0.0
220
0.0
230
-1.0
  0
LINE
  5
750
  8
0
  6
CONTINUOUS
 10
475.4287047401358
 20
20.013544642077619
 30
0.0
 11
474.66333787540549
 21
19.861303707100191
 31
0.0
  0
LINE
  5
751
  8
0
  6
CONTINUOUS
 10
476.194071604866
 20
19.861303707100191
 30
0.0
 11
475.4287047401358
 21
20.013544642077619
 31
0.0
  0
LINE
  5
752
  8
0
  6
CONTINUOUS
 10
474.66333787540549
 20
19.861303707100191
 30
0.0
 11
474.01449117776258
 21
19.427758204450711
 31
0.0
  0
LINE
  5
753
  8
0
  6
CONTINUOUS
 10
476.194071604866
 20
19.861303707100191
 30
0.0
 11
476.84291830250891
 21
19.427758204450711
 31
0.0
  0
LINE
  5
754
  8
0
  6
CONTINUOUS
 10
474.01449117776258
 20
19.427758204450711
 30
0.0
 11
473.58094567511313
 21
18.778911506807791
 31
0.0
  0
LINE
  5
755
  8
0
  6
CONTINUOUS
 10
476.84291830250891
 20
19.427758204450711
 30
0.0
 11
477.27646380515841
 21
18.778911506807791
 31
0.0
  0
LINE
  5
756
  8
0
  6
CONTINUOUS
 10
473.58094567511313
 20
18.778911506807791
 30
0.0
 11
473.4287047401358
 21
18.013544642077601
 31
0.0
  0
LINE
  5
757
  8
0
  6
CONTINUOUS
 10
477.27646380515841
 20
18.778911506807791
 30
0.0
 11
477.42870474013569
 21
18.013544642077601
 31
0.0
  0
LINE
  5
758
  8
0
  6
CONTINUOUS
 10
473.4287047401358
 20
18.013544642077601
 30
0.0
 11
473.58094567511313
 21
17.248177777347411
 31
0.0
  0
LINE
  5
759
  8
0
  6
CONTINUOUS
 10
477.42870474013569
 20
18.013544642077601
 30
0.0
 11
477.27646380515841
 21
17.248177777347411
 31
0.0
  0
LINE
  5
75A
  8
0
  6
CONTINUOUS
 10
473.58094567511313
 20
17.248177777347411
 30
0.0
 11
474.01449117776258
 21
16.599331079704491
 31
0.0
  0
LINE
  5
75B
  8
0
  6
CONTINUOUS
 10
477.27646380515841
 20
17.248177777347411
 30
0.0
 11
476.84291830250891
 21
16.599331079704491
 31
0.0
  0
LINE
  5
75C
  8
0
  6
CONTINUOUS
 10
476.194071604866
 20
16.165785577055001
 30
0.0
 11
475.4287047401358
 21
16.013544642077569
 31
0.0
  0
LINE
  5
75D
  8
0
  6
CONTINUOUS
 10
475.4287047401358
 20
16.013544642077569
 30
0.0
 11
474.66333787540549
 21
16.165785577055001
 31
0.0
  0
LINE
  5
75E
  8
0
  6
CONTINUOUS
 10
474.01449117776258
 20
16.599331079704491
 30
0.0
 11
474.66333787540549
 21
16.165785577055001
 31
0.0
  0
LINE
  5
75F
  8
0
  6
CONTINUOUS
 10
476.84291830250891
 20
16.599331079704491
 30
0.0
 11
476.194071604866
 21
16.165785577055001
 31
0.0
  0
ENDBLK
  5
761
  8
0
  0
BLOCK
  8
0
  2
*U53
 70
     1
 10
0.0
 20
0.0
 30
0.0
  3
*U53
  1

  0
TEXT
  5
763
  8
0
  6
CONTINUOUS
 10
582.05711946273766
 20
-116.78233233869661
 30
0.0
 40
9.8353293413173617
  1
Barge Rafter
  7
ARIAL
  0
ENDBLK
  5
765
  8
0
  0
BLOCK
  8
0
  2
*U54
 70
     1
 10
0.0
 20
0.0
 30
0.0
  3
*U54
  1

  0
SOLID
  5
767
  8
0
  6
CONTINUOUS
 10
523.51745389984455
 20
76.82631077755353
 30
0.0
 11
522.7520870351143
 21
76.674069842576102
 31
0.0
 12
524.28282076457469
 22
76.674069842576102
 32
0.0
 13
524.28282076457469
 23
76.674069842576102
 33
0.0
210
0.0
220
0.0
230
1.0
  0
SOLID
  5
768
  8
0
  6
CONTINUOUS
 10
522.7520870351143
 20
76.674069842576102
 30
0.0
 11
522.10324033747145
 21
76.240524339926608
 31
0.0
 12
524.93166746221766
 22
76.240524339926608
 32
0.0
 13
524.93166746221766
 23
76.240524339926608
 33
0.0
210
0.0
220
0.0
230
1.0
  0
SOLID
  5
769
  8
0
  6
CONTINUOUS
 10
-522.7520870351143
 20
76.674069842576102
 30
0.0
 11
-524.28282076457469
 21
76.674069842576102
 31
0.0
 12
-524.93166746221766
 22
76.240524339926608
 32
0.0
 13
-524.93166746221766
 23
76.240524339926608
 33
0.0
210
0.0
220
0.0
230
-1.0
  0
SOLID
  5
76A
  8
0
  6
CONTINUOUS
 10
522.10324033747145
 20
76.240524339926608
 30
0.0
 11
521.66969483482194
 21
75.59167764228367
 31
0.0
 12
525.36521296486717
 22
75.59167764228367
 32
0.0
 13
525.36521296486717
 23
75.59167764228367
 33
0.0
  0
SOLID
  5
76B
  8
0
  6
CONTINUOUS
 10
-522.10324033747145
 20
76.240524339926608
 30
0.0
 11
-524.93166746221766
 21
76.240524339926608
 31
0.0
 12
-525.36521296486717
 22
75.59167764228367
 32
0.0
 13
-525.36521296486717
 23
75.59167764228367
 33
0.0
210
0.0
220
0.0
230
-1.0
  0
SOLID
  5
76C
  8
0
  6
CONTINUOUS
 10
521.66969483482194
 20
75.59167764228367
 30
0.0
 11
521.51745389984444
 21
74.826310777553473
 31
0.0
 12
525.51745389984455
 22
74.826310777553473
 32
0.0
 13
525.51745389984455
 23
74.826310777553473
 33
0.0
210
0.0
220
0.0
230
1.0
  0
SOLID
  5
76D
  8
0
  6
CONTINUOUS
 10
-521.66969483482194
 20
75.59167764228367
 30
0.0
 11
-525.36521296486717
 21
75.59167764228367
 31
0.0
 12
-525.51745389984455
 22
74.826310777553473
 32
0.0
 13
-525.51745389984455
 23
74.826310777553473
 33
0.0
210
0.0
220
0.0
230
-1.0
  0
SOLID
  5
76E
  8
0
  6
CONTINUOUS
 10
521.51745389984444
 20
74.826310777553473
 30
0.0
 11
521.66969483482194
 21
74.060943912823276
 31
0.0
 12
525.36521296486717
 22
74.060943912823276
 32
0.0
 13
525.36521296486717
 23
74.060943912823276
 33
0.0
  0
SOLID
  5
76F
  8
0
  6
CONTINUOUS
 10
-521.51745389984444
 20
74.826310777553473
 30
0.0
 11
-525.51745389984455
 21
74.826310777553473
 31
0.0
 12
-525.36521296486717
 22
74.060943912823276
 32
0.0
 13
-525.36521296486717
 23
74.060943912823276
 33
0.0
210
0.0
220
0.0
230
-1.0
  0
SOLID
  5
770
  8
0
  6
CONTINUOUS
 10
521.66969483482194
 20
74.060943912823276
 30
0.0
 11
522.10324033747145
 21
73.412097215180324
 31
0.0
 12
524.93166746221766
 22
73.412097215180324
 32
0.0
 13
524.93166746221766
 23
73.412097215180324
 33
0.0
210
0.0
220
0.0
230
1.0
  0
SOLID
  5
771
  8
0
  6
CONTINUOUS
 10
-521.66969483482194
 20
74.060943912823276
 30
0.0
 11
-525.36521296486717
 21
74.060943912823276
 31
0.0
 12
-524.93166746221766
 22
73.412097215180324
 32
0.0
 13
-524.93166746221766
 23
73.412097215180324
 33
0.0
210
0.0
220
0.0
230
-1.0
  0
SOLID
  5
772
  8
0
  6
CONTINUOUS
 10
-522.7520870351143
 20
72.978551712530844
 30
0.0
 11
-524.28282076457469
 21
72.978551712530844
 31
0.0
 12
-523.51745389984455
 22
72.826310777553417
 32
0.0
 13
-523.51745389984455
 23
72.826310777553417
 33
0.0
210
0.0
220
0.0
230
-1.0
  0
SOLID
  5
773
  8
0
  6
CONTINUOUS
 10
522.10324033747145
 20
73.412097215180324
 30
0.0
 11
522.7520870351143
 21
72.978551712530844
 31
0.0
 12
524.28282076457469
 22
72.978551712530844
 32
0.0
 13
524.28282076457469
 23
72.978551712530844
 33
0.0
210
0.0
220
0.0
230
1.0
  0
SOLID
  5
774
  8
0
  6
CONTINUOUS
 10
-522.10324033747145
 20
73.412097215180324
 30
0.0
 11
-524.93166746221766
 21
73.412097215180324
 31
0.0
 12
-524.28282076457469
 22
72.978551712530844
 32
0.0
 13
-524.28282076457469
 23
72.978551712530844
 33
0.0
210
0.0
220
0.0
230
-1.0
  0
LINE
  5
775
  8
0
  6
CONTINUOUS
 10
523.51745389984455
 20
76.82631077755353
 30
0.0
 11
522.7520870351143
 21
76.674069842576102
 31
0.0
  0
LINE
  5
776
  8
0
  6
CONTINUOUS
 10
524.28282076457469
 20
76.674069842576102
 30
0.0
 11
523.51745389984455
 21
76.82631077755353
 31
0.0
  0
LINE
  5
777
  8
0
  6
CONTINUOUS
 10
522.7520870351143
 20
76.674069842576102
 30
0.0
 11
522.10324033747145
 21
76.240524339926608
 31
0.0
  0
LINE
  5
778
  8
0
  6
CONTINUOUS
 10
524.28282076457469
 20
76.674069842576102
 30
0.0
 11
524.93166746221766
 21
76.240524339926608
 31
0.0
  0
LINE
  5
779
  8
0
  6
CONTINUOUS
 10
522.10324033747145
 20
76.240524339926608
 30
0.0
 11
521.66969483482194
 21
75.59167764228367
 31
0.0
  0
LINE
  5
77A
  8
0
  6
CONTINUOUS
 10
524.93166746221766
 20
76.240524339926608
 30
0.0
 11
525.36521296486717
 21
75.59167764228367
 31
0.0
  0
LINE
  5
77B
  8
0
  6
CONTINUOUS
 10
521.66969483482194
 20
75.59167764228367
 30
0.0
 11
521.51745389984444
 21
74.826310777553473
 31
0.0
  0
LINE
  5
77C
  8
0
  6
CONTINUOUS
 10
525.36521296486717
 20
75.59167764228367
 30
0.0
 11
525.51745389984455
 21
74.826310777553473
 31
0.0
  0
LINE
  5
77D
  8
0
  6
CONTINUOUS
 10
521.51745389984444
 20
74.826310777553473
 30
0.0
 11
521.66969483482194
 21
74.060943912823276
 31
0.0
  0
LINE
  5
77E
  8
0
  6
CONTINUOUS
 10
525.51745389984455
 20
74.826310777553473
 30
0.0
 11
525.36521296486717
 21
74.060943912823276
 31
0.0
  0
LINE
  5
77F
  8
0
  6
CONTINUOUS
 10
521.66969483482194
 20
74.060943912823276
 30
0.0
 11
522.10324033747145
 21
73.412097215180324
 31
0.0
  0
LINE
  5
780
  8
0
  6
CONTINUOUS
 10
525.36521296486717
 20
74.060943912823276
 30
0.0
 11
524.93166746221766
 21
73.412097215180324
 31
0.0
  0
LINE
  5
781
  8
0
  6
CONTINUOUS
 10
524.28282076457469
 20
72.978551712530844
 30
0.0
 11
523.51745389984455
 21
72.826310777553417
 31
0.0
  0
LINE
  5
782
  8
0
  6
CONTINUOUS
 10
523.51745389984455
 20
72.826310777553417
 30
0.0
 11
522.7520870351143
 21
72.978551712530844
 31
0.0
  0
LINE
  5
783
  8
0
  6
CONTINUOUS
 10
522.10324033747145
 20
73.412097215180324
 30
0.0
 11
522.7520870351143
 21
72.978551712530844
 31
0.0
  0
LINE
  5
784
  8
0
  6
CONTINUOUS
 10
524.93166746221766
 20
73.412097215180324
 30
0.0
 11
524.28282076457469
 21
72.978551712530844
 31
0.0
  0
ENDBLK
  5
786
  8
0
  0
BLOCK
  8
0
  2
*U55
 70
     1
 10
0.0
 20
0.0
 30
0.0
  3
*U55
  1

  0
TEXT
  5
788
  8
0
  6
CONTINUOUS
 10
582.05711946273755
 20
47.638571541837237
 30
0.0
 40
9.8353293413173617
  1
Bottom of barge/verge cap
  7
ARIAL
  0
TEXT
  5
789
  8
0
  6
CONTINUOUS
 10
582.15775380115485
 20
32.253956157221872
 30
0.0
 40
9.8353293413173617
  1
nailed to timber fascia
  7
ARIAL
  0
ENDBLK
  5
78B
  8
0
  0
BLOCK
  8
0
  2
*U56
 70
     1
 10
0.0
 20
0.0
 30
0.0
  3
*U56
  1

  0
SOLID
  5
78D
  8
0
  6
CONTINUOUS
 10
517.44353966597384
 20
125.38977527258901
 30
0.0
 11
516.6781728012437
 21
125.23753433761151
 31
0.0
 12
518.20890653070398
 22
125.23753433761151
 32
0.0
 13
518.20890653070398
 23
125.23753433761151
 33
0.0
210
0.0
220
0.0
230
1.0
  0
SOLID
  5
78E
  8
0
  6
CONTINUOUS
 10
516.6781728012437
 20
125.23753433761151
 30
0.0
 11
516.02932610360074
 21
124.8039888349621
 31
0.0
 12
518.85775322834695
 22
124.8039888349621
 32
0.0
 13
518.85775322834695
 23
124.8039888349621
 33
0.0
210
0.0
220
0.0
230
1.0
  0
SOLID
  5
78F
  8
0
  6
CONTINUOUS
 10
-516.6781728012437
 20
125.23753433761151
 30
0.0
 11
-518.20890653070398
 21
125.23753433761151
 31
0.0
 12
-518.85775322834695
 22
124.8039888349621
 32
0.0
 13
-518.85775322834695
 23
124.8039888349621
 33
0.0
210
0.0
220
0.0
230
-1.0
  0
SOLID
  5
790
  8
0
  6
CONTINUOUS
 10
516.02932610360074
 20
124.8039888349621
 30
0.0
 11
515.59578060095123
 21
124.1551421373191
 31
0.0
 12
519.29129873099646
 22
124.1551421373191
 32
0.0
 13
519.29129873099646
 23
124.1551421373191
 33
0.0
  0
SOLID
  5
791
  8
0
  6
CONTINUOUS
 10
-516.02932610360074
 20
124.8039888349621
 30
0.0
 11
-518.85775322834695
 21
124.8039888349621
 31
0.0
 12
-519.29129873099646
 22
124.1551421373191
 32
0.0
 13
-519.29129873099646
 23
124.1551421373191
 33
0.0
210
0.0
220
0.0
230
-1.0
  0
SOLID
  5
792
  8
0
  6
CONTINUOUS
 10
515.59578060095123
 20
124.1551421373191
 30
0.0
 11
515.44353966597384
 21
123.38977527258901
 31
0.0
 12
519.44353966597384
 22
123.38977527258901
 32
0.0
 13
519.44353966597384
 23
123.38977527258901
 33
0.0
210
0.0
220
0.0
230
1.0
  0
SOLID
  5
793
  8
0
  6
CONTINUOUS
 10
-515.59578060095123
 20
124.1551421373191
 30
0.0
 11
-519.29129873099646
 21
124.1551421373191
 31
0.0
 12
-519.44353966597384
 22
123.38977527258901
 32
0.0
 13
-519.44353966597384
 23
123.38977527258901
 33
0.0
210
0.0
220
0.0
230
-1.0
  0
SOLID
  5
794
  8
0
  6
CONTINUOUS
 10
515.44353966597384
 20
123.38977527258901
 30
0.0
 11
515.59578060095123
 21
122.62440840785879
 31
0.0
 12
519.29129873099646
 22
122.62440840785879
 32
0.0
 13
519.29129873099646
 23
122.62440840785879
 33
0.0
210
0.0
220
0.0
230
1.0
  0
SOLID
  5
795
  8
0
  6
CONTINUOUS
 10
-515.44353966597384
 20
123.38977527258901
 30
0.0
 11
-519.44353966597384
 21
123.38977527258901
 31
0.0
 12
-519.29129873099646
 22
122.62440840785879
 32
0.0
 13
-519.29129873099646
 23
122.62440840785879
 33
0.0
210
0.0
220
0.0
230
-1.0
  0
SOLID
  5
796
  8
0
  6
CONTINUOUS
 10
515.59578060095123
 20
122.62440840785879
 30
0.0
 11
516.02932610360074
 21
121.9755617102158
 31
0.0
 12
518.85775322834695
 22
121.9755617102158
 32
0.0
 13
518.85775322834695
 23
121.9755617102158
 33
0.0
210
0.0
220
0.0
230
1.0
  0
SOLID
  5
797
  8
0
  6
CONTINUOUS
 10
-515.59578060095123
 20
122.62440840785879
 30
0.0
 11
-519.29129873099646
 21
122.62440840785879
 31
0.0
 12
-518.85775322834695
 22
121.9755617102158
 32
0.0
 13
-518.85775322834695
 23
121.9755617102158
 33
0.0
210
0.0
220
0.0
230
-1.0
  0
SOLID
  5
798
  8
0
  6
CONTINUOUS
 10
-516.6781728012437
 20
121.54201620756641
 30
0.0
 11
-518.20890653070398
 21
121.54201620756641
 31
0.0
 12
-517.44353966597384
 22
121.38977527258891
 32
0.0
 13
-517.44353966597384
 23
121.38977527258891
 33
0.0
210
0.0
220
0.0
230
-1.0
  0
SOLID
  5
799
  8
0
  6
CONTINUOUS
 10
516.02932610360074
 20
121.9755617102158
 30
0.0
 11
516.6781728012437
 21
121.54201620756641
 31
0.0
 12
518.20890653070398
 22
121.54201620756641
 32
0.0
 13
518.20890653070398
 23
121.54201620756641
 33
0.0
210
0.0
220
0.0
230
1.0
  0
SOLID
  5
79A
  8
0
  6
CONTINUOUS
 10
-516.02932610360074
 20
121.9755617102158
 30
0.0
 11
-518.85775322834695
 21
121.9755617102158
 31
0.0
 12
-518.20890653070398
 22
121.54201620756641
 32
0.0
 13
-518.20890653070398
 23
121.54201620756641
 33
0.0
210
0.0
220
0.0
230
-1.0
  0
LINE
  5
79B
  8
0
  6
CONTINUOUS
 10
517.44353966597384
 20
125.38977527258901
 30
0.0
 11
516.6781728012437
 21
125.23753433761151
 31
0.0
  0
LINE
  5
79C
  8
0
  6
CONTINUOUS
 10
518.20890653070398
 20
125.23753433761151
 30
0.0
 11
517.44353966597384
 21
125.38977527258901
 31
0.0
  0
LINE
  5
79D
  8
0
  6
CONTINUOUS
 10
516.6781728012437
 20
125.23753433761151
 30
0.0
 11
516.02932610360074
 21
124.8039888349621
 31
0.0
  0
LINE
  5
79E
  8
0
  6
CONTINUOUS
 10
518.20890653070398
 20
125.23753433761151
 30
0.0
 11
518.85775322834695
 21
124.8039888349621
 31
0.0
  0
LINE
  5
79F
  8
0
  6
CONTINUOUS
 10
516.02932610360074
 20
124.8039888349621
 30
0.0
 11
515.59578060095123
 21
124.1551421373191
 31
0.0
  0
LINE
  5
7A0
  8
0
  6
CONTINUOUS
 10
518.85775322834695
 20
124.8039888349621
 30
0.0
 11
519.29129873099646
 21
124.1551421373191
 31
0.0
  0
LINE
  5
7A1
  8
0
  6
CONTINUOUS
 10
515.59578060095123
 20
124.1551421373191
 30
0.0
 11
515.44353966597384
 21
123.38977527258901
 31
0.0
  0
LINE
  5
7A2
  8
0
  6
CONTINUOUS
 10
519.29129873099646
 20
124.1551421373191
 30
0.0
 11
519.44353966597384
 21
123.38977527258901
 31
0.0
  0
LINE
  5
7A3
  8
0
  6
CONTINUOUS
 10
515.44353966597384
 20
123.38977527258901
 30
0.0
 11
515.59578060095123
 21
122.62440840785879
 31
0.0
  0
LINE
  5
7A4
  8
0
  6
CONTINUOUS
 10
519.44353966597384
 20
123.38977527258901
 30
0.0
 11
519.29129873099646
 21
122.62440840785879
 31
0.0
  0
LINE
  5
7A5
  8
0
  6
CONTINUOUS
 10
515.59578060095123
 20
122.62440840785879
 30
0.0
 11
516.02932610360074
 21
121.9755617102158
 31
0.0
  0
LINE
  5
7A6
  8
0
  6
CONTINUOUS
 10
519.29129873099646
 20
122.62440840785879
 30
0.0
 11
518.85775322834695
 21
121.9755617102158
 31
0.0
  0
LINE
  5
7A7
  8
0
  6
CONTINUOUS
 10
518.20890653070398
 20
121.54201620756641
 30
0.0
 11
517.44353966597384
 21
121.38977527258891
 31
0.0
  0
LINE
  5
7A8
  8
0
  6
CONTINUOUS
 10
517.44353966597384
 20
121.38977527258891
 30
0.0
 11
516.6781728012437
 21
121.54201620756641
 31
0.0
  0
LINE
  5
7A9
  8
0
  6
CONTINUOUS
 10
516.02932610360074
 20
121.9755617102158
 30
0.0
 11
516.6781728012437
 21
121.54201620756641
 31
0.0
  0
LINE
  5
7AA
  8
0
  6
CONTINUOUS
 10
518.85775322834695
 20
121.9755617102158
 30
0.0
 11
518.20890653070398
 21
121.54201620756641
 31
0.0
  0
ENDBLK
  5
7AC
  8
0
  0
BLOCK
  8
0
  2
*U57
 70
     1
 10
0.0
 20
0.0
 30
0.0
  3
*U57
  1

  0
TEXT
  5
7AE
  8
0
  6
CONTINUOUS
 10
581.24320159587933
 20
99.901070400407093
 30
0.0
 40
9.8353293413173617
  1
905 CF Barge Channel
  7
ARIAL
  0
ENDBLK
  5
7B0
  8
0
  0
BLOCK
  8
0
  2
*X58
 70
     1
 10
0.0
 20
0.0
 30
0.0
  3
*X58
  1

  0
LINE
  5
7BC
  8
0
  6
CONTINUOUS
 62
     0
 10
514.90115370177614
 20
-22.49999999999994
 30
0.0
 11
520.00000000000011
 21
-17.401153701775939
 31
0.0
  0
LINE
  5
7BD
  8
0
  6
CONTINUOUS
 62
     0
 10
509.24429945228371
 20
-22.5
 30
0.0
 11
520.00000000000011
 21
-11.74429945228357
 31
0.0
  0
LINE
  5
7BE
  8
0
  6
CONTINUOUS
 62
     0
 10
503.58744520279117
 20
-22.499999999999972
 30
0.0
 11
520.00000000000011
 21
-6.0874452027911161
 31
0.0
  0
LINE
  5
7BF
  8
0
  6
CONTINUOUS
 62
     0
 10
502.00000000000023
 20
-18.430590953298719
 30
0.0
 11
520.00000000000011
 21
-0.4305909532987471
 31
0.0
  0
LINE
  5
7C0
  8
0
  6
CONTINUOUS
 62
     0
 10
509.50000000000011
 20
-5.2737367038063487
 30
0.0
 11
520.00000000000011
 21
5.2262632961936211
 31
0.0
  0
LINE
  5
7C1
  8
0
  6
CONTINUOUS
 62
     0
 10
502.00000000000011
 20
-12.77373670380638
 30
0.0
 11
506.77373670380609
 21
-8.0000000000004263
 31
0.0
  0
LINE
  5
7C2
  8
0
  6
CONTINUOUS
 62
     0
 10
507.08348746736698
 20
-2.033394986947143
 30
0.0
 11
520.00000000000011
 21
10.883117545686041
 31
0.0
  0
LINE
  5
7C3
  8
0
  6
CONTINUOUS
 62
     0
 10
503.04287728915813
 20
-0.417150915663683
 30
0.0
 11
520.00000000000011
 21
16.53997179517842
 31
0.0
  0
LINE
  5
7C4
  8
0
  6
CONTINUOUS
 62
     0
 10
502.00000000000011
 20
4.196826044670785
 30
0.0
 11
520.00000000000011
 21
22.196826044670789
 31
0.0
  0
LINE
  5
7C5
  8
0
  6
CONTINUOUS
 62
     0
 10
502.00000000000011
 20
9.8536802941631265
 30
0.0
 11
520.00000000000011
 21
27.853680294163158
 31
0.0
  0
LINE
  5
7C6
  8
0
  6
CONTINUOUS
 62
     0
 10
502.00000000000023
 20
15.510534543655581
 30
0.0
 11
520.00000000000011
 21
33.510534543655531
 31
0.0
  0
LINE
  5
7C7
  8
0
  6
CONTINUOUS
 62
     0
 10
502.00000000000023
 20
21.16738879314795
 30
0.0
 11
520.00000000000011
 21
39.16738879314795
 31
0.0
  0
LINE
  5
7C8
  8
0
  6
CONTINUOUS
 62
     0
 10
502.00000000000023
 20
26.824243042640379
 30
0.0
 11
520.00000000000011
 21
44.824243042640312
 31
0.0
  0
LINE
  5
7C9
  8
0
  6
CONTINUOUS
 62
     0
 10
502.00000000000023
 20
32.481097292132752
 30
0.0
 11
520.00000000000034
 21
50.481097292132802
 31
0.0
  0
LINE
  5
7CA
  8
0
  6
CONTINUOUS
 62
     0
 10
502.00000000000023
 20
38.137951541625171
 30
0.0
 11
520.00000000000034
 21
56.137951541625171
 31
0.0
  0
LINE
  5
7CB
  8
0
  6
CONTINUOUS
 62
     0
 10
502.00000000000028
 20
43.794805791117589
 30
0.0
 11
520.00000000000011
 21
61.794805791117597
 31
0.0
  0
LINE
  5
7CC
  8
0
  6
CONTINUOUS
 62
     0
 10
502.00000000000028
 20
49.451660040609973
 30
0.0
 11
520.00000000000034
 21
67.451660040609966
 31
0.0
  0
LINE
  5
7CD
  8
0
  6
CONTINUOUS
 62
     0
 10
502.00000000000028
 20
55.108514290102342
 30
0.0
 11
520.00000000000034
 21
73.108514290102335
 31
0.0
  0
LINE
  5
7CE
  8
0
  6
CONTINUOUS
 62
     0
 10
502.00000000000028
 20
60.76536853959476
 30
0.0
 11
520.00000000000034
 21
78.765368539594704
 31
0.0
  0
LINE
  5
7CF
  8
0
  6
CONTINUOUS
 62
     0
 10
502.00000000000028
 20
66.42222278908713
 30
0.0
 11
520.00000000000034
 21
84.422222789087058
 31
0.0
  0
LINE
  5
7D0
  8
0
  6
CONTINUOUS
 62
     0
 10
517.66998731060005
 20
87.749064349179207
 30
0.0
 11
520.00000000000045
 21
90.079077038579612
 31
0.0
  0
LINE
  5
7D1
  8
0
  6
CONTINUOUS
 62
     0
 10
502.00000000000028
 20
72.079077038579499
 30
0.0
 11
516.66998731060005
 21
86.749064349179207
 31
0.0
  0
LINE
  5
7D2
  8
0
  6
CONTINUOUS
 62
     0
 10
512.01313306110762
 20
87.749064349179136
 30
0.0
 11
520.00000000000045
 21
95.735931288071981
 31
0.0
  0
LINE
  5
7D3
  8
0
  6
CONTINUOUS
 62
     0
 10
502.0000000000004
 20
77.735931288071981
 30
0.0
 11
511.01313306110768
 21
86.749064349179264
 31
0.0
  0
LINE
  5
7D4
  8
0
  6
CONTINUOUS
 62
     0
 10
506.3562788116152
 20
87.749064349179136
 30
0.0
 11
520.00000000000045
 21
101.39278553756429
 31
0.0
  0
LINE
  5
7D5
  8
0
  6
CONTINUOUS
 62
     0
 10
502.0000000000004
 20
83.392785537564336
 30
0.0
 11
505.35627881161543
 21
86.749064349179264
 31
0.0
  0
LINE
  5
7D6
  8
0
  6
CONTINUOUS
 62
     0
 10
502.0000000000004
 20
89.049639787056776
 30
0.0
 11
520.00000000000045
 21
107.04963978705671
 31
0.0
  0
LINE
  5
7D7
  8
0
  6
CONTINUOUS
 62
     0
 10
509.50000000000028
 20
102.206494036549
 30
0.0
 11
520.00000000000045
 21
112.7064940365491
 31
0.0
  0
LINE
  5
7D8
  8
0
  6
CONTINUOUS
 62
     0
 10
502.0000000000004
 20
94.706494036549074
 30
0.0
 11
502.48917660575148
 21
95.195670642300172
 31
0.0
  0
LINE
  5
7D9
  8
0
  6
CONTINUOUS
 62
     0
 10
504.63665171395871
 20
102.9999999999997
 30
0.0
 11
518.90715866261905
 21
117.2705069486601
 31
0.0
  0
LINE
  5
7DA
  8
0
  6
CONTINUOUS
 62
     0
 10
502.00000000000011
 20
106.0202025355336
 30
0.0
 11
513.47979746446572
 21
117.4999999999991
 31
0.0
  0
LINE
  5
7DB
  8
0
  6
CONTINUOUS
 62
     0
 10
502.00000000000023
 20
111.6770567850259
 30
0.0
 11
507.82294321497329
 21
117.4999999999991
 31
0.0
  0
LINE
  5
7DC
  8
0
  6
CONTINUOUS
 62
     0
 10
502.00000000000023
 20
117.33391103451839
 30
0.0
 11
502.16608896548092
 21
117.4999999999991
 31
0.0
  0
ENDBLK
  5
7DE
  8
0
  0
BLOCK
  8
0
  2
*X59
 70
     1
 10
0.0
 20
0.0
 30
0.0
  3
*X59
  1

  0
LINE
  5
7E0
  8
0
  6
CONTINUOUS
 62
     0
 10
27.808241135170881
 20
-216.0000281523962
 30
0.0
 11
52.808241135170739
 21
-216.0000281523962
 31
0.0
  0
LINE
  5
7E1
  8
0
  6
CONTINUOUS
 62
     0
 10
27.808241135170832
 20
-204.00002815239611
 30
0.0
 11
52.808241135170697
 21
-204.00002815239611
 31
0.0
  0
LINE
  5
7E2
  8
0
  6
CONTINUOUS
 62
     0
 10
27.808241135170778
 20
-192.00002815239611
 30
0.0
 11
52.808241135170661
 21
-192.00002815239611
 31
0.0
  0
LINE
  5
7E3
  8
0
  6
CONTINUOUS
 62
     0
 10
27.808241135170739
 20
-180.00002815239611
 30
0.0
 11
52.808241135170633
 21
-180.00002815239611
 31
0.0
  0
LINE
  5
7E4
  8
0
  6
CONTINUOUS
 62
     0
 10
27.80824113517069
 20
-168.00002815239611
 30
0.0
 11
52.80824113517059
 21
-168.00002815239611
 31
0.0
  0
LINE
  5
7E5
  8
0
  6
CONTINUOUS
 62
     0
 10
27.80824113517065
 20
-156.00002815239611
 30
0.0
 11
52.808241135170562
 21
-156.00002815239611
 31
0.0
  0
LINE
  5
7E6
  8
0
  6
CONTINUOUS
 62
     0
 10
27.808241135170601
 20
-144.00002815239611
 30
0.0
 11
52.808241135170512
 21
-144.00002815239611
 31
0.0
  0
LINE
  5
7E7
  8
0
  6
CONTINUOUS
 62
     0
 10
27.808241135170551
 20
-132.00002815239611
 30
0.0
 11
52.808241135170483
 21
-132.00002815239611
 31
0.0
  0
LINE
  5
7E8
  8
0
  6
CONTINUOUS
 62
     0
 10
27.808241135170501
 20
-120.0000281523961
 30
0.0
 11
52.808241135170427
 21
-120.0000281523961
 31
0.0
  0
LINE
  5
7E9
  8
0
  6
CONTINUOUS
 62
     0
 10
27.808241135170451
 20
-108.0000281523961
 30
0.0
 11
52.808241135170398
 21
-108.0000281523961
 31
0.0
  0
LINE
  5
7EA
  8
0
  6
CONTINUOUS
 62
     0
 10
27.808241135170409
 20
-96.000028152396141
 30
0.0
 11
52.808241135170348
 21
-96.000028152396141
 31
0.0
  0
LINE
  5
7EB
  8
0
  6
CONTINUOUS
 62
     0
 10
27.80824113517037
 20
-84.000028152396155
 30
0.0
 11
52.80824113517032
 21
-84.000028152396155
 31
0.0
  0
LINE
  5
7EC
  8
0
  6
CONTINUOUS
 62
     0
 10
27.80824113517032
 20
-72.000028152396141
 30
0.0
 11
52.80824113517027
 21
-72.000028152396141
 31
0.0
  0
LINE
  5
7ED
  8
0
  6
CONTINUOUS
 62
     0
 10
27.80824113517027
 20
-60.000028152396141
 30
0.0
 11
52.808241135170242
 21
-60.000028152396141
 31
0.0
  0
LINE
  5
7EE
  8
0
  6
CONTINUOUS
 62
     0
 10
27.808241135170221
 20
-48.000028152396141
 30
0.0
 11
52.808241135170199
 21
-48.000028152396141
 31
0.0
  0
LINE
  5
7EF
  8
0
  6
CONTINUOUS
 62
     0
 10
27.808241135170181
 20
-36.000028152396141
 30
0.0
 11
52.808241135170171
 21
-36.000028152396141
 31
0.0
  0
LINE
  5
7F0
  8
0
  6
CONTINUOUS
 62
     0
 10
27.808241135170132
 20
-24.000028152396141
 30
0.0
 11
52.808241135170128
 21
-24.000028152396141
 31
0.0
  0
LINE
  5
7F1
  8
0
  6
CONTINUOUS
 62
     0
 10
27.808241135170078
 20
-12.000028152396141
 30
0.0
 11
52.808241135170093
 21
-12.000028152396141
 31
0.0
  0
ENDBLK
  5
7F3
  8
0
  0
ENDSEC
  0
SECTION
  2
ENTITIES
  0
CIRCLE
  5
185
  8
0
 10
16.483701512987839
 20
120.4080480157685
 30
0.0
 40
2.0
1001
REVIT
1002
{
1070
     1
1000
785375
1002
}
1002
{
1070
     5
1000
233013
1002
}
1002
{
1070
     2
1000
-2005028
1002
}
  0
INSERT
  5
186
  8
0
  6
CONTINUOUS
  2
*U21
 10
0.0
 20
0.0
 30
0.0
1001
REVIT
1002
{
1070
     1
1000
785375
1002
}
1002
{
1070
     5
1000
233013
1002
}
1002
{
1070
     2
1000
-2005028
1002
}
1001
ACAD
1002
{
1000
R14_HATCH_DATA
1000
186
1011
1.0
1021
0.0
1031
0.0
1021
0.0
1031
0.0
1011
0.0
1021
0.0
1031
0.0
1021
1.0
1031
0.0
1011
0.0
1021
0.0
1031
0.0
1021
0.0
1031
1.0
1040
0.0
1010
0.0
1020
0.0
1030
1.0
1000
SOLID
1070
     1
1070
     0
1071
        1
1071
        0
1071
        1
1070
     2
1040
16.483701512987839
1040
120.4080480157685
1040
2.0
1040
0.0
1040
6.2831853071795862
1070
     1
1071
        0
1070
     0
1070
     1
1071
        1
1040
0.0
1040
0.0
1040
0.0
1002
}
  0
LINE
  5
187
  8
0
 10
-31.221242679154241
 20
266.49700885648679
 30
0.0
 11
-155.18899911676229
 21
266.49700885648679
 31
0.0
1001
REVIT
1002
{
1070
     1
1000
785375
1002
}
1002
{
1070
     5
1000
233013
1002
}
1002
{
1070
     2
1000
-2005028
1002
}
  0
LINE
  5
188
  8
0
 10
16.483701512987839
 20
120.4080480157685
 30
0.0
 11
-31.221242679154241
 21
266.49700885648679
 31
0.0
1001
REVIT
1002
{
1070
     1
1000
785375
1002
}
1002
{
1070
     5
1000
233013
1002
}
1002
{
1070
     2
1000
-2005028
1002
}
  0
INSERT
  5
18A
  8
0
  6
CONTINUOUS
  2
*U22
 10
0.0
 20
0.0
 30
0.0
  0
CIRCLE
  5
18B
  8
0
 10
-31.106703976503031
 20
113.77888224415101
 30
0.0
 40
2.0000000000000022
1001
REVIT
1002
{
1070
     1
1000
785376
1002
}
1002
{
1070
     5
1000
233013
1002
}
1002
{
1070
     2
1000
-2005028
1002
}
  0
INSERT
  5
18C
  8
0
  6
CONTINUOUS
  2
*U23
 10
0.0
 20
0.0
 30
0.0
1001
REVIT
1002
{
1070
     1
1000
785376
1002
}
1002
{
1070
     5
1000
233013
1002
}
1002
{
1070
     2
1000
-2005028
1002
}
1001
ACAD
1002
{
1000
R14_HATCH_DATA
1000
18C
1011
1.0
1021
0.0
1031
0.0
1021
0.0
1031
0.0
1011
0.0
1021
0.0
1031
0.0
1021
1.0
1031
0.0
1011
0.0
1021
0.0
1031
0.0
1021
0.0
1031
1.0
1040
0.0
1010
0.0
1020
0.0
1030
1.0
1000
SOLID
1070
     1
1070
     0
1071
        1
1071
        0
1071
        1
1070
     2
1040
-31.106703976503031
1040
113.77888224415101
1040
2.0000000000000022
1040
0.0
1040
6.2831853071795862
1070
     1
1071
        0
1070
     0
1070
     1
1071
        1
1040
0.0
1040
0.0
1040
0.0
1002
}
  0
LINE
  5
18D
  8
0
 10
-55.214659919382207
 20
207.9827496182383
 30
0.0
 11
-150.9889991167623
 21
207.97670755082021
 31
0.0
1001
REVIT
1002
{
1070
     1
1000
785376
1002
}
1002
{
1070
     5
1000
233013
1002
}
1002
{
1070
     2
1000
-2005028
1002
}
  0
LINE
  5
18E
  8
0
 10
-31.106703976503031
 20
113.77888224415101
 30
0.0
 11
-55.214659919382207
 21
207.9827496182383
 31
0.0
1001
REVIT
1002
{
1070
     1
1000
785376
1002
}
1002
{
1070
     5
1000
233013
1002
}
1002
{
1070
     2
1000
-2005028
1002
}
  0
INSERT
  5
18F
  8
0
  6
CONTINUOUS
  2
*U24
 10
0.0
 20
0.0
 30
0.0
  0
CIRCLE
  5
190
  8
0
 10
414.80110512497521
 20
-7.3438215980008508
 30
0.0
 40
1.9999999999999969
1001
REVIT
1002
{
1070
     1
1000
785377
1002
}
1002
{
1070
     5
1000
233013
1002
}
1002
{
1070
     2
1000
-2005028
1002
}
  0
INSERT
  5
191
  8
0
  6
CONTINUOUS
  2
*U25
 10
0.0
 20
0.0
 30
0.0
1001
REVIT
1002
{
1070
     1
1000
785377
1002
}
1002
{
1070
     5
1000
233013
1002
}
1002
{
1070
     2
1000
-2005028
1002
}
1001
ACAD
1002
{
1000
R14_HATCH_DATA
1000
191
1011
1.0
1021
0.0
1031
0.0
1021
0.0
1031
0.0
1011
0.0
1021
0.0
1031
0.0
1021
1.0
1031
0.0
1011
0.0
1021
0.0
1031
0.0
1021
0.0
1031
1.0
1040
0.0
1010
0.0
1020
0.0
1030
1.0
1000
SOLID
1070
     1
1070
     0
1071
        1
1071
        0
1071
        1
1070
     2
1040
414.80110512497521
1040
-7.3438215980008508
1040
1.9999999999999969
1040
0.0
1040
6.2831853071795862
1070
     1
1071
        0
1070
     0
1070
     1
1071
        1
1040
0.0
1040
0.0
1040
0.0
1002
}
  0
LINE
  5
192
  8
0
 10
448.39867554860251
 20
-154.31045050723111
 30
0.0
 11
581.17035624330993
 21
-154.31045050723111
 31
0.0
1001
REVIT
1002
{
1070
     1
1000
785377
1002
}
1002
{
1070
     5
1000
233013
1002
}
1002
{
1070
     2
1000
-2005028
1002
}
  0
LINE
  5
193
  8
0
 10
414.80110512497521
 20
-7.3438215980008508
 30
0.0
 11
448.39867554860251
 21
-154.31045050723111
 31
0.0
1001
REVIT
1002
{
1070
     1
1000
785377
1002
}
1002
{
1070
     5
1000
233013
1002
}
1002
{
1070
     2
1000
-2005028
1002
}
  0
INSERT
  5
194
  8
0
  6
CONTINUOUS
  2
*U26
 10
0.0
 20
0.0
 30
0.0
  0
INSERT
  5
196
  8
0
  6
CONTINUOUS
  2
*U27
 10
0.0
 20
0.0
 30
0.0
  0
CIRCLE
  5
197
  8
0
 10
514.52881619290054
 20
-17.20683888383639
 30
0.0
 40
2.000000000000036
1001
REVIT
1002
{
1070
     1
1000
785381
1002
}
1002
{
1070
     5
1000
233013
1002
}
1002
{
1070
     2
1000
-2005028
1002
}
  0
INSERT
  5
198
  8
0
  6
CONTINUOUS
  2
*U28
 10
0.0
 20
0.0
 30
0.0
1001
REVIT
1002
{
1070
     1
1000
785381
1002
}
1002
{
1070
     5
1000
233013
1002
}
1002
{
1070
     2
1000
-2005028
1002
}
1001
ACAD
1002
{
1000
R14_HATCH_DATA
1000
198
1011
1.0
1021
0.0
1031
0.0
1021
0.0
1031
0.0
1011
0.0
1021
0.0
1031
0.0
1021
1.0
1031
0.0
1011
0.0
1021
0.0
1031
0.0
1021
0.0
1031
1.0
1040
0.0
1010
0.0
1020
0.0
1030
1.0
1000
SOLID
1070
     1
1070
     0
1071
        1
1071
        0
1071
        1
1070
     2
1040
514.52881619290054
1040
-17.20683888383639
1040
2.000000000000036
1040
0.0
1040
6.2831853071795862
1070
     1
1071
        0
1070
     0
1070
     1
1071
        1
1040
0.0
1040
0.0
1040
0.0
1002
}
  0
LINE
  5
199
  8
0
 10
530.12768817529889
 20
-73.29702377460174
 30
0.0
 11
581.17035624330993
 21
-73.29702377460174
 31
0.0
1001
REVIT
1002
{
1070
     1
1000
785381
1002
}
1002
{
1070
     5
1000
233013
1002
}
1002
{
1070
     2
1000
-2005028
1002
}
  0
LINE
  5
19A
  8
0
 10
514.52881619290054
 20
-17.20683888383639
 30
0.0
 11
530.12768817529889
 21
-73.29702377460174
 31
0.0
1001
REVIT
1002
{
1070
     1
1000
785381
1002
}
1002
{
1070
     5
1000
233013
1002
}
1002
{
1070
     2
1000
-2005028
1002
}
  0
INSERT
  5
19B
  8
0
  6
CONTINUOUS
  2
*U29
 10
0.0
 20
0.0
 30
0.0
  0
CIRCLE
  5
19C
  8
0
 10
63.608844761259633
 20
142.52139031750761
 30
0.0
 40
1.9999999999999989
1001
REVIT
1002
{
1070
     1
1000
785385
1002
}
1002
{
1070
     5
1000
515860
1002
}
1002
{
1070
     2
1000
-2005028
1002
}
  0
INSERT
  5
19D
  8
0
  6
CONTINUOUS
  2
*U30
 10
0.0
 20
0.0
 30
0.0
1001
REVIT
1002
{
1070
     1
1000
785385
1002
}
1002
{
1070
     5
1000
515860
1002
}
1002
{
1070
     2
1000
-2005028
1002
}
1001
ACAD
1002
{
1000
R14_HATCH_DATA
1000
19D
1011
1.0
1021
0.0
1031
0.0
1021
0.0
1031
0.0
1011
0.0
1021
0.0
1031
0.0
1021
1.0
1031
0.0
1011
0.0
1021
0.0
1031
0.0
1021
0.0
1031
1.0
1040
0.0
1010
0.0
1020
0.0
1030
1.0
1000
SOLID
1070
     1
1070
     0
1071
        1
1071
        0
1071
        1
1070
     2
1040
63.608844761259633
1040
142.52139031750761
1040
1.9999999999999989
1040
0.0
1040
6.2831853071795862
1070
     1
1071
        0
1070
     0
1070
     1
1071
        1
1040
0.0
1040
0.0
1040
0.0
1002
}
  0
LINE
  5
19E
  8
0
 10
10.95228222090525
 20
325.73171703224921
 30
0.0
 11
-73.088999116762281
 21
325.73171703224921
 31
0.0
1001
REVIT
1002
{
1070
     1
1000
785385
1002
}
1002
{
1070
     5
1000
515860
1002
}
1002
{
1070
     2
1000
-2005028
1002
}
  0
LINE
  5
19F
  8
0
 10
63.608844761259633
 20
142.52139031750761
 30
0.0
 11
10.95228222090525
 21
325.73171703224921
 31
0.0
1001
REVIT
1002
{
1070
     1
1000
785385
1002
}
1002
{
1070
     5
1000
515860
1002
}
1002
{
1070
     2
1000
-2005028
1002
}
  0
INSERT
  5
1A0
  8
0
  6
CONTINUOUS
  2
*U31
 10
0.0
 20
0.0
 30
0.0
  0
CIRCLE
  5
1A1
  8
0
 10
-97.224949441907796
 20
50.000000000000391
 30
0.0
 40
2.0000000000000049
1001
REVIT
1002
{
1070
     1
1000
785387
1002
}
1002
{
1070
     5
1000
233013
1002
}
1002
{
1070
     2
1000
-2005028
1002
}
  0
INSERT
  5
1A2
  8
0
  6
CONTINUOUS
  2
*U32
 10
0.0
 20
0.0
 30
0.0
1001
REVIT
1002
{
1070
     1
1000
785387
1002
}
1002
{
1070
     5
1000
233013
1002
}
1002
{
1070
     2
1000
-2005028
1002
}
1001
ACAD
1002
{
1000
R14_HATCH_DATA
1000
1A2
1011
1.0
1021
0.0
1031
0.0
1021
0.0
1031
0.0
1011
0.0
1021
0.0
1031
0.0
1021
1.0
1031
0.0
1011
0.0
1021
0.0
1031
0.0
1021
0.0
1031
1.0
1040
0.0
1010
0.0
1020
0.0
1030
1.0
1000
SOLID
1070
     1
1070
     0
1071
        1
1071
        0
1071
        1
1070
     2
1040
-97.224949441907796
1040
50.000000000000391
1040
2.0000000000000049
1040
0.0
1040
6.2831853071795862
1070
     1
1071
        0
1070
     0
1070
     1
1071
        1
1040
0.0
1040
0.0
1040
0.0
1002
}
  0
LINE
  5
1A3
  8
0
 10
-150.51034575045739
 20
-27.636480454841919
 30
0.0
 11
-174.5889991167623
 21
-27.636480454841919
 31
0.0
1001
REVIT
1002
{
1070
     1
1000
785387
1002
}
1002
{
1070
     5
1000
233013
1002
}
1002
{
1070
     2
1000
-2005028
1002
}
  0
LINE
  5
1A4
  8
0
 10
-97.224949441907796
 20
50.000000000000391
 30
0.0
 11
-150.51034575045739
 21
-27.636480454841909
 31
0.0
1001
REVIT
1002
{
1070
     1
1000
785387
1002
}
1002
{
1070
     5
1000
233013
1002
}
1002
{
1070
     2
1000
-2005028
1002
}
  0
INSERT
  5
1A5
  8
0
  6
CONTINUOUS
  2
*U33
 10
0.0
 20
0.0
 30
0.0
  0
CIRCLE
  5
1A6
  8
0
 10
475.4287047401358
 20
18.013544642077601
 30
0.0
 40
2.0000000000000231
1001
REVIT
1002
{
1070
     1
1000
785388
1002
}
1002
{
1070
     5
1000
233013
1002
}
1002
{
1070
     2
1000
-2005028
1002
}
  0
INSERT
  5
1A7
  8
0
  6
CONTINUOUS
  2
*U34
 10
0.0
 20
0.0
 30
0.0
1001
REVIT
1002
{
1070
     1
1000
785388
1002
}
1002
{
1070
     5
1000
233013
1002
}
1002
{
1070
     2
1000
-2005028
1002
}
1001
ACAD
1002
{
1000
R14_HATCH_DATA
1000
1A7
1011
1.0
1021
0.0
1031
0.0
1021
0.0
1031
0.0
1011
0.0
1021
0.0
1031
0.0
1021
1.0
1031
0.0
1011
0.0
1021
0.0
1031
0.0
1021
0.0
1031
1.0
1040
0.0
1010
0.0
1020
0.0
1030
1.0
1000
SOLID
1070
     1
1070
     0
1071
        1
1071
        0
1071
        1
1070
     2
1040
475.4287047401358
1040
18.013544642077601
1040
2.0000000000000231
1040
0.0
1040
6.2831853071795862
1070
     1
1071
        0
1070
     0
1070
     1
1071
        1
1040
0.0
1040
0.0
1040
0.0
1002
}
  0
LINE
  5
1A8
  8
0
 10
505.42653547551743
 20
-112.2438708002351
 30
0.0
 11
581.17035624330993
 21
-112.2438708002351
 31
0.0
1001
REVIT
1002
{
1070
     1
1000
785388
1002
}
1002
{
1070
     5
1000
233013
1002
}
1002
{
1070
     2
1000
-2005028
1002
}
  0
LINE
  5
1A9
  8
0
 10
475.4287047401358
 20
18.013544642077601
 30
0.0
 11
505.42653547551743
 21
-112.2438708002351
 31
0.0
1001
REVIT
1002
{
1070
     1
1000
785388
1002
}
1002
{
1070
     5
1000
233013
1002
}
1002
{
1070
     2
1000
-2005028
1002
}
  0
INSERT
  5
1AA
  8
0
  6
CONTINUOUS
  2
*U35
 10
0.0
 20
0.0
 30
0.0
  0
CIRCLE
  5
1AB
  8
0
 10
523.51745389984455
 20
74.826310777553473
 30
0.0
 40
2.0000000000000582
1001
REVIT
1002
{
1070
     1
1000
785391
1002
}
1002
{
1070
     5
1000
233011
1002
}
1002
{
1070
     2
1000
-2005028
1002
}
  0
INSERT
  5
1AC
  8
0
  6
CONTINUOUS
  2
*U36
 10
0.0
 20
0.0
 30
0.0
1001
REVIT
1002
{
1070
     1
1000
785391
1002
}
1002
{
1070
     5
1000
233011
1002
}
1002
{
1070
     2
1000
-2005028
1002
}
1001
ACAD
1002
{
1000
R14_HATCH_DATA
1000
1AC
1011
1.0
1021
0.0
1031
0.0
1021
0.0
1031
0.0
1011
0.0
1021
0.0
1031
0.0
1021
1.0
1031
0.0
1011
0.0
1021
0.0
1031
0.0
1021
0.0
1031
1.0
1040
0.0
1010
0.0
1020
0.0
1030
1.0
1000
SOLID
1070
     1
1070
     0
1071
        1
1071
        0
1071
        1
1070
     2
1040
523.51745389984455
1040
74.826310777553473
1040
2.0000000000000582
1040
0.0
1040
6.2831853071795862
1070
     1
1071
        0
1070
     0
1070
     1
1071
        1
1040
0.0
1040
0.0
1040
0.0
1002
}
  0
LINE
  5
1AD
  8
0
 10
566.06560274682454
 20
44.253956157221857
 30
0.0
 11
581.17035624330993
 21
44.253956157221857
 31
0.0
1001
REVIT
1002
{
1070
     1
1000
785391
1002
}
1002
{
1070
     5
1000
233011
1002
}
1002
{
1070
     2
1000
-2005028
1002
}
  0
LINE
  5
1AE
  8
0
 10
523.51745389984455
 20
74.826310777553473
 30
0.0
 11
566.06560274682454
 21
44.253956157221857
 31
0.0
1001
REVIT
1002
{
1070
     1
1000
785391
1002
}
1002
{
1070
     5
1000
233011
1002
}
1002
{
1070
     2
1000
-2005028
1002
}
  0
INSERT
  5
1AF
  8
0
  6
CONTINUOUS
  2
*U37
 10
0.0
 20
0.0
 30
0.0
  0
CIRCLE
  5
1B0
  8
0
 10
517.44353966597384
 20
123.38977527258901
 30
0.0
 40
2.0000000000000182
1001
REVIT
1002
{
1070
     1
1000
785392
1002
}
1002
{
1070
     5
1000
233013
1002
}
1002
{
1070
     2
1000
-2005028
1002
}
  0
INSERT
  5
1B1
  8
0
  6
CONTINUOUS
  2
*U38
 10
0.0
 20
0.0
 30
0.0
1001
REVIT
1002
{
1070
     1
1000
785392
1002
}
1002
{
1070
     5
1000
233013
1002
}
1002
{
1070
     2
1000
-2005028
1002
}
1001
ACAD
1002
{
1000
R14_HATCH_DATA
1000
1B1
1011
1.0
1021
0.0
1031
0.0
1021
0.0
1031
0.0
1011
0.0
1021
0.0
1031
0.0
1021
1.0
1031
0.0
1011
0.0
1021
0.0
1031
0.0
1021
0.0
1031
1.0
1040
0.0
1010
0.0
1020
0.0
1030
1.0
1000
SOLID
1070
     1
1070
     0
1071
        1
1071
        0
1071
        1
1070
     2
1040
517.44353966597384
1040
123.38977527258901
1040
2.0000000000000182
1040
0.0
1040
6.2831853071795862
1070
     1
1071
        0
1070
     0
1070
     1
1071
        1
1040
0.0
1040
0.0
1040
0.0
1002
}
  0
LINE
  5
1B2
  8
0
 10
564.927480178574
 20
104.4395319388686
 30
0.0
 11
579.92035624330993
 21
104.4395319388686
 31
0.0
1001
REVIT
1002
{
1070
     1
1000
785392
1002
}
1002
{
1070
     5
1000
233013
1002
}
1002
{
1070
     2
1000
-2005028
1002
}
  0
LINE
  5
1B3
  8
0
 10
517.44353966597384
 20
123.38977527258901
 30
0.0
 11
564.927480178574
 21
104.4395319388686
 31
0.0
1001
REVIT
1002
{
1070
     1
1000
785392
1002
}
1002
{
1070
     5
1000
233013
1002
}
1002
{
1070
     2
1000
-2005028
1002
}
  0
INSERT
  5
1B4
  8
0
  6
CONTINUOUS
  2
*U39
 10
0.0
 20
0.0
 30
0.0
  0
CIRCLE
  5
1B5
  8
0
 10
16.483701512987839
 20
120.4080480157685
 30
0.0
 40
2.0
1001
REVIT
1002
{
1070
     1
1000
797554
1002
}
1002
{
1070
     5
1000
233013
1002
}
1002
{
1070
     2
1000
-2005028
1002
}
  0
INSERT
  5
1B6
  8
0
  6
CONTINUOUS
  2
*U40
 10
0.0
 20
0.0
 30
0.0
1001
REVIT
1002
{
1070
     1
1000
797554
1002
}
1002
{
1070
     5
1000
233013
1002
}
1002
{
1070
     2
1000
-2005028
1002
}
1001
ACAD
1002
{
1000
R14_HATCH_DATA
1000
1B6
1011
1.0
1021
0.0
1031
0.0
1021
0.0
1031
0.0
1011
0.0
1021
0.0
1031
0.0
1021
1.0
1031
0.0
1011
0.0
1021
0.0
1031
0.0
1021
0.0
1031
1.0
1040
0.0
1010
0.0
1020
0.0
1030
1.0
1000
SOLID
1070
     1
1070
     0
1071
        1
1071
        0
1071
        1
1070
     2
1040
16.483701512987839
1040
120.4080480157685
1040
2.0
1040
0.0
1040
6.2831853071795862
1070
     1
1071
        0
1070
     0
1070
     1
1071
        1
1040
0.0
1040
0.0
1040
0.0
1002
}
  0
LINE
  5
1B7
  8
0
 10
-31.221242679154241
 20
266.49700885648679
 30
0.0
 11
-155.18899911676229
 21
266.49700885648679
 31
0.0
1001
REVIT
1002
{
1070
     1
1000
797554
1002
}
1002
{
1070
     5
1000
233013
1002
}
1002
{
1070
     2
1000
-2005028
1002
}
  0
LINE
  5
1B8
  8
0
 10
16.483701512987839
 20
120.4080480157685
 30
0.0
 11
-31.221242679154241
 21
266.49700885648679
 31
0.0
1001
REVIT
1002
{
1070
     1
1000
797554
1002
}
1002
{
1070
     5
1000
233013
1002
}
1002
{
1070
     2
1000
-2005028
1002
}
  0
INSERT
  5
1B9
  8
0
  6
CONTINUOUS
  2
*U41
 10
0.0
 20
0.0
 30
0.0
  0
CIRCLE
  5
1BA
  8
0
 10
-31.106703976503031
 20
113.77888224415101
 30
0.0
 40
2.0000000000000022
1001
REVIT
1002
{
1070
     1
1000
797555
1002
}
1002
{
1070
     5
1000
233013
1002
}
1002
{
1070
     2
1000
-2005028
1002
}
  0
INSERT
  5
1BB
  8
0
  6
CONTINUOUS
  2
*U42
 10
0.0
 20
0.0
 30
0.0
1001
REVIT
1002
{
1070
     1
1000
797555
1002
}
1002
{
1070
     5
1000
233013
1002
}
1002
{
1070
     2
1000
-2005028
1002
}
1001
ACAD
1002
{
1000
R14_HATCH_DATA
1000
1BB
1011
1.0
1021
0.0
1031
0.0
1021
0.0
1031
0.0
1011
0.0
1021
0.0
1031
0.0
1021
1.0
1031
0.0
1011
0.0
1021
0.0
1031
0.0
1021
0.0
1031
1.0
1040
0.0
1010
0.0
1020
0.0
1030
1.0
1000
SOLID
1070
     1
1070
     0
1071
        1
1071
        0
1071
        1
1070
     2
1040
-31.106703976503031
1040
113.77888224415101
1040
2.0000000000000022
1040
0.0
1040
6.2831853071795862
1070
     1
1071
        0
1070
     0
1070
     1
1071
        1
1040
0.0
1040
0.0
1040
0.0
1002
}
  0
LINE
  5
1BC
  8
0
 10
-55.214659919382207
 20
207.9827496182383
 30
0.0
 11
-150.9889991167623
 21
207.97670755082021
 31
0.0
1001
REVIT
1002
{
1070
     1
1000
797555
1002
}
1002
{
1070
     5
1000
233013
1002
}
1002
{
1070
     2
1000
-2005028
1002
}
  0
LINE
  5
1BD
  8
0
 10
-31.106703976503031
 20
113.77888224415101
 30
0.0
 11
-55.214659919382207
 21
207.9827496182383
 31
0.0
1001
REVIT
1002
{
1070
     1
1000
797555
1002
}
1002
{
1070
     5
1000
233013
1002
}
1002
{
1070
     2
1000
-2005028
1002
}
  0
INSERT
  5
1BE
  8
0
  6
CONTINUOUS
  2
*U43
 10
0.0
 20
0.0
 30
0.0
  0
CIRCLE
  5
1BF
  8
0
 10
414.80110512497521
 20
-7.3438215980008508
 30
0.0
 40
1.9999999999999969
1001
REVIT
1002
{
1070
     1
1000
797556
1002
}
1002
{
1070
     5
1000
233013
1002
}
1002
{
1070
     2
1000
-2005028
1002
}
  0
INSERT
  5
1C0
  8
0
  6
CONTINUOUS
  2
*U44
 10
0.0
 20
0.0
 30
0.0
1001
REVIT
1002
{
1070
     1
1000
797556
1002
}
1002
{
1070
     5
1000
233013
1002
}
1002
{
1070
     2
1000
-2005028
1002
}
1001
ACAD
1002
{
1000
R14_HATCH_DATA
1000
1C0
1011
1.0
1021
0.0
1031
0.0
1021
0.0
1031
0.0
1011
0.0
1021
0.0
1031
0.0
1021
1.0
1031
0.0
1011
0.0
1021
0.0
1031
0.0
1021
0.0
1031
1.0
1040
0.0
1010
0.0
1020
0.0
1030
1.0
1000
SOLID
1070
     1
1070
     0
1071
        1
1071
        0
1071
        1
1070
     2
1040
414.80110512497521
1040
-7.3438215980008508
1040
1.9999999999999969
1040
0.0
1040
6.2831853071795862
1070
     1
1071
        0
1070
     0
1070
     1
1071
        1
1040
0.0
1040
0.0
1040
0.0
1002
}
  0
LINE
  5
1C1
  8
0
 10
448.39867554860251
 20
-154.31045050723111
 30
0.0
 11
581.17035624330993
 21
-154.31045050723111
 31
0.0
1001
REVIT
1002
{
1070
     1
1000
797556
1002
}
1002
{
1070
     5
1000
233013
1002
}
1002
{
1070
     2
1000
-2005028
1002
}
  0
LINE
  5
1C2
  8
0
 10
414.80110512497521
 20
-7.3438215980008508
 30
0.0
 11
448.39867554860251
 21
-154.31045050723111
 31
0.0
1001
REVIT
1002
{
1070
     1
1000
797556
1002
}
1002
{
1070
     5
1000
233013
1002
}
1002
{
1070
     2
1000
-2005028
1002
}
  0
INSERT
  5
1C3
  8
0
  6
CONTINUOUS
  2
*U45
 10
0.0
 20
0.0
 30
0.0
  0
CIRCLE
  5
1C4
  8
0
 10
514.52881619290054
 20
-17.20683888383639
 30
0.0
 40
2.000000000000036
1001
REVIT
1002
{
1070
     1
1000
797557
1002
}
1002
{
1070
     5
1000
233013
1002
}
1002
{
1070
     2
1000
-2005028
1002
}
  0
INSERT
  5
1C5
  8
0
  6
CONTINUOUS
  2
*U46
 10
0.0
 20
0.0
 30
0.0
1001
REVIT
1002
{
1070
     1
1000
797557
1002
}
1002
{
1070
     5
1000
233013
1002
}
1002
{
1070
     2
1000
-2005028
1002
}
1001
ACAD
1002
{
1000
R14_HATCH_DATA
1000
1C5
1011
1.0
1021
0.0
1031
0.0
1021
0.0
1031
0.0
1011
0.0
1021
0.0
1031
0.0
1021
1.0
1031
0.0
1011
0.0
1021
0.0
1031
0.0
1021
0.0
1031
1.0
1040
0.0
1010
0.0
1020
0.0
1030
1.0
1000
SOLID
1070
     1
1070
     0
1071
        1
1071
        0
1071
        1
1070
     2
1040
514.52881619290054
1040
-17.20683888383639
1040
2.000000000000036
1040
0.0
1040
6.2831853071795862
1070
     1
1071
        0
1070
     0
1070
     1
1071
        1
1040
0.0
1040
0.0
1040
0.0
1002
}
  0
LINE
  5
1C6
  8
0
 10
530.12768817529889
 20
-73.29702377460174
 30
0.0
 11
581.17035624330993
 21
-73.29702377460174
 31
0.0
1001
REVIT
1002
{
1070
     1
1000
797557
1002
}
1002
{
1070
     5
1000
233013
1002
}
1002
{
1070
     2
1000
-2005028
1002
}
  0
LINE
  5
1C7
  8
0
 10
514.52881619290054
 20
-17.20683888383639
 30
0.0
 11
530.12768817529889
 21
-73.29702377460174
 31
0.0
1001
REVIT
1002
{
1070
     1
1000
797557
1002
}
1002
{
1070
     5
1000
233013
1002
}
1002
{
1070
     2
1000
-2005028
1002
}
  0
INSERT
  5
1C8
  8
0
  6
CONTINUOUS
  2
*U47
 10
0.0
 20
0.0
 30
0.0
  0
CIRCLE
  5
1C9
  8
0
 10
509.9890150658988
 20
161.2543169176212
 30
0.0
 40
2.0000000000000062
1001
REVIT
1002
{
1070
     1
1000
797558
1002
}
1002
{
1070
     5
1000
233011
1002
}
1002
{
1070
     2
1000
-2005028
1002
}
  0
INSERT
  5
1CA
  8
0
  6
CONTINUOUS
  2
*U48
 10
0.0
 20
0.0
 30
0.0
1001
REVIT
1002
{
1070
     1
1000
797558
1002
}
1002
{
1070
     5
1000
233011
1002
}
1002
{
1070
     2
1000
-2005028
1002
}
1001
ACAD
1002
{
1000
R14_HATCH_DATA
1000
1CA
1011
1.0
1021
0.0
1031
0.0
1021
0.0
1031
0.0
1011
0.0
1021
0.0
1031
0.0
1021
1.0
1031
0.0
1011
0.0
1021
0.0
1031
0.0
1021
0.0
1031
1.0
1040
0.0
1010
0.0
1020
0.0
1030
1.0
1000
SOLID
1070
     1
1070
     0
1071
        1
1071
        0
1071
        1
1070
     2
1040
509.9890150658988
1040
161.2543169176212
1040
2.0000000000000062
1040
0.0
1040
6.2831853071795862
1070
     1
1071
        0
1070
     0
1070
     1
1071
        1
1040
0.0
1040
0.0
1040
0.0
1002
}
  0
LINE
  5
1CB
  8
0
 10
544.40248017857414
 20
217.08291112275811
 30
0.0
 11
581.17035624330993
 21
217.08291112275811
 31
0.0
1001
REVIT
1002
{
1070
     1
1000
797558
1002
}
1002
{
1070
     5
1000
233011
1002
}
1002
{
1070
     2
1000
-2005028
1002
}
  0
LINE
  5
1CC
  8
0
 10
509.9890150658988
 20
161.2543169176212
 30
0.0
 11
544.40248017857414
 21
217.08291112275811
 31
0.0
1001
REVIT
1002
{
1070
     1
1000
797558
1002
}
1002
{
1070
     5
1000
233011
1002
}
1002
{
1070
     2
1000
-2005028
1002
}
  0
INSERT
  5
1CD
  8
0
  6
CONTINUOUS
  2
*U49
 10
0.0
 20
0.0
 30
0.0
  0
CIRCLE
  5
1CE
  8
0
 10
-97.224949441907796
 20
50.000000000000391
 30
0.0
 40
2.0000000000000049
1001
REVIT
1002
{
1070
     1
1000
797560
1002
}
1002
{
1070
     5
1000
233013
1002
}
1002
{
1070
     2
1000
-2005028
1002
}
  0
INSERT
  5
1CF
  8
0
  6
CONTINUOUS
  2
*U50
 10
0.0
 20
0.0
 30
0.0
1001
REVIT
1002
{
1070
     1
1000
797560
1002
}
1002
{
1070
     5
1000
233013
1002
}
1002
{
1070
     2
1000
-2005028
1002
}
1001
ACAD
1002
{
1000
R14_HATCH_DATA
1000
1CF
1011
1.0
1021
0.0
1031
0.0
1021
0.0
1031
0.0
1011
0.0
1021
0.0
1031
0.0
1021
1.0
1031
0.0
1011
0.0
1021
0.0
1031
0.0
1021
0.0
1031
1.0
1040
0.0
1010
0.0
1020
0.0
1030
1.0
1000
SOLID
1070
     1
1070
     0
1071
        1
1071
        0
1071
        1
1070
     2
1040
-97.224949441907796
1040
50.000000000000391
1040
2.0000000000000049
1040
0.0
1040
6.2831853071795862
1070
     1
1071
        0
1070
     0
1070
     1
1071
        1
1040
0.0
1040
0.0
1040
0.0
1002
}
  0
LINE
  5
1D0
  8
0
 10
-150.51034575045739
 20
-27.636480454841919
 30
0.0
 11
-174.5889991167623
 21
-27.636480454841919
 31
0.0
1001
REVIT
1002
{
1070
     1
1000
797560
1002
}
1002
{
1070
     5
1000
233013
1002
}
1002
{
1070
     2
1000
-2005028
1002
}
  0
LINE
  5
1D1
  8
0
 10
-97.224949441907796
 20
50.000000000000391
 30
0.0
 11
-150.51034575045739
 21
-27.636480454841909
 31
0.0
1001
REVIT
1002
{
1070
     1
1000
797560
1002
}
1002
{
1070
     5
1000
233013
1002
}
1002
{
1070
     2
1000
-2005028
1002
}
  0
INSERT
  5
1D2
  8
0
  6
CONTINUOUS
  2
*U51
 10
0.0
 20
0.0
 30
0.0
  0
CIRCLE
  5
1D3
  8
0
 10
475.4287047401358
 20
18.013544642077601
 30
0.0
 40
2.0000000000000231
1001
REVIT
1002
{
1070
     1
1000
797561
1002
}
1002
{
1070
     5
1000
233013
1002
}
1002
{
1070
     2
1000
-2005028
1002
}
  0
INSERT
  5
1D4
  8
0
  6
CONTINUOUS
  2
*U52
 10
0.0
 20
0.0
 30
0.0
1001
REVIT
1002
{
1070
     1
1000
797561
1002
}
1002
{
1070
     5
1000
233013
1002
}
1002
{
1070
     2
1000
-2005028
1002
}
1001
ACAD
1002
{
1000
R14_HATCH_DATA
1000
1D4
1011
1.0
1021
0.0
1031
0.0
1021
0.0
1031
0.0
1011
0.0
1021
0.0
1031
0.0
1021
1.0
1031
0.0
1011
0.0
1021
0.0
1031
0.0
1021
0.0
1031
1.0
1040
0.0
1010
0.0
1020
0.0
1030
1.0
1000
SOLID
1070
     1
1070
     0
1071
        1
1071
        0
1071
        1
1070
     2
1040
475.4287047401358
1040
18.013544642077601
1040
2.0000000000000231
1040
0.0
1040
6.2831853071795862
1070
     1
1071
        0
1070
     0
1070
     1
1071
        1
1040
0.0
1040
0.0
1040
0.0
1002
}
  0
LINE
  5
1D5
  8
0
 10
505.42653547551743
 20
-112.2438708002351
 30
0.0
 11
581.17035624330993
 21
-112.2438708002351
 31
0.0
1001
REVIT
1002
{
1070
     1
1000
797561
1002
}
1002
{
1070
     5
1000
233013
1002
}
1002
{
1070
     2
1000
-2005028
1002
}
  0
LINE
  5
1D6
  8
0
 10
475.4287047401358
 20
18.013544642077601
 30
0.0
 11
505.42653547551743
 21
-112.2438708002351
 31
0.0
1001
REVIT
1002
{
1070
     1
1000
797561
1002
}
1002
{
1070
     5
1000
233013
1002
}
1002
{
1070
     2
1000
-2005028
1002
}
  0
INSERT
  5
1D7
  8
0
  6
CONTINUOUS
  2
*U53
 10
0.0
 20
0.0
 30
0.0
  0
CIRCLE
  5
1D8
  8
0
 10
523.51745389984455
 20
74.826310777553473
 30
0.0
 40
2.0000000000000582
1001
REVIT
1002
{
1070
     1
1000
797564
1002
}
1002
{
1070
     5
1000
233011
1002
}
1002
{
1070
     2
1000
-2005028
1002
}
  0
INSERT
  5
1D9
  8
0
  6
CONTINUOUS
  2
*U54
 10
0.0
 20
0.0
 30
0.0
1001
REVIT
1002
{
1070
     1
1000
797564
1002
}
1002
{
1070
     5
1000
233011
1002
}
1002
{
1070
     2
1000
-2005028
1002
}
1001
ACAD
1002
{
1000
R14_HATCH_DATA
1000
1D9
1011
1.0
1021
0.0
1031
0.0
1021
0.0
1031
0.0
1011
0.0
1021
0.0
1031
0.0
1021
1.0
1031
0.0
1011
0.0
1021
0.0
1031
0.0
1021
0.0
1031
1.0
1040
0.0
1010
0.0
1020
0.0
1030
1.0
1000
SOLID
1070
     1
1070
     0
1071
        1
1071
        0
1071
        1
1070
     2
1040
523.51745389984455
1040
74.826310777553473
1040
2.0000000000000582
1040
0.0
1040
6.2831853071795862
1070
     1
1071
        0
1070
     0
1070
     1
1071
        1
1040
0.0
1040
0.0
1040
0.0
1002
}
  0
LINE
  5
1DA
  8
0
 10
566.06560274682454
 20
44.253956157221857
 30
0.0
 11
581.17035624330993
 21
44.253956157221857
 31
0.0
1001
REVIT
1002
{
1070
     1
1000
797564
1002
}
1002
{
1070
     5
1000
233011
1002
}
1002
{
1070
     2
1000
-2005028
1002
}
  0
LINE
  5
1DB
  8
0
 10
523.51745389984455
 20
74.826310777553473
 30
0.0
 11
566.06560274682454
 21
44.253956157221857
 31
0.0
1001
REVIT
1002
{
1070
     1
1000
797564
1002
}
1002
{
1070
     5
1000
233011
1002
}
1002
{
1070
     2
1000
-2005028
1002
}
  0
INSERT
  5
1DC
  8
0
  6
CONTINUOUS
  2
*U55
 10
0.0
 20
0.0
 30
0.0
  0
CIRCLE
  5
1DD
  8
0
 10
517.44353966597384
 20
123.38977527258901
 30
0.0
 40
2.0000000000000182
1001
REVIT
1002
{
1070
     1
1000
797565
1002
}
1002
{
1070
     5
1000
233013
1002
}
1002
{
1070
     2
1000
-2005028
1002
}
  0
INSERT
  5
1DE
  8
0
  6
CONTINUOUS
  2
*U56
 10
0.0
 20
0.0
 30
0.0
1001
REVIT
1002
{
1070
     1
1000
797565
1002
}
1002
{
1070
     5
1000
233013
1002
}
1002
{
1070
     2
1000
-2005028
1002
}
1001
ACAD
1002
{
1000
R14_HATCH_DATA
1000
1DE
1011
1.0
1021
0.0
1031
0.0
1021
0.0
1031
0.0
1011
0.0
1021
0.0
1031
0.0
1021
1.0
1031
0.0
1011
0.0
1021
0.0
1031
0.0
1021
0.0
1031
1.0
1040
0.0
1010
0.0
1020
0.0
1030
1.0
1000
SOLID
1070
     1
1070
     0
1071
        1
1071
        0
1071
        1
1070
     2
1040
517.44353966597384
1040
123.38977527258901
1040
2.0000000000000182
1040
0.0
1040
6.2831853071795862
1070
     1
1071
        0
1070
     0
1070
     1
1071
        1
1040
0.0
1040
0.0
1040
0.0
1002
}
  0
LINE
  5
1DF
  8
0
 10
564.927480178574
 20
104.4395319388686
 30
0.0
 11
579.92035624330993
 21
104.4395319388686
 31
0.0
1001
REVIT
1002
{
1070
     1
1000
797565
1002
}
1002
{
1070
     5
1000
233013
1002
}
1002
{
1070
     2
1000
-2005028
1002
}
  0
LINE
  5
1E0
  8
0
 10
517.44353966597384
 20
123.38977527258901
 30
0.0
 11
564.927480178574
 21
104.4395319388686
 31
0.0
1001
REVIT
1002
{
1070
     1
1000
797565
1002
}
1002
{
1070
     5
1000
233013
1002
}
1002
{
1070
     2
1000
-2005028
1002
}
  0
INSERT
  5
1E1
  8
0
  6
CONTINUOUS
  2
*U57
 10
0.0
 20
0.0
 30
0.0
  0
LINE
  5
3ED
  8
0
 10
-220.17162953024689
 20
-28.408250613458009
 30
0.0
 11
-220.17162953024669
 21
68.748554873261909
 31
0.0
  0
LINE
  5
3EE
  8
0
 10
-220.17162953024649
 20
171.59174938654201
 30
0.0
 11
-220.17162953024669
 21
74.434943899822073
 31
0.0
  0
LINE
  5
3EF
  8
0
 10
-220.17162953024689
 20
-28.408250613458009
 30
0.0
 11
-220.17162953024669
 21
68.748554873261909
 31
0.0
  0
LINE
  5
3F0
  8
0
 10
-220.17162953024669
 20
68.748554873261909
 30
0.0
 11
-211.92553420154201
 21
70.202563965206522
 31
0.0
  0
LINE
  5
3F1
  8
0
 10
-211.92553420154201
 20
70.202563965206522
 30
0.0
 11
-228.4177248589514
 21
72.98093480787746
 31
0.0
  0
LINE
  5
3F2
  8
0
 10
-228.4177248589514
 20
72.98093480787746
 30
0.0
 11
-220.17162953024669
 21
74.434943899822073
 31
0.0
  0
LINE
  5
3F3
  8
0
 10
-220.17162953024669
 20
74.434943899822073
 30
0.0
 11
-220.17162953024649
 21
171.59174938654201
 31
0.0
  0
LINE
  5
3F4
  8
0
 10
66.000000000000171
 20
-218.41902815239609
 30
0.0
 11
-27.156805486719751
 21
-218.41902815239609
 31
0.0
  0
LINE
  5
3F5
  8
0
 10
-125.9999999999998
 20
-218.41902815239609
 30
0.0
 11
-32.843194513279911
 21
-218.41902815239609
 31
0.0
  0
LINE
  5
3F6
  8
0
 10
66.000000000000171
 20
-218.41902815239609
 30
0.0
 11
-27.156805486719751
 21
-218.41902815239609
 31
0.0
  0
LINE
  5
3F7
  8
0
 10
-27.156805486719751
 20
-218.41902815239609
 30
0.0
 11
-28.610814578664382
 21
-210.17293282369141
 31
0.0
  0
LINE
  5
3F8
  8
0
 10
-28.610814578664382
 20
-210.17293282369141
 30
0.0
 11
-31.389185421335281
 21
-226.66512348110081
 31
0.0
  0
LINE
  5
3F9
  8
0
 10
-31.389185421335281
 20
-226.66512348110081
 30
0.0
 11
-32.843194513279911
 21
-218.41902815239609
 31
0.0
  0
LINE
  5
3FA
  8
0
 10
-32.843194513279911
 20
-218.41902815239609
 30
0.0
 11
-125.9999999999998
 21
-218.41902815239609
 31
0.0
  0
LINE
  5
3FB
  8
0
 10
420.15413036985058
 20
125.3713203435592
 30
0.0
 11
416.15413036984921
 21
125.3713203435592
 31
0.0
1001
REVIT
1002
{
1070
     3
1000
211597
1002
}
  0
LINE
  5
3FC
  8
0
 10
418.65413036985098
 20
111.62132034355911
 30
0.0
 11
418.65413036985098
 21
124.62132034355911
 31
0.0
1001
REVIT
1002
{
1070
     3
1000
211597
1002
}
  0
LINE
  5
3FD
  8
0
 10
418.1541303698499
 20
109.6213203435592
 30
0.0
 11
418.65413036985098
 21
111.62132034355911
 31
0.0
1001
REVIT
1002
{
1070
     3
1000
211597
1002
}
  0
LINE
  5
3FE
  8
0
 10
417.65413036985109
 20
111.62132034355911
 30
0.0
 11
418.1541303698499
 21
109.6213203435592
 31
0.0
1001
REVIT
1002
{
1070
     3
1000
211597
1002
}
  0
LINE
  5
3FF
  8
0
 10
417.65413036985109
 20
124.62132034355911
 30
0.0
 11
417.65413036985109
 21
111.62132034355911
 31
0.0
1001
REVIT
1002
{
1070
     3
1000
211597
1002
}
  0
LINE
  5
400
  8
0
 10
416.45426682873961
 20
124.62132034355911
 30
0.0
 11
417.65413036985109
 21
124.62132034355911
 31
0.0
1001
REVIT
1002
{
1070
     3
1000
211597
1002
}
  0
LINE
  5
401
  8
0
 10
418.65413036985098
 20
124.62132034355911
 30
0.0
 11
419.853993910962
 21
124.62132034355911
 31
0.0
1001
REVIT
1002
{
1070
     3
1000
211597
1002
}
  0
LINE
  5
402
  8
0
 10
420.15413036985058
 20
125.3713203435592
 30
0.0
 11
419.853993910962
 21
124.62132034355911
 31
0.0
1001
REVIT
1002
{
1070
     3
1000
211597
1002
}
  0
LINE
  5
403
  8
0
 10
416.15413036984921
 20
125.3713203435592
 30
0.0
 11
416.45426682873961
 21
124.62132034355911
 31
0.0
1001
REVIT
1002
{
1070
     3
1000
211597
1002
}
  0
LINE
  5
404
  8
0
 10
523.51789321881165
 20
161.12132034355989
 30
0.0
 11
523.51789321881165
 21
71.12132034355983
 31
0.0
1001
REVIT
1002
{
1070
     3
1000
735057
1002
}
  0
LINE
  5
405
  8
0
 10
523.51789321881165
 20
161.12132034355989
 30
0.0
 11
480.51789321881159
 21
161.12132034355989
 31
0.0
1001
REVIT
1002
{
1070
     3
1000
735057
1002
}
  0
LINE
  5
406
  8
0
 10
523.51789321881165
 20
71.12132034355983
 30
0.0
 11
528.51789321881165
 21
62.461066305715477
 31
0.0
1001
REVIT
1002
{
1070
     3
1000
735057
1002
}
  0
ARC
  5
407
  8
0
 10
480.51789321881159
 20
158.62132034355989
 30
0.0
 40
2.5000000000000022
 50
90.0
 51
270.0
1001
REVIT
1002
{
1070
     3
1000
735057
1002
}
  0
LINE
  5
408
  8
0
 10
480.51789321881159
 20
156.12132034355989
 30
0.0
 11
490.51789321881159
 21
156.12132034355989
 31
0.0
1001
REVIT
1002
{
1070
     3
1000
735057
1002
}
  0
LINE
  5
409
  8
0
 10
520.51789321881313
 20
123.6213203435598
 30
0.0
 11
488.51789321881301
 21
123.6213203435598
 31
0.0
1001
REVIT
1002
{
1070
     3
1000
735057
1002
}
  0
LINE
  5
40A
  8
0
 10
481.51789321881262
 20
123.6213203435598
 30
0.0
 11
449.51789321881307
 21
123.6213203435598
 31
0.0
1001
REVIT
1002
{
1070
     3
1000
735057
1002
}
  0
LINE
  5
40B
  8
0
 10
442.51789321881279
 20
123.6213203435598
 30
0.0
 11
418.65413036985109
 21
123.6213203435598
 31
0.0
1001
REVIT
1002
{
1070
     3
1000
735057
1002
}
  0
LINE
  5
40C
  8
0
 10
417.65413036985109
 20
123.6213203435598
 30
0.0
 11
405.51789321881307
 21
123.6213203435598
 31
0.0
1001
REVIT
1002
{
1070
     3
1000
735057
1002
}
  0
LINE
  5
40D
  8
0
 10
405.51789321881307
 20
123.6213203435598
 30
0.0
 11
414.17814725665738
 21
128.62132034355969
 31
0.0
1001
REVIT
1002
{
1070
     3
1000
735057
1002
}
  0
LINE
  5
40E
  8
0
 10
520.51789321881313
 20
123.6213203435598
 30
0.0
 11
520.51789321881313
 21
158.6213203435598
 31
0.0
1001
REVIT
1002
{
1070
     3
1000
735057
1002
}
  0
LINE
  5
40F
  8
0
 10
520.51789321881313
 20
158.6213203435598
 30
0.0
 11
480.51789321881307
 21
158.6213203435598
 31
0.0
1001
REVIT
1002
{
1070
     3
1000
735057
1002
}
  0
LINE
  5
410
  8
0
 10
442.51789321881279
 20
123.6213203435598
 30
0.0
 11
451.17814725665721
 21
128.6213203435598
 31
0.0
1001
REVIT
1002
{
1070
     3
1000
735057
1002
}
  0
LINE
  5
411
  8
0
 10
451.17814725665721
 20
128.6213203435598
 30
0.0
 11
449.51789321881307
 21
123.6213203435598
 31
0.0
  0
LINE
  5
412
  8
0
 10
481.51789321881262
 20
123.6213203435598
 30
0.0
 11
490.17814725665733
 21
128.62132034356
 31
0.0
1001
REVIT
1002
{
1070
     3
1000
735057
1002
}
  0
LINE
  5
413
  8
0
 10
490.17814725665733
 20
128.62132034356
 30
0.0
 11
488.51789321881301
 21
123.6213203435598
 31
0.0
  0
LINE
  5
414
  8
0
 10
-220.17162953024771
 20
102.5000000000004
 30
0.0
 11
499.99999999999932
 21
102.5000000000003
 31
0.0
  0
LINE
  5
415
  8
0
 10
499.99999999999932
 20
102.5000000000003
 30
0.0
 11
499.99999999999932
 21
117.5000000000005
 31
0.0
  0
LINE
  5
416
  8
0
 10
499.99999999999932
 20
117.5000000000005
 30
0.0
 11
418.65413036985109
 21
117.5000000000005
 31
0.0
  0
LINE
  5
417
  8
0
 10
417.65413036985109
 20
117.5000000000005
 30
0.0
 11
-220.17162953024771
 21
117.5000000000006
 31
0.0
  0
LINE
  5
418
  8
0
 10
499.99999999999932
 20
110.0000000000009
 30
0.0
 11
418.2488002839608
 21
110.0000000000009
 31
0.0
1001
REVIT
1002
{
1070
     3
1000
456193
1002
}
  0
LINE
  5
419
  8
0
 10
418.05946045573978
 20
110.0000000000009
 30
0.0
 11
-220.17162953024771
 21
110.00000000000099
 31
0.0
1001
REVIT
1002
{
1070
     3
1000
456193
1002
}
  0
LINE
  5
41A
  8
0
 10
499.99999999999932
 20
107.5000000000003
 30
0.0
 11
-220.17162953024771
 21
107.5000000000004
 31
0.0
1001
REVIT
1002
{
1070
     3
1000
456193
1002
}
  0
LINE
  5
41B
  8
0
 10
499.99999999999932
 20
112.5000000000001
 30
0.0
 11
418.65413036985109
 21
112.5000000000001
 31
0.0
1001
REVIT
1002
{
1070
     3
1000
456193
1002
}
  0
LINE
  5
41C
  8
0
 10
417.65413036985109
 20
112.5000000000001
 30
0.0
 11
-220.171629530247
 21
112.5000000000002
 31
0.0
1001
REVIT
1002
{
1070
     3
1000
456193
1002
}
  0
LINE
  5
41D
  8
0
 10
499.99999999999932
 20
115.0000000000001
 30
0.0
 11
418.65413036985109
 21
115.0000000000001
 31
0.0
1001
REVIT
1002
{
1070
     3
1000
456193
1002
}
  0
LINE
  5
41E
  8
0
 10
417.65413036985109
 20
115.0000000000001
 30
0.0
 11
-220.171629530247
 21
115.0000000000002
 31
0.0
1001
REVIT
1002
{
1070
     3
1000
456193
1002
}
  0
LINE
  5
41F
  8
0
 10
499.99999999999932
 20
105.0000000000003
 30
0.0
 11
-220.17162953024771
 21
105.0000000000004
 31
0.0
1001
REVIT
1002
{
1070
     3
1000
456193
1002
}
  0
LINE
  5
420
  8
0
 10
526.94077779611325
 20
89.249064349178681
 30
0.0
 11
526.94077779611325
 21
85.249064349177317
 31
0.0
1001
REVIT
1002
{
1070
     3
1000
211597
1002
}
  0
LINE
  5
421
  8
0
 10
478.1907777961132
 20
87.749064349179108
 30
0.0
 11
526.19077779611325
 21
87.749064349179136
 31
0.0
1001
REVIT
1002
{
1070
     3
1000
211597
1002
}
  0
LINE
  5
422
  8
0
 10
476.1907777961132
 20
87.249064349177985
 30
0.0
 11
478.1907777961132
 21
87.749064349179108
 31
0.0
1001
REVIT
1002
{
1070
     3
1000
211597
1002
}
  0
LINE
  5
423
  8
0
 10
478.1907777961132
 20
86.749064349179136
 30
0.0
 11
476.1907777961132
 21
87.249064349177985
 31
0.0
1001
REVIT
1002
{
1070
     3
1000
211597
1002
}
  0
LINE
  5
424
  8
0
 10
526.19077779611325
 20
86.749064349179136
 30
0.0
 11
478.1907777961132
 21
86.749064349179136
 31
0.0
1001
REVIT
1002
{
1070
     3
1000
211597
1002
}
  0
LINE
  5
425
  8
0
 10
526.19077779611325
 20
85.549200808067724
 30
0.0
 11
526.19077779611325
 21
86.749064349179136
 31
0.0
1001
REVIT
1002
{
1070
     3
1000
211597
1002
}
  0
LINE
  5
426
  8
0
 10
526.19077779611325
 20
87.749064349179136
 30
0.0
 11
526.19077779611325
 21
88.948927890290108
 31
0.0
1001
REVIT
1002
{
1070
     3
1000
211597
1002
}
  0
LINE
  5
427
  8
0
 10
526.94077779611325
 20
89.249064349178681
 30
0.0
 11
526.19077779611325
 21
88.948927890290108
 31
0.0
1001
REVIT
1002
{
1070
     3
1000
211597
1002
}
  0
LINE
  5
428
  8
0
 10
526.94077779611325
 20
85.249064349177317
 30
0.0
 11
526.19077779611325
 21
85.549200808067724
 31
0.0
1001
REVIT
1002
{
1070
     3
1000
211597
1002
}
  0
LINE
  5
429
  8
0
  6
DASH
 10
499.9999999999996
 20
120.5000000000004
 30
0.0
 11
418.65413036985109
 21
120.5000000000004
 31
0.0
1001
REVIT
1002
{
1070
     3
1000
217411
1002
}
  0
LINE
  5
42A
  8
0
  6
DASH
 10
417.65413036985109
 20
120.5000000000004
 30
0.0
 11
-220.17162953024689
 21
120.5000000000005
 31
0.0
1001
REVIT
1002
{
1070
     3
1000
217411
1002
}
  0
INSERT
  5
42B
  8
0
  6
CONTINUOUS
  2
*X58
 10
0.0
 20
0.0
 30
0.0
1001
ACAD
1000
HATCH
1002
{
1070
    19
1000
FP_2
1040
1.0
1040
0.0
1000
R14_HATCH_DATA
1000
42B
1011
1.0
1021
0.0
1031
0.0
1021
0.0
1031
0.0
1011
0.0
1021
0.0
1031
0.0
1021
1.0
1031
0.0
1011
0.0
1021
0.0
1031
0.0
1021
0.0
1031
1.0
1040
0.0
1010
0.0
1020
0.0
1030
1.0
1000
FP_2
1070
     0
1070
     0
1071
        2
1071
        0
1071
       14
1070
     1
1040
502.00000000000023
1040
-22.50000000000006
1040
518.00000000000023
1040
-22.499999999999929
1070
     1
1040
518.00000000000023
1040
-22.499999999999929
1040
518.51763809020531
1040
-22.431851652578139
1070
     1
1040
518.51763809020531
1040
-22.431851652578139
1040
519.00000000000034
1040
-22.232050807568871
1070
     1
1040
519.00000000000034
1040
-22.232050807568871
1040
519.41421356237333
1040
-21.914213562373021
1070
     1
1040
519.41421356237333
1040
-21.914213562373021
1040
519.73205080756895
1040
-21.49999999999995
1070
     1
1040
519.73205080756918
1040
-21.49999999999995
1040
519.93185165257842
1040
-21.017638090205029
1070
     1
1040
519.93185165257819
1040
-21.017638090205029
1040
520.00000000000011
1040
-20.500000000000309
1070
     1
1040
520.00000000000011
1040
-20.500000000000309
1040
520.00000000000034
1040
86.749064349179221
1070
     1
1040
520.00000000000045
1040
86.749064349179221
1040
502.0000000000004
1040
86.749064349179221
1070
     1
1040
502.0000000000004
1040
86.749064349179221
1040
502.00000000000023
1040
-0.0000000000005116
1070
     1
1040
502.00000000000023
1040
-0.0000000000005116
1040
509.50000000000023
1040
-3.0000000000004969
1070
     1
1040
509.50000000000023
1040
-3.0000000000004969
1040
509.50000000000023
1040
-8.0000000000004405
1070
     1
1040
509.50000000000023
1040
-8.0000000000004405
1040
502.00000000000023
1040
-8.0000000000004405
1070
     1
1040
502.00000000000023
1040
-8.0000000000004405
1040
502.00000000000023
1040
-22.50000000000006
1071
        0
1071
        0
1071
       16
1070
     1
1040
517.54105633473785
1040
87.749064349179193
1040
520.00000000000034
1040
87.749064349179193
1070
     1
1040
520.00000000000045
1040
87.749064349179193
1040
520.00000000000045
1040
115.4999999999991
1070
     1
1040
520.00000000000045
1040
115.4999999999991
1040
519.93185165257842
1040
116.0176380902042
1070
     1
1040
519.93185165257819
1040
116.0176380902042
1040
519.73205080756918
1040
116.4999999999991
1070
     1
1040
519.73205080756929
1040
116.4999999999991
1040
519.41421356237333
1040
116.9142135623723
1070
     1
1040
519.41421356237333
1040
116.9142135623723
1040
519.00000000000034
1040
117.232050807568
1070
     1
1040
519.00000000000034
1040
117.232050807568
1040
518.51763809020542
1040
117.43185165257729
1070
     1
1040
518.51763809020542
1040
117.43185165257729
1040
518.00000000000045
1040
117.4999999999991
1070
     1
1040
518.00000000000045
1040
117.4999999999991
1040
502.00000000000023
1040
117.4999999999991
1070
     1
1040
502.00000000000023
1040
117.4999999999991
1040
502.00000000000023
1040
102.9999999999997
1070
     1
1040
502.00000000000023
1040
102.9999999999997
1040
509.50000000000028
1040
102.9999999999997
1070
     1
1040
509.50000000000028
1040
102.9999999999997
1040
509.50000000000028
1040
97.999999999999815
1070
     1
1040
509.50000000000028
1040
97.999999999999815
1040
502.0000000000004
1040
94.999999999999687
1070
     1
1040
502.0000000000004
1040
94.999999999999687
1040
502.0000000000004
1040
87.749064349179193
1070
     1
1040
502.0000000000004
1040
87.749064349179193
1040
509.5000000000004
1040
87.749064349179193
1070
     1
1040
509.50000000000028
1040
87.749064349179193
1040
517.54105633473785
1040
87.749064349179193
1071
        0
1070
     0
1070
     2
1040
0.0
1040
1.0
1070
     0
1070
     1
1040
0.7853981633974483
1040
-0.0000000000001137
1040
-0.0000000000000142
1040
-2.828427124746189
1040
2.8284271247461898
1070
     0
1071
        1
1040
510.99999999999977
1040
67.499999999999986
1040
0.0
1002
}
  0
ARC
  5
42C
  8
0
 10
517.99999999999977
 20
-20.49999999999994
 30
0.0
 40
2.0000000000000142
 50
270.0
 51
359.9999999999992
1001
REVIT
1002
{
1070
     3
1000
224252
1002
}
  0
LINE
  5
42D
  8
0
 10
519.99999999999989
 20
-20.500000000000309
 30
0.0
 11
519.99999999999989
 21
86.749064349179136
 31
0.0
1001
REVIT
1002
{
1070
     3
1000
224252
1002
}
  0
LINE
  5
42E
  8
0
 10
519.99999999999989
 20
87.749064349179108
 30
0.0
 11
519.99999999999989
 21
115.49999999999901
 31
0.0
1001
REVIT
1002
{
1070
     3
1000
224252
1002
}
  0
ARC
  5
42F
  8
0
 10
517.99999999999977
 20
115.49999999999901
 30
0.0
 40
2.0000000000000009
 50
359.9999999999992
 51
90.0
1001
REVIT
1002
{
1070
     3
1000
224252
1002
}
  0
LINE
  5
430
  8
0
 10
517.99999999999977
 20
117.49999999999901
 30
0.0
 11
501.99999999999977
 21
117.49999999999901
 31
0.0
1001
REVIT
1002
{
1070
     3
1000
224252
1002
}
  0
LINE
  5
431
  8
0
 10
501.99999999999977
 20
117.49999999999901
 30
0.0
 11
501.99999999999977
 21
102.9999999999996
 31
0.0
1001
REVIT
1002
{
1070
     3
1000
224252
1002
}
  0
LINE
  5
432
  8
0
 10
501.99999999999977
 20
102.9999999999996
 30
0.0
 11
509.49999999999977
 21
102.9999999999996
 31
0.0
1001
REVIT
1002
{
1070
     3
1000
224252
1002
}
  0
LINE
  5
433
  8
0
 10
509.49999999999977
 20
102.9999999999996
 30
0.0
 11
509.49999999999977
 21
97.999999999999716
 31
0.0
1001
REVIT
1002
{
1070
     3
1000
224252
1002
}
  0
LINE
  5
434
  8
0
 10
509.49999999999977
 20
97.999999999999716
 30
0.0
 11
502.0
 21
94.999999999999659
 31
0.0
1001
REVIT
1002
{
1070
     3
1000
224252
1002
}
  0
LINE
  5
435
  8
0
 10
502.0
 20
94.999999999999659
 30
0.0
 11
502.0
 21
87.749064349179136
 31
0.0
1001
REVIT
1002
{
1070
     3
1000
224252
1002
}
  0
LINE
  5
436
  8
0
 10
502.0
 20
86.749064349179164
 30
0.0
 11
502.0
 21
-0.0000000000003979
 31
0.0
1001
REVIT
1002
{
1070
     3
1000
224252
1002
}
  0
LINE
  5
437
  8
0
 10
501.99999999999977
 20
-0.0000000000004974
 30
0.0
 11
509.49999999999972
 21
-3.0000000000004259
 31
0.0
1001
REVIT
1002
{
1070
     3
1000
224252
1002
}
  0
LINE
  5
438
  8
0
 10
509.49999999999972
 20
-3.0000000000004259
 30
0.0
 11
509.49999999999972
 21
-8.0000000000004263
 31
0.0
1001
REVIT
1002
{
1070
     3
1000
224252
1002
}
  0
LINE
  5
439
  8
0
 10
509.49999999999972
 20
-8.0000000000004263
 30
0.0
 11
501.99999999999977
 21
-8.0000000000004263
 31
0.0
1001
REVIT
1002
{
1070
     3
1000
224252
1002
}
  0
LINE
  5
43A
  8
0
 10
501.99999999999977
 20
-8.0000000000004263
 30
0.0
 11
501.99999999999977
 21
-22.499999999999972
 31
0.0
1001
REVIT
1002
{
1070
     3
1000
224252
1002
}
  0
LINE
  5
43B
  8
0
 10
501.99999999999977
 20
-22.499999999999972
 30
0.0
 11
517.99999999999977
 21
-22.499999999999972
 31
0.0
1001
REVIT
1002
{
1070
     3
1000
224252
1002
}
  0
LINE
  5
43C
  8
0
 10
504.33333333333451
 20
-7.5000000000004361
 30
0.0
 11
504.33333333333451
 21
-1.50000000000027
 31
0.0
1001
REVIT
1002
{
1070
     3
1000
211597
1002
}
  0
LINE
  5
43D
  8
0
 10
504.33333333333451
 20
-1.50000000000027
 30
0.0
 11
5.3082411351715564
 21
-1.50000000000027
 31
0.0
1001
REVIT
1002
{
1070
     3
1000
211597
1002
}
  0
LINE
  5
43E
  8
0
 10
5.3082411351715564
 20
-1.50000000000027
 30
0.0
 11
5.3082411351715564
 21
-7.5000000000004361
 31
0.0
1001
REVIT
1002
{
1070
     3
1000
211597
1002
}
  0
LINE
  5
43F
  8
0
 10
5.3082411351715564
 20
-7.5000000000004361
 30
0.0
 11
504.33333333333451
 21
-7.5000000000004361
 31
0.0
1001
REVIT
1002
{
1070
     3
1000
211597
1002
}
  0
LINE
  5
440
  8
0
 10
523.51789321881165
 20
161.12132034355989
 30
0.0
 11
523.51789321881165
 21
87.749064349179093
 31
0.0
1001
REVIT
1002
{
1070
     3
1000
735057
1002
}
  0
LINE
  5
441
  8
0
 10
523.51789321881165
 20
86.749064349179108
 30
0.0
 11
523.51789321881165
 21
71.12132034355983
 31
0.0
1001
REVIT
1002
{
1070
     3
1000
735057
1002
}
  0
LINE
  5
442
  8
0
 10
523.51789321881165
 20
161.12132034355989
 30
0.0
 11
480.51789321881159
 21
161.12132034355989
 31
0.0
1001
REVIT
1002
{
1070
     3
1000
735057
1002
}
  0
LINE
  5
443
  8
0
 10
523.51789321881165
 20
71.12132034355983
 30
0.0
 11
528.51789321881165
 21
62.461066305715477
 31
0.0
1001
REVIT
1002
{
1070
     3
1000
735057
1002
}
  0
ARC
  5
444
  8
0
 10
480.51789321881159
 20
158.62132034355989
 30
0.0
 40
2.5000000000000022
 50
90.0
 51
270.0
1001
REVIT
1002
{
1070
     3
1000
735057
1002
}
  0
LINE
  5
445
  8
0
 10
480.51789321881159
 20
156.12132034355989
 30
0.0
 11
490.51789321881159
 21
156.12132034355989
 31
0.0
1001
REVIT
1002
{
1070
     3
1000
735057
1002
}
  0
LINE
  5
446
  8
0
 10
520.51789321881313
 20
123.6213203435598
 30
0.0
 11
488.51789321881301
 21
123.6213203435598
 31
0.0
1001
REVIT
1002
{
1070
     3
1000
735057
1002
}
  0
LINE
  5
447
  8
0
 10
481.51789321881262
 20
123.6213203435598
 30
0.0
 11
449.51789321881307
 21
123.6213203435598
 31
0.0
1001
REVIT
1002
{
1070
     3
1000
735057
1002
}
  0
LINE
  5
448
  8
0
 10
442.51789321881279
 20
123.6213203435598
 30
0.0
 11
418.65413036985109
 21
123.6213203435598
 31
0.0
1001
REVIT
1002
{
1070
     3
1000
735057
1002
}
  0
LINE
  5
449
  8
0
 10
417.65413036985109
 20
123.6213203435598
 30
0.0
 11
405.51789321881307
 21
123.6213203435598
 31
0.0
1001
REVIT
1002
{
1070
     3
1000
735057
1002
}
  0
LINE
  5
44A
  8
0
 10
405.51789321881307
 20
123.6213203435598
 30
0.0
 11
414.17814725665738
 21
128.62132034355969
 31
0.0
1001
REVIT
1002
{
1070
     3
1000
735057
1002
}
  0
LINE
  5
44B
  8
0
 10
520.51789321881313
 20
123.6213203435598
 30
0.0
 11
520.51789321881313
 21
158.6213203435598
 31
0.0
1001
REVIT
1002
{
1070
     3
1000
735057
1002
}
  0
LINE
  5
44C
  8
0
 10
520.51789321881313
 20
158.6213203435598
 30
0.0
 11
480.51789321881307
 21
158.6213203435598
 31
0.0
1001
REVIT
1002
{
1070
     3
1000
735057
1002
}
  0
LINE
  5
44D
  8
0
 10
442.51789321881279
 20
123.6213203435598
 30
0.0
 11
451.17814725665721
 21
128.6213203435598
 31
0.0
1001
REVIT
1002
{
1070
     3
1000
735057
1002
}
  0
LINE
  5
44E
  8
0
 10
451.17814725665721
 20
128.6213203435598
 30
0.0
 11
449.51789321881307
 21
123.6213203435598
 31
0.0
  0
LINE
  5
44F
  8
0
 10
481.51789321881262
 20
123.6213203435598
 30
0.0
 11
490.17814725665733
 21
128.62132034356
 31
0.0
1001
REVIT
1002
{
1070
     3
1000
735057
1002
}
  0
LINE
  5
450
  8
0
 10
490.17814725665733
 20
128.62132034356
 30
0.0
 11
488.51789321881301
 21
123.6213203435598
 31
0.0
  0
ARC
  5
451
  8
0
 10
48.000000000001137
 20
73.000000000000455
 30
0.0
 40
1.9999999999999969
 50
0.0
 51
90.000000000000185
1001
REVIT
1002
{
1070
     3
1000
224526
1002
}
  0
ARC
  5
452
  8
0
 10
2.0000000000011968
 20
73.000000000000526
 30
0.0
 40
2.0
 50
89.999999999999801
 51
179.9999999999996
1001
REVIT
1002
{
1070
     3
1000
224526
1002
}
  0
ARC
  5
453
  8
0
 10
2.000000000001207
 20
2.0000000000004898
 30
0.0
 40
1.999999999999994
 50
180.0
 51
269.99999999999977
1001
REVIT
1002
{
1070
     3
1000
224526
1002
}
  0
ARC
  5
454
  8
0
 10
48.000000000001208
 20
2.0000000000004832
 30
0.0
 40
1.9999999999999949
 50
269.9999999999996
 51
0.0
1001
REVIT
1002
{
1070
     3
1000
224526
1002
}
  0
LINE
  5
455
  8
0
 10
48.000000000001137
 20
75.000000000000526
 30
0.0
 11
2.000000000001207
 21
75.000000000000526
 31
0.0
1001
REVIT
1002
{
1070
     3
1000
224526
1002
}
  0
LINE
  5
456
  8
0
 10
0.0000000000011973
 20
73.00000000000054
 30
0.0
 11
0.0000000000011973
 21
2.0000000000004969
 31
0.0
1001
REVIT
1002
{
1070
     3
1000
224526
1002
}
  0
LINE
  5
457
  8
0
 10
2.0000000000011928
 20
0.0000000000004832
 30
0.0
 11
48.000000000001208
 21
0.0000000000004832
 31
0.0
1001
REVIT
1002
{
1070
     3
1000
224526
1002
}
  0
LINE
  5
458
  8
0
 10
50.000000000001201
 20
2.0000000000004832
 30
0.0
 11
50.000000000001201
 21
73.000000000000455
 31
0.0
1001
REVIT
1002
{
1070
     3
1000
224526
1002
}
  0
LINE
  5
459
  8
0
 10
2.0000000000010369
 20
73.000000000000711
 30
0.0
 11
48.000000000001243
 21
2.0000000000005538
 31
0.0
  0
LINE
  5
45A
  8
0
 10
48.000000000001243
 20
73.000000000000711
 30
0.0
 11
2.000000000001239
 21
2.0000000000004832
 31
0.0
  0
LINE
  5
45B
  8
0
 10
515.51789321881301
 20
130.2071067811892
 30
0.0
 11
515.51789321881301
 21
150.2071067811892
 31
0.0
  0
LINE
  5
45C
  8
0
 10
515.51789321881301
 20
150.2071067811892
 30
0.0
 11
-280.49937484784959
 21
150.2071067811892
 31
0.0
  0
LINE
  5
45D
  8
0
 10
-280.49937484784959
 20
150.2071067811892
 30
0.0
 11
-280.49937484784959
 21
130.2071067811884
 31
0.0
  0
LINE
  5
45E
  8
0
 10
-280.49937484784959
 20
130.2071067811884
 30
0.0
 11
515.51789321881301
 21
130.2071067811884
 31
0.0
1001
REVIT
1002
{
1070
     3
1000
476644
1002
}
  0
LINE
  5
45F
  8
0
  6
DASH
 10
499.9999999999996
 20
120.5000000000004
 30
0.0
 11
418.65413036985109
 21
120.5000000000004
 31
0.0
1001
REVIT
1002
{
1070
     3
1000
217411
1002
}
  0
LINE
  5
460
  8
0
  6
DASH
 10
417.65413036985109
 20
120.5000000000004
 30
0.0
 11
-220.17162953024689
 21
120.5000000000005
 31
0.0
1001
REVIT
1002
{
1070
     3
1000
217411
1002
}
  0
LINE
  5
461
  8
0
  6
DASH
 10
2.5000000000000742
 20
-2.072339171135444
 30
0.0
 11
2.4999999999996572
 21
-214.84228192367729
 31
0.0
1001
REVIT
1002
{
1070
     3
1000
217411
1002
}
  0
INSERT
  5
462
  8
0
  6
CONTINUOUS
  2
*X59
 10
0.0
 20
0.0
 30
0.0
1001
ACAD
1000
HATCH
1002
{
1070
    19
1000
FP_1
1040
1.0
1040
0.0
1000
R14_HATCH_DATA
1000
462
1011
1.0
1021
0.0
1031
0.0
1021
0.0
1031
0.0
1011
0.0
1021
0.0
1031
0.0
1021
1.0
1031
0.0
1011
0.0
1021
0.0
1031
0.0
1021
0.0
1031
1.0
1040
0.0
1010
0.0
1020
0.0
1030
1.0
1000
FP_1
1070
     0
1070
     0
1071
        1
1071
        0
1071
        4
1070
     1
1040
27.808241135170888
1040
-218.41902815239669
1040
52.808241135170753
1040
-218.41902815239669
1070
     1
1040
52.808241135170753
1040
-218.41902815239669
1040
52.808241135170078
1040
-9.0000000000003961
1070
     1
1040
52.808241135170078
1040
-9.0000000000003961
1040
27.808241135170078
1040
-9.0000000000003961
1070
     1
1040
27.808241135170071
1040
-9.0000000000003961
1040
27.808241135170888
1040
-218.41902815239669
1071
        0
1070
     0
1070
     2
1040
0.0
1040
1.0
1070
     0
1070
     1
1040
0.0
1040
0.0002411351715637
1040
-0.0000281523961405
1040
0.0
1040
12.0
1070
     0
1071
        1
1040
40.308241135171563
1040
-218.41902815239609
1040
0.0
1002
}
  0
LINE
  5
463
  8
0
 10
52.808241135169993
 20
-9.0000000000002558
 30
0.0
 11
27.80824113516999
 21
-9.0000000000003126
 31
0.0
1001
REVIT
1002
{
1070
     3
1000
224526
1002
}
  0
LINE
  5
464
  8
0
 10
27.80824113516999
 20
-9.0000000000003126
 30
0.0
 11
27.80824113517069
 21
-218.41902815239649
 31
0.0
1001
REVIT
1002
{
1070
     3
1000
224526
1002
}
  0
LINE
  5
465
  8
0
 10
52.808241135170682
 20
-218.41902815239641
 30
0.0
 11
52.808241135169993
 21
-9.0000000000002558
 31
0.0
1001
REVIT
1002
{
1070
     3
1000
224526
1002
}
  0
ARC
  5
466
  8
0
 10
497.99999999999949
 20
97.999999999997911
 30
0.0
 40
1.9999999999999969
 50
0.0
 51
90.0
1001
REVIT
1002
{
1070
     3
1000
224526
1002
}
  0
ARC
  5
467
  8
0
 10
451.99999999999949
 20
97.999999999997982
 30
0.0
 40
2.0
 50
90.0
 51
179.9999999999996
1001
REVIT
1002
{
1070
     3
1000
224526
1002
}
  0
ARC
  5
468
  8
0
 10
451.99999999999949
 20
1.999999999997953
 30
0.0
 40
1.999999999999996
 50
179.9999999999996
 51
270.0
1001
REVIT
1002
{
1070
     3
1000
224526
1002
}
  0
ARC
  5
469
  8
0
 10
497.99999999999949
 20
1.9999999999979461
 30
0.0
 40
2.0000000000000009
 50
270.0
 51
0.0
1001
REVIT
1002
{
1070
     3
1000
224526
1002
}
  0
LINE
  5
46A
  8
0
 10
497.99999999999949
 20
99.999999999997996
 30
0.0
 11
451.99999999999949
 21
99.999999999997996
 31
0.0
1001
REVIT
1002
{
1070
     3
1000
224526
1002
}
  0
LINE
  5
46B
  8
0
 10
449.99999999999949
 20
97.999999999997982
 30
0.0
 11
449.99999999999949
 21
1.999999999997953
 31
0.0
1001
REVIT
1002
{
1070
     3
1000
224526
1002
}
  0
LINE
  5
46C
  8
0
 10
451.99999999999949
 20
-0.0000000000020606
 30
0.0
 11
497.99999999999949
 21
-0.0000000000020606
 31
0.0
1001
REVIT
1002
{
1070
     3
1000
224526
1002
}
  0
LINE
  5
46D
  8
0
 10
499.99999999999949
 20
1.9999999999979461
 30
0.0
 11
499.99999999999949
 21
86.749064349179108
 31
0.0
1001
REVIT
1002
{
1070
     3
1000
224526
1002
}
  0
LINE
  5
46E
  8
0
 10
499.99999999999949
 20
87.749064349179065
 30
0.0
 11
499.99999999999949
 21
97.999999999997911
 31
0.0
1001
REVIT
1002
{
1070
     3
1000
224526
1002
}
  0
LINE
  5
46F
  8
0
 10
451.99999999999937
 20
97.999999999998153
 30
0.0
 11
497.99999999999949
 21
1.9999999999980169
 31
0.0
  0
LINE
  5
470
  8
0
 10
497.99999999999949
 20
97.999999999998153
 30
0.0
 11
493.08809333398199
 21
87.749064349179065
 31
0.0
  0
LINE
  5
471
  8
0
 10
492.60892666731542
 20
86.749064349179093
 30
0.0
 11
451.9999999999996
 21
1.999999999997953
 31
0.0
  0
ARC
  5
472
  8
0
 10
-2.0000000000000071
 20
-3.0000000000000488
 30
0.0
 40
1.9999999999999969
 50
0.0000000000002036
 51
90.0
1001
REVIT
1002
{
1070
     3
1000
224526
1002
}
  0
ARC
  5
473
  8
0
 10
-97.999999999999943
 20
-2.9999999999999818
 30
0.0
 40
1.999999999999996
 50
90.0
 51
179.9999999999998
1001
REVIT
1002
{
1070
     3
1000
224526
1002
}
  0
ARC
  5
474
  8
0
 10
-97.999999999999943
 20
-49.0
 30
0.0
 40
1.999999999999992
 50
179.9999999999998
 51
269.9999999999996
1001
REVIT
1002
{
1070
     3
1000
224526
1002
}
  0
ARC
  5
475
  8
0
 10
-1.9999999999999429
 20
-49.000000000000021
 30
0.0
 40
2.0000000000000071
 50
269.9999999999996
 51
0.0
1001
REVIT
1002
{
1070
     3
1000
224526
1002
}
  0
LINE
  5
476
  8
0
 10
-2.0000000000000071
 20
-0.9999999999999786
 30
0.0
 11
-97.999999999999943
 21
-0.9999999999999786
 31
0.0
1001
REVIT
1002
{
1070
     3
1000
224526
1002
}
  0
LINE
  5
477
  8
0
 10
-99.999999999999943
 20
-2.9999999999999711
 30
0.0
 11
-99.999999999999943
 21
-49.0
 31
0.0
1001
REVIT
1002
{
1070
     3
1000
224526
1002
}
  0
LINE
  5
478
  8
0
 10
-97.999999999999943
 20
-51.000000000000007
 30
0.0
 11
-1.9999999999999429
 21
-51.000000000000007
 31
0.0
1001
REVIT
1002
{
1070
     3
1000
224526
1002
}
  0
LINE
  5
479
  8
0
 10
0.0000000000000639
 20
-49.000000000000021
 30
0.0
 11
0.0000000000000639
 21
-3.0000000000000488
 31
0.0
1001
REVIT
1002
{
1070
     3
1000
224526
1002
}
  0
LINE
  5
47A
  8
0
 10
-98.000000000000114
 20
-2.9999999999998042
 30
0.0
 11
-1.9999999999999141
 21
-48.999999999999943
 31
0.0
  0
LINE
  5
47B
  8
0
 10
-1.9999999999999141
 20
-2.9999999999998042
 30
0.0
 11
-97.999999999999901
 21
-49.000000000000007
 31
0.0
  0
LINE
  5
47C
  8
0
 10
450.0
 20
100.0000000000004
 30
0.0
 11
-220.17162953024669
 21
100.0000000000004
 31
0.0
1001
REVIT
1002
{
1070
     3
1000
206265
1002
}
  0
LINE
  5
47D
  8
0
 10
-220.17162953024669
 20
0.0000000000003055
 30
0.0
 11
0.0000000000012506
 21
0.0000000000003055
 31
0.0
1001
REVIT
1002
{
1070
     3
1000
206265
1002
}
  0
LINE
  5
47E
  8
0
 10
50.000000000001172
 20
0.0000000000003055
 30
0.0
 11
450.0
 21
0.0000000000003055
 31
0.0
1001
REVIT
1002
{
1070
     3
1000
206265
1002
}
  0
LINE
  5
47F
  8
0
 10
0.0000000000000995
 20
-218.41902815239661
 30
0.0
 11
0.0000000000004263
 21
-51.000000000000057
 31
0.0
1001
REVIT
1002
{
1070
     3
1000
206265
1002
}
  0
LINE
  5
480
  8
0
 10
-99.999999999999744
 20
-50.999999999999872
 30
0.0
 11
-100.0
 21
-218.41902815239641
 31
0.0
1001
REVIT
1002
{
1070
     3
1000
206265
1002
}
  0
ENDSEC
  0
EOF
