  0
SECTION
  2
HEADER
  9
$ACADVER
  1
AC1009
  9
$INSBASE
 10
0.0
 20
0.0
 30
0.0
  9
$EXTMIN
 10
-739.76782500657919
 20
-282.98916003516672
 30
0.0
  9
$EXTMAX
 10
243.13039454999051
 20
466.7799875833644
 30
0.0
  9
$LIMMIN
 10
0.0
 20
0.0
  9
$LIMMAX
 10
12.0
 20
9.0
  9
$ORTHOMODE
 70
     0
  9
$REGENMODE
 70
     1
  9
$FILLMODE
 70
     1
  9
$QTEXTMODE
 70
     0
  9
$MIRRTEXT
 70
     0
  9
$DRAGMODE
 70
     2
  9
$LTSCALE
 40
1.0
  9
$OSMODE
 70
     0
  9
$ATTMODE
 70
     1
  9
$TEXTSIZE
 40
0.2
  9
$TRACEWID
 40
0.05
  9
$TEXTSTYLE
  7
STANDARD
  9
$CLAYER
  8
0
  9
$CELTYPE
  6
BYLAYER
  9
$CECOLOR
 62
   256
  9
$DIMSCALE
 40
1.0
  9
$DIMASZ
 40
0.18
  9
$DIMEXO
 40
0.0625
  9
$DIMDLI
 40
0.38
  9
$DIMRND
 40
0.0
  9
$DIMDLE
 40
0.0
  9
$DIMEXE
 40
0.18
  9
$DIMTP
 40
0.0
  9
$DIMTM
 40
0.0
  9
$DIMTXT
 40
0.18
  9
$DIMCEN
 40
0.09
  9
$DIMTSZ
 40
0.0
  9
$DIMTOL
 70
     0
  9
$DIMLIM
 70
     0
  9
$DIMTIH
 70
     1
  9
$DIMTOH
 70
     1
  9
$DIMSE1
 70
     0
  9
$DIMSE2
 70
     0
  9
$DIMTAD
 70
     0
  9
$DIMZIN
 70
     0
  9
$DIMBLK
  1

  9
$DIMASO
 70
     1
  9
$DIMSHO
 70
     1
  9
$DIMPOST
  1

  9
$DIMAPOST
  1

  9
$DIMALT
 70
     0
  9
$DIMALTD
 70
     2
  9
$DIMALTF
 40
25.399999999999999
  9
$DIMLFAC
 40
1.0
  9
$DIMTOFL
 70
     0
  9
$DIMTVP
 40
0.0
  9
$DIMTIX
 70
     0
  9
$DIMSOXD
 70
     0
  9
$DIMSAH
 70
     0
  9
$DIMBLK1
  1

  9
$DIMBLK2
  1

  9
$DIMSTYLE
  2
STANDARD
  9
$DIMCLRD
 70
     0
  9
$DIMCLRE
 70
     0
  9
$DIMCLRT
 70
     0
  9
$DIMTFAC
 40
1.0
  9
$DIMGAP
 40
0.09
  9
$LUNITS
 70
     2
  9
$LUPREC
 70
     4
  9
$SKETCHINC
 40
0.1
  9
$FILLETRAD
 40
0.0
  9
$AUNITS
 70
     0
  9
$AUPREC
 70
     0
  9
$MENU
  1
.
  9
$ELEVATION
 40
0.0
  9
$PELEVATION
 40
0.0
  9
$THICKNESS
 40
0.0
  9
$LIMCHECK
 70
     0
  9
$BLIPMODE
 70
     0
  9
$CHAMFERA
 40
0.0
  9
$CHAMFERB
 40
0.0
  9
$SKPOLY
 70
     0
  9
$TDCREATE
 40
2457745.6364803468
  9
$TDUPDATE
 40
2457745.6826930442
  9
$TDINDWG
 40
0.0001340741
  9
$TDUSRTIMER
 40
0.0001340741
  9
$USRTIMER
 70
     1
  9
$ANGBASE
 50
0.0
  9
$ANGDIR
 70
     0
  9
$PDMODE
 70
     0
  9
$PDSIZE
 40
0.0
  9
$PLINEWID
 40
0.0
  9
$COORDS
 70
     2
  9
$SPLFRAME
 70
     0
  9
$SPLINETYPE
 70
     6
  9
$SPLINESEGS
 70
     8
  9
$ATTDIA
 70
     0
  9
$ATTREQ
 70
     0
  9
$HANDLING
 70
     1
  9
$HANDSEED
  5
91A
  9
$SURFTAB1
 70
     6
  9
$SURFTAB2
 70
     6
  9
$SURFTYPE
 70
     6
  9
$SURFU
 70
     6
  9
$SURFV
 70
     6
  9
$UCSNAME
  2

  9
$UCSORG
 10
0.0
 20
0.0
 30
0.0
  9
$UCSXDIR
 10
1.0
 20
0.0
 30
0.0
  9
$UCSYDIR
 10
0.0
 20
1.0
 30
0.0
  9
$PUCSNAME
  2

  9
$PUCSORG
 10
0.0
 20
0.0
 30
0.0
  9
$PUCSXDIR
 10
1.0
 20
0.0
 30
0.0
  9
$PUCSYDIR
 10
0.0
 20
1.0
 30
0.0
  9
$USERI1
 70
     0
  9
$USERI2
 70
     0
  9
$USERI3
 70
     0
  9
$USERI4
 70
     0
  9
$USERI5
 70
     0
  9
$USERR1
 40
0.0
  9
$USERR2
 40
0.0
  9
$USERR3
 40
0.0
  9
$USERR4
 40
0.0
  9
$USERR5
 40
0.0
  9
$WORLDVIEW
 70
     1
  9
$SHADEDGE
 70
     3
  9
$SHADEDIF
 70
    70
  9
$TILEMODE
 70
     1
  9
$MAXACTVP
 70
    64
  9
$PLIMCHECK
 70
     0
  9
$PEXTMIN
 10
28.674481201171879
 20
19.966517114639291
 30
0.0
  9
$PEXTMAX
 10
258.07033081054692
 20
179.69865403175351
 30
0.0
  9
$PLIMMIN
 10
-5.069427490234375
 20
-5.1964163780212402
  9
$PLIMMAX
 10
291.89889526367187
 20
204.77691125869751
  9
$UNITMODE
 70
     0
  9
$VISRETAIN
 70
     1
  9
$PLINEGEN
 70
     0
  9
$PSLTSCALE
 70
     1
  0
ENDSEC
  0
SECTION
  2
TABLES
  0
TABLE
  2
VPORT
 70
     1
  0
VPORT
  2
*ACTIVE
 70
     0
 10
0.0
 20
0.0
 11
1.0
 21
1.0
 12
-174.3783189043674
 22
90.268491969685897
 13
0.0
 23
0.0
 14
1.0
 24
1.0
 15
0.0
 25
0.0
 16
0.0
 26
0.0
 36
1.0
 17
0.0
 27
0.0
 37
0.0
 40
746.51530400970523
 41
1.5065088757396441
 42
50.0
 43
0.0
 44
0.0
 50
0.0
 51
0.0
 71
     0
 72
  1000
 73
     1
 74
     1
 75
     0
 76
     0
 77
     0
 78
     0
  0
ENDTAB
  0
TABLE
  2
LTYPE
 70
     2
  0
LTYPE
  2
CONTINUOUS
 70
     0
  3
Solid line
 72
    65
 73
     0
 40
0.0
  0
LTYPE
  2
DASH
 70
     0
  3

 72
    65
 73
     2
 40
6.3499999999999996
 49
3.1749999999999998
 49
-3.1749999999999998
  0
ENDTAB
  0
TABLE
  2
LAYER
 70
     8
  0
LAYER
  2
0
 70
     0
 62
     7
  6
CONTINUOUS
  0
ENDTAB
  0
TABLE
  2
STYLE
 70
     8
  0
STYLE
  2
STANDARD
 70
     0
 40
0.0
 41
1.0
 50
0.0
 71
     0
 42
0.2
  3
txt
  4

  0
STYLE
  2
ARIAL
 70
     0
 40
12.2941616766467
 41
1.0
 50
0.0
 71
     0
 42
0.2
  3
txt
  4

  0
ENDTAB
  0
TABLE
  2
VIEW
 70
     1
  0
ENDTAB
  0
TABLE
  2
UCS
 70
     0
  0
ENDTAB
  0
TABLE
  2
APPID
 70
     6
  0
APPID
  2
ACAD
 70
     0
  0
APPID
  2
ACADANNOTATIVE
 70
     0
  0
APPID
  2
REVIT
 70
     0
  0
APPID
  2
ACAD_PSEXT
 70
     0
  0
APPID
  2
ACAD_NAV_VCDISPLAY
 70
     0
  0
APPID
  2
ACAD_MLEADERVER
 70
     0
  0
ENDTAB
  0
TABLE
  2
DIMSTYLE
 70
     2
  0
DIMSTYLE
  2
STANDARD
 70
     0
  3

  4

  5

  6

  7

 40
1.0
 41
0.18
 42
0.0625
 43
0.38
 44
0.18
 45
0.0
 46
0.0
 47
0.0
 48
0.0
140
0.18
141
0.09
142
0.0
143
25.399999999999999
144
1.0
145
0.0
146
1.0
147
0.09
 71
     0
 72
     0
 73
     1
 74
     1
 75
     0
 76
     0
 77
     0
 78
     0
170
     0
171
     2
172
     0
173
     0
174
     0
175
     0
176
     0
177
     0
178
     0
  0
ENDTAB
  0
ENDSEC
  0
SECTION
  2
BLOCKS
  0
BLOCK
  8
0
  2
$MODEL_SPACE
 70
     0
 10
0.0
 20
0.0
 30
0.0
  3
$MODEL_SPACE
  1

  0
ENDBLK
  5
72
  8
0
  0
BLOCK
 67
     1
  8
0
  2
$PAPER_SPACE
 70
     0
 10
0.0
 20
0.0
 30
0.0
  3
$PAPER_SPACE
  1

  0
ENDBLK
  5
76
 67
     1
  8
0
  0
BLOCK
  8
0
  2
*U24
 70
     1
 10
0.0
 20
0.0
 30
0.0
  3
*U24
  1

  0
SOLID
  5
4F0
  8
0
  6
CONTINUOUS
 10
155.23796610192281
 20
371.8001838547633
 30
0.0
 11
154.2812575210101
 21
371.60988268604149
 31
0.0
 12
156.1946746828356
 22
371.60988268604149
 32
0.0
 13
156.1946746828356
 23
371.60988268604149
 33
0.0
210
0.0
220
0.0
230
1.0
  0
SOLID
  5
4F1
  8
0
  6
CONTINUOUS
 10
154.2812575210101
 20
371.60988268604149
 30
0.0
 11
153.47019914895651
 21
371.06795080772969
 31
0.0
 12
157.00573305488919
 22
371.06795080772969
 32
0.0
 13
157.00573305488919
 23
371.06795080772969
 33
0.0
210
0.0
220
0.0
230
1.0
  0
SOLID
  5
4F2
  8
0
  6
CONTINUOUS
 10
-154.2812575210101
 20
371.60988268604149
 30
0.0
 11
-156.1946746828356
 21
371.60988268604149
 31
0.0
 12
-157.00573305488919
 22
371.06795080772969
 32
0.0
 13
-157.00573305488919
 23
371.06795080772969
 33
0.0
210
0.0
220
0.0
230
-1.0
  0
SOLID
  5
4F3
  8
0
  6
CONTINUOUS
 10
153.47019914895651
 20
371.06795080772969
 30
0.0
 11
152.9282672706446
 21
370.25689243567598
 31
0.0
 12
157.54766493320099
 22
370.25689243567598
 32
0.0
 13
157.54766493320099
 23
370.25689243567598
 33
0.0
210
0.0
220
0.0
230
1.0
  0
SOLID
  5
4F4
  8
0
  6
CONTINUOUS
 10
-153.47019914895651
 20
371.06795080772969
 30
0.0
 11
-157.00573305488919
 21
371.06795080772969
 31
0.0
 12
-157.54766493320099
 22
370.25689243567598
 32
0.0
 13
-157.54766493320099
 23
370.25689243567598
 33
0.0
210
0.0
220
0.0
230
-1.0
  0
SOLID
  5
4F5
  8
0
  6
CONTINUOUS
 10
152.9282672706446
 20
370.25689243567598
 30
0.0
 11
152.73796610192281
 21
369.3001838547633
 31
0.0
 12
157.73796610192289
 22
369.3001838547633
 32
0.0
 13
157.73796610192289
 23
369.3001838547633
 33
0.0
210
0.0
220
0.0
230
1.0
  0
SOLID
  5
4F6
  8
0
  6
CONTINUOUS
 10
-152.9282672706446
 20
370.25689243567598
 30
0.0
 11
-157.54766493320099
 21
370.25689243567598
 31
0.0
 12
-157.73796610192289
 22
369.3001838547633
 32
0.0
 13
-157.73796610192289
 23
369.3001838547633
 33
0.0
210
0.0
220
0.0
230
-1.0
  0
SOLID
  5
4F7
  8
0
  6
CONTINUOUS
 10
152.73796610192281
 20
369.3001838547633
 30
0.0
 11
152.9282672706446
 21
368.34347527385057
 31
0.0
 12
157.54766493320099
 22
368.34347527385057
 32
0.0
 13
157.54766493320099
 23
368.34347527385057
 33
0.0
  0
SOLID
  5
4F8
  8
0
  6
CONTINUOUS
 10
-152.73796610192281
 20
369.3001838547633
 30
0.0
 11
-157.73796610192289
 21
369.3001838547633
 31
0.0
 12
-157.54766493320099
 22
368.34347527385057
 32
0.0
 13
-157.54766493320099
 23
368.34347527385057
 33
0.0
210
0.0
220
0.0
230
-1.0
  0
SOLID
  5
4F9
  8
0
  6
CONTINUOUS
 10
152.9282672706446
 20
368.34347527385057
 30
0.0
 11
153.47019914895651
 21
367.53241690179692
 31
0.0
 12
157.00573305488919
 22
367.53241690179692
 32
0.0
 13
157.00573305488919
 23
367.53241690179692
 33
0.0
210
0.0
220
0.0
230
1.0
  0
SOLID
  5
4FA
  8
0
  6
CONTINUOUS
 10
-152.9282672706446
 20
368.34347527385057
 30
0.0
 11
-157.54766493320099
 21
368.34347527385057
 31
0.0
 12
-157.00573305488919
 22
367.53241690179692
 32
0.0
 13
-157.00573305488919
 23
367.53241690179692
 33
0.0
210
0.0
220
0.0
230
-1.0
  0
SOLID
  5
4FB
  8
0
  6
CONTINUOUS
 10
-154.2812575210101
 20
366.99048502348512
 30
0.0
 11
-156.1946746828356
 21
366.99048502348512
 31
0.0
 12
-155.23796610192281
 22
366.8001838547633
 32
0.0
 13
-155.23796610192281
 23
366.8001838547633
 33
0.0
210
0.0
220
0.0
230
-1.0
  0
SOLID
  5
4FC
  8
0
  6
CONTINUOUS
 10
153.47019914895651
 20
367.53241690179692
 30
0.0
 11
154.2812575210101
 21
366.99048502348512
 31
0.0
 12
156.1946746828356
 22
366.99048502348512
 32
0.0
 13
156.1946746828356
 23
366.99048502348512
 33
0.0
  0
SOLID
  5
4FD
  8
0
  6
CONTINUOUS
 10
-153.47019914895651
 20
367.53241690179692
 30
0.0
 11
-157.00573305488919
 21
367.53241690179692
 31
0.0
 12
-156.1946746828356
 22
366.99048502348512
 32
0.0
 13
-156.1946746828356
 23
366.99048502348512
 33
0.0
210
0.0
220
0.0
230
-1.0
  0
LINE
  5
4FE
  8
0
  6
CONTINUOUS
 10
155.23796610192281
 20
371.8001838547633
 30
0.0
 11
154.2812575210101
 21
371.60988268604149
 31
0.0
  0
LINE
  5
4FF
  8
0
  6
CONTINUOUS
 10
156.1946746828356
 20
371.60988268604149
 30
0.0
 11
155.23796610192281
 21
371.8001838547633
 31
0.0
  0
LINE
  5
500
  8
0
  6
CONTINUOUS
 10
154.2812575210101
 20
371.60988268604149
 30
0.0
 11
153.47019914895651
 21
371.06795080772969
 31
0.0
  0
LINE
  5
501
  8
0
  6
CONTINUOUS
 10
156.1946746828356
 20
371.60988268604149
 30
0.0
 11
157.00573305488919
 21
371.06795080772969
 31
0.0
  0
LINE
  5
502
  8
0
  6
CONTINUOUS
 10
153.47019914895651
 20
371.06795080772969
 30
0.0
 11
152.9282672706446
 21
370.25689243567598
 31
0.0
  0
LINE
  5
503
  8
0
  6
CONTINUOUS
 10
157.00573305488919
 20
371.06795080772969
 30
0.0
 11
157.54766493320099
 21
370.25689243567598
 31
0.0
  0
LINE
  5
504
  8
0
  6
CONTINUOUS
 10
152.9282672706446
 20
370.25689243567598
 30
0.0
 11
152.73796610192281
 21
369.3001838547633
 31
0.0
  0
LINE
  5
505
  8
0
  6
CONTINUOUS
 10
157.54766493320099
 20
370.25689243567598
 30
0.0
 11
157.73796610192289
 21
369.3001838547633
 31
0.0
  0
LINE
  5
506
  8
0
  6
CONTINUOUS
 10
152.73796610192281
 20
369.3001838547633
 30
0.0
 11
152.9282672706446
 21
368.34347527385057
 31
0.0
  0
LINE
  5
507
  8
0
  6
CONTINUOUS
 10
157.73796610192289
 20
369.3001838547633
 30
0.0
 11
157.54766493320099
 21
368.34347527385057
 31
0.0
  0
LINE
  5
508
  8
0
  6
CONTINUOUS
 10
152.9282672706446
 20
368.34347527385057
 30
0.0
 11
153.47019914895651
 21
367.53241690179692
 31
0.0
  0
LINE
  5
509
  8
0
  6
CONTINUOUS
 10
157.54766493320099
 20
368.34347527385057
 30
0.0
 11
157.00573305488919
 21
367.53241690179692
 31
0.0
  0
LINE
  5
50A
  8
0
  6
CONTINUOUS
 10
156.1946746828356
 20
366.99048502348512
 30
0.0
 11
155.23796610192281
 21
366.8001838547633
 31
0.0
  0
LINE
  5
50B
  8
0
  6
CONTINUOUS
 10
155.23796610192281
 20
366.8001838547633
 30
0.0
 11
154.2812575210101
 21
366.99048502348512
 31
0.0
  0
LINE
  5
50C
  8
0
  6
CONTINUOUS
 10
153.47019914895651
 20
367.53241690179692
 30
0.0
 11
154.2812575210101
 21
366.99048502348512
 31
0.0
  0
LINE
  5
50D
  8
0
  6
CONTINUOUS
 10
157.00573305488919
 20
367.53241690179692
 30
0.0
 11
156.1946746828356
 21
366.99048502348512
 31
0.0
  0
ENDBLK
  5
50F
  8
0
  0
BLOCK
  8
0
  2
*U25
 70
     1
 10
0.0
 20
0.0
 30
0.0
  3
*U25
  1

  0
TEXT
  5
511
  8
0
 10
-69.091024691800826
 20
449.71435261507719
 30
0.0
 40
12.2941616766467
  1
Tilcor Shake Tile
  7
ARIAL
  0
ENDBLK
  5
513
  8
0
  0
BLOCK
  8
0
  2
*U26
 70
     1
 10
0.0
 20
0.0
 30
0.0
  3
*U26
  1

  0
TEXT
  5
515
  8
0
 62
     7
 10
-734.73355424821648
 20
-267.19204331605999
 30
0.0
 40
12.294161676646709
  1
* Similar design detail for metal fascia systems
  7
ARIAL
  0
ENDBLK
  5
517
  8
0
  0
BLOCK
  8
0
  2
*U27
 70
     1
 10
0.0
 20
0.0
 30
0.0
  3
*U27
  1

  0
SOLID
  5
519
  8
0
  6
CONTINUOUS
 10
36.142075474568713
 20
187.85344479111299
 30
0.0
 11
35.185366893655981
 21
187.6631436223912
 31
0.0
 12
37.098784055481431
 22
187.6631436223912
 32
0.0
 13
37.098784055481431
 23
187.6631436223912
 33
0.0
210
0.0
220
0.0
230
1.0
  0
SOLID
  5
51A
  8
0
  6
CONTINUOUS
 10
35.185366893655981
 20
187.6631436223912
 30
0.0
 11
34.374308521602337
 21
187.1212117440794
 31
0.0
 12
37.909842427535082
 22
187.1212117440794
 32
0.0
 13
37.909842427535082
 23
187.1212117440794
 33
0.0
210
0.0
220
0.0
230
1.0
  0
SOLID
  5
51B
  8
0
  6
CONTINUOUS
 10
-35.185366893655981
 20
187.6631436223912
 30
0.0
 11
-37.098784055481431
 21
187.6631436223912
 31
0.0
 12
-37.909842427535082
 22
187.1212117440794
 32
0.0
 13
-37.909842427535082
 23
187.1212117440794
 33
0.0
210
0.0
220
0.0
230
-1.0
  0
SOLID
  5
51C
  8
0
  6
CONTINUOUS
 10
34.374308521602337
 20
187.1212117440794
 30
0.0
 11
33.832376643290488
 21
186.31015337202581
 31
0.0
 12
38.451774305846932
 22
186.31015337202581
 32
0.0
 13
38.451774305846932
 23
186.31015337202581
 33
0.0
210
0.0
220
0.0
230
1.0
  0
SOLID
  5
51D
  8
0
  6
CONTINUOUS
 10
-34.374308521602337
 20
187.1212117440794
 30
0.0
 11
-37.909842427535082
 21
187.1212117440794
 31
0.0
 12
-38.451774305846932
 22
186.31015337202581
 32
0.0
 13
-38.451774305846932
 23
186.31015337202581
 33
0.0
210
0.0
220
0.0
230
-1.0
  0
SOLID
  5
51E
  8
0
  6
CONTINUOUS
 10
33.832376643290488
 20
186.31015337202581
 30
0.0
 11
33.642075474568713
 21
185.35344479111299
 31
0.0
 12
38.642075474568713
 22
185.35344479111299
 32
0.0
 13
38.642075474568713
 23
185.35344479111299
 33
0.0
210
0.0
220
0.0
230
1.0
  0
SOLID
  5
51F
  8
0
  6
CONTINUOUS
 10
-33.832376643290488
 20
186.31015337202581
 30
0.0
 11
-38.451774305846932
 21
186.31015337202581
 31
0.0
 12
-38.642075474568713
 22
185.35344479111299
 32
0.0
 13
-38.642075474568713
 23
185.35344479111299
 33
0.0
210
0.0
220
0.0
230
-1.0
  0
SOLID
  5
520
  8
0
  6
CONTINUOUS
 10
33.642075474568713
 20
185.35344479111299
 30
0.0
 11
33.832376643290488
 21
184.39673621020029
 31
0.0
 12
38.451774305846932
 22
184.39673621020029
 32
0.0
 13
38.451774305846932
 23
184.39673621020029
 33
0.0
210
0.0
220
0.0
230
1.0
  0
SOLID
  5
521
  8
0
  6
CONTINUOUS
 10
-33.642075474568713
 20
185.35344479111299
 30
0.0
 11
-38.642075474568713
 21
185.35344479111299
 31
0.0
 12
-38.451774305846932
 22
184.39673621020029
 32
0.0
 13
-38.451774305846932
 23
184.39673621020029
 33
0.0
210
0.0
220
0.0
230
-1.0
  0
SOLID
  5
522
  8
0
  6
CONTINUOUS
 10
33.832376643290488
 20
184.39673621020029
 30
0.0
 11
34.374308521602337
 21
183.58567783814669
 31
0.0
 12
37.909842427535082
 22
183.58567783814669
 32
0.0
 13
37.909842427535082
 23
183.58567783814669
 33
0.0
210
0.0
220
0.0
230
1.0
  0
SOLID
  5
523
  8
0
  6
CONTINUOUS
 10
-33.832376643290488
 20
184.39673621020029
 30
0.0
 11
-38.451774305846932
 21
184.39673621020029
 31
0.0
 12
-37.909842427535082
 22
183.58567783814669
 32
0.0
 13
-37.909842427535082
 23
183.58567783814669
 33
0.0
210
0.0
220
0.0
230
-1.0
  0
SOLID
  5
524
  8
0
  6
CONTINUOUS
 10
-35.185366893655981
 20
183.04374595983481
 30
0.0
 11
-37.098784055481431
 21
183.04374595983481
 31
0.0
 12
-36.142075474568713
 22
182.85344479111299
 32
0.0
 13
-36.142075474568713
 23
182.85344479111299
 33
0.0
210
0.0
220
0.0
230
-1.0
  0
SOLID
  5
525
  8
0
  6
CONTINUOUS
 10
34.374308521602337
 20
183.58567783814669
 30
0.0
 11
35.185366893655981
 21
183.04374595983481
 31
0.0
 12
37.098784055481431
 22
183.04374595983481
 32
0.0
 13
37.098784055481431
 23
183.04374595983481
 33
0.0
210
0.0
220
0.0
230
1.0
  0
SOLID
  5
526
  8
0
  6
CONTINUOUS
 10
-34.374308521602337
 20
183.58567783814669
 30
0.0
 11
-37.909842427535082
 21
183.58567783814669
 31
0.0
 12
-37.098784055481431
 22
183.04374595983481
 32
0.0
 13
-37.098784055481431
 23
183.04374595983481
 33
0.0
210
0.0
220
0.0
230
-1.0
  0
LINE
  5
527
  8
0
  6
CONTINUOUS
 10
36.142075474568713
 20
187.85344479111299
 30
0.0
 11
35.185366893655981
 21
187.6631436223912
 31
0.0
  0
LINE
  5
528
  8
0
  6
CONTINUOUS
 10
37.098784055481431
 20
187.6631436223912
 30
0.0
 11
36.142075474568713
 21
187.85344479111299
 31
0.0
  0
LINE
  5
529
  8
0
  6
CONTINUOUS
 10
35.185366893655981
 20
187.6631436223912
 30
0.0
 11
34.374308521602337
 21
187.1212117440794
 31
0.0
  0
LINE
  5
52A
  8
0
  6
CONTINUOUS
 10
37.098784055481431
 20
187.6631436223912
 30
0.0
 11
37.909842427535082
 21
187.1212117440794
 31
0.0
  0
LINE
  5
52B
  8
0
  6
CONTINUOUS
 10
34.374308521602337
 20
187.1212117440794
 30
0.0
 11
33.832376643290488
 21
186.31015337202581
 31
0.0
  0
LINE
  5
52C
  8
0
  6
CONTINUOUS
 10
37.909842427535082
 20
187.1212117440794
 30
0.0
 11
38.451774305846932
 21
186.31015337202581
 31
0.0
  0
LINE
  5
52D
  8
0
  6
CONTINUOUS
 10
33.832376643290488
 20
186.31015337202581
 30
0.0
 11
33.642075474568713
 21
185.35344479111299
 31
0.0
  0
LINE
  5
52E
  8
0
  6
CONTINUOUS
 10
38.451774305846932
 20
186.31015337202581
 30
0.0
 11
38.642075474568713
 21
185.35344479111299
 31
0.0
  0
LINE
  5
52F
  8
0
  6
CONTINUOUS
 10
33.642075474568713
 20
185.35344479111299
 30
0.0
 11
33.832376643290488
 21
184.39673621020029
 31
0.0
  0
LINE
  5
530
  8
0
  6
CONTINUOUS
 10
38.642075474568713
 20
185.35344479111299
 30
0.0
 11
38.451774305846932
 21
184.39673621020029
 31
0.0
  0
LINE
  5
531
  8
0
  6
CONTINUOUS
 10
33.832376643290488
 20
184.39673621020029
 30
0.0
 11
34.374308521602337
 21
183.58567783814669
 31
0.0
  0
LINE
  5
532
  8
0
  6
CONTINUOUS
 10
38.451774305846932
 20
184.39673621020029
 30
0.0
 11
37.909842427535082
 21
183.58567783814669
 31
0.0
  0
LINE
  5
533
  8
0
  6
CONTINUOUS
 10
37.098784055481431
 20
183.04374595983481
 30
0.0
 11
36.142075474568713
 21
182.85344479111299
 31
0.0
  0
LINE
  5
534
  8
0
  6
CONTINUOUS
 10
36.142075474568713
 20
182.85344479111299
 30
0.0
 11
35.185366893655981
 21
183.04374595983481
 31
0.0
  0
LINE
  5
535
  8
0
  6
CONTINUOUS
 10
34.374308521602337
 20
183.58567783814669
 30
0.0
 11
35.185366893655981
 21
183.04374595983481
 31
0.0
  0
LINE
  5
536
  8
0
  6
CONTINUOUS
 10
37.909842427535082
 20
183.58567783814669
 30
0.0
 11
37.098784055481431
 21
183.04374595983481
 31
0.0
  0
ENDBLK
  5
538
  8
0
  0
BLOCK
  8
0
  2
*U28
 70
     1
 10
0.0
 20
0.0
 30
0.0
  3
*U28
  1

  0
TEXT
  5
53A
  8
0
 10
-71.168706258013785
 20
352.5634366642401
 30
0.0
 40
12.2941616766467
  1
Rafter
  7
ARIAL
  0
ENDBLK
  5
53C
  8
0
  0
BLOCK
  8
0
  2
*U29
 70
     1
 10
0.0
 20
0.0
 30
0.0
  3
*U29
  1

  0
SOLID
  5
53E
  8
0
  6
CONTINUOUS
 10
-498.74805997483082
 20
-10.22359062137274
 30
0.0
 11
-499.7047685557435
 21
-10.413891790094519
 31
0.0
 12
-497.79135139391809
 22
-10.413891790094519
 32
0.0
 13
-497.79135139391809
 23
-10.413891790094519
 33
0.0
210
0.0
220
0.0
230
1.0
  0
SOLID
  5
53F
  8
0
  6
CONTINUOUS
 10
-499.7047685557435
 20
-10.413891790094519
 30
0.0
 11
-500.51582692779709
 21
-10.95582366840636
 31
0.0
 12
-496.98029302186438
 22
-10.95582366840636
 32
0.0
 13
-496.98029302186438
 23
-10.95582366840636
 33
0.0
210
0.0
220
0.0
230
1.0
  0
SOLID
  5
540
  8
0
  6
CONTINUOUS
 10
499.7047685557435
 20
-10.413891790094519
 30
0.0
 11
497.79135139391809
 21
-10.413891790094519
 31
0.0
 12
496.98029302186438
 22
-10.95582366840636
 32
0.0
 13
496.98029302186438
 23
-10.95582366840636
 33
0.0
210
0.0
220
0.0
230
-1.0
  0
SOLID
  5
541
  8
0
  6
CONTINUOUS
 10
-500.51582692779709
 20
-10.95582366840636
 30
0.0
 11
-501.05775880610901
 21
-11.766882040459979
 31
0.0
 12
-496.43836114355258
 22
-11.766882040459979
 32
0.0
 13
-496.43836114355258
 23
-11.766882040459979
 33
0.0
210
0.0
220
0.0
230
1.0
  0
SOLID
  5
542
  8
0
  6
CONTINUOUS
 10
500.51582692779709
 20
-10.95582366840636
 30
0.0
 11
496.98029302186438
 21
-10.95582366840636
 31
0.0
 12
496.43836114355258
 22
-11.766882040459979
 32
0.0
 13
496.43836114355258
 23
-11.766882040459979
 33
0.0
210
0.0
220
0.0
230
-1.0
  0
SOLID
  5
543
  8
0
  6
CONTINUOUS
 10
-501.05775880610901
 20
-11.766882040459979
 30
0.0
 11
-501.24805997483071
 21
-12.723590621372679
 31
0.0
 12
-496.24805997483088
 22
-12.723590621372679
 32
0.0
 13
-496.24805997483088
 23
-12.723590621372679
 33
0.0
210
0.0
220
0.0
230
1.0
  0
SOLID
  5
544
  8
0
  6
CONTINUOUS
 10
501.05775880610901
 20
-11.766882040459979
 30
0.0
 11
496.43836114355258
 21
-11.766882040459979
 31
0.0
 12
496.24805997483088
 22
-12.723590621372679
 32
0.0
 13
496.24805997483088
 23
-12.723590621372679
 33
0.0
210
0.0
220
0.0
230
-1.0
  0
SOLID
  5
545
  8
0
  6
CONTINUOUS
 10
-501.24805997483071
 20
-12.723590621372679
 30
0.0
 11
-501.05775880610901
 21
-13.68029920228539
 31
0.0
 12
-496.43836114355258
 22
-13.68029920228539
 32
0.0
 13
-496.43836114355258
 23
-13.68029920228539
 33
0.0
210
0.0
220
0.0
230
1.0
  0
SOLID
  5
546
  8
0
  6
CONTINUOUS
 10
501.24805997483071
 20
-12.723590621372679
 30
0.0
 11
496.24805997483088
 21
-12.723590621372679
 31
0.0
 12
496.43836114355258
 22
-13.68029920228539
 32
0.0
 13
496.43836114355258
 23
-13.68029920228539
 33
0.0
210
0.0
220
0.0
230
-1.0
  0
SOLID
  5
547
  8
0
  6
CONTINUOUS
 10
-501.05775880610901
 20
-13.68029920228539
 30
0.0
 11
-500.51582692779709
 21
-14.491357574339011
 31
0.0
 12
-496.98029302186438
 22
-14.491357574339011
 32
0.0
 13
-496.98029302186438
 23
-14.491357574339011
 33
0.0
210
0.0
220
0.0
230
1.0
  0
SOLID
  5
548
  8
0
  6
CONTINUOUS
 10
501.05775880610901
 20
-13.68029920228539
 30
0.0
 11
496.43836114355258
 21
-13.68029920228539
 31
0.0
 12
496.98029302186438
 22
-14.491357574339011
 32
0.0
 13
496.98029302186438
 23
-14.491357574339011
 33
0.0
210
0.0
220
0.0
230
-1.0
  0
SOLID
  5
549
  8
0
  6
CONTINUOUS
 10
499.7047685557435
 20
-15.03328945265085
 30
0.0
 11
497.79135139391809
 21
-15.03328945265085
 31
0.0
 12
498.74805997483082
 22
-15.22359062137263
 32
0.0
 13
498.74805997483082
 23
-15.22359062137263
 33
0.0
210
0.0
220
0.0
230
-1.0
  0
SOLID
  5
54A
  8
0
  6
CONTINUOUS
 10
-500.51582692779709
 20
-14.491357574339011
 30
0.0
 11
-499.7047685557435
 21
-15.03328945265085
 31
0.0
 12
-497.79135139391809
 22
-15.03328945265085
 32
0.0
 13
-497.79135139391809
 23
-15.03328945265085
 33
0.0
  0
SOLID
  5
54B
  8
0
  6
CONTINUOUS
 10
500.51582692779709
 20
-14.491357574339011
 30
0.0
 11
496.98029302186438
 21
-14.491357574339011
 31
0.0
 12
497.79135139391809
 22
-15.03328945265085
 32
0.0
 13
497.79135139391809
 23
-15.03328945265085
 33
0.0
210
0.0
220
0.0
230
-1.0
  0
LINE
  5
54C
  8
0
  6
CONTINUOUS
 10
-498.74805997483082
 20
-10.22359062137274
 30
0.0
 11
-499.7047685557435
 21
-10.413891790094519
 31
0.0
  0
LINE
  5
54D
  8
0
  6
CONTINUOUS
 10
-497.79135139391809
 20
-10.413891790094519
 30
0.0
 11
-498.74805997483082
 21
-10.22359062137274
 31
0.0
  0
LINE
  5
54E
  8
0
  6
CONTINUOUS
 10
-499.7047685557435
 20
-10.413891790094519
 30
0.0
 11
-500.51582692779709
 21
-10.95582366840636
 31
0.0
  0
LINE
  5
54F
  8
0
  6
CONTINUOUS
 10
-497.79135139391809
 20
-10.413891790094519
 30
0.0
 11
-496.98029302186438
 21
-10.95582366840636
 31
0.0
  0
LINE
  5
550
  8
0
  6
CONTINUOUS
 10
-500.51582692779709
 20
-10.95582366840636
 30
0.0
 11
-501.05775880610901
 21
-11.766882040459979
 31
0.0
  0
LINE
  5
551
  8
0
  6
CONTINUOUS
 10
-496.98029302186438
 20
-10.95582366840636
 30
0.0
 11
-496.43836114355258
 21
-11.766882040459979
 31
0.0
  0
LINE
  5
552
  8
0
  6
CONTINUOUS
 10
-501.05775880610901
 20
-11.766882040459979
 30
0.0
 11
-501.24805997483071
 21
-12.723590621372679
 31
0.0
  0
LINE
  5
553
  8
0
  6
CONTINUOUS
 10
-496.43836114355258
 20
-11.766882040459979
 30
0.0
 11
-496.24805997483088
 21
-12.723590621372679
 31
0.0
  0
LINE
  5
554
  8
0
  6
CONTINUOUS
 10
-501.24805997483071
 20
-12.723590621372679
 30
0.0
 11
-501.05775880610901
 21
-13.68029920228539
 31
0.0
  0
LINE
  5
555
  8
0
  6
CONTINUOUS
 10
-496.24805997483088
 20
-12.723590621372679
 30
0.0
 11
-496.43836114355258
 21
-13.68029920228539
 31
0.0
  0
LINE
  5
556
  8
0
  6
CONTINUOUS
 10
-501.05775880610901
 20
-13.68029920228539
 30
0.0
 11
-500.51582692779709
 21
-14.491357574339011
 31
0.0
  0
LINE
  5
557
  8
0
  6
CONTINUOUS
 10
-496.43836114355258
 20
-13.68029920228539
 30
0.0
 11
-496.98029302186438
 21
-14.491357574339011
 31
0.0
  0
LINE
  5
558
  8
0
  6
CONTINUOUS
 10
-497.79135139391809
 20
-15.03328945265085
 30
0.0
 11
-498.74805997483082
 21
-15.22359062137263
 31
0.0
  0
LINE
  5
559
  8
0
  6
CONTINUOUS
 10
-498.74805997483082
 20
-15.22359062137263
 30
0.0
 11
-499.7047685557435
 21
-15.03328945265085
 31
0.0
  0
LINE
  5
55A
  8
0
  6
CONTINUOUS
 10
-500.51582692779709
 20
-14.491357574339011
 30
0.0
 11
-499.7047685557435
 21
-15.03328945265085
 31
0.0
  0
LINE
  5
55B
  8
0
  6
CONTINUOUS
 10
-496.98029302186438
 20
-14.491357574339011
 30
0.0
 11
-497.79135139391809
 21
-15.03328945265085
 31
0.0
  0
ENDBLK
  5
55D
  8
0
  0
BLOCK
  8
0
  2
*U30
 70
     1
 10
0.0
 20
0.0
 30
0.0
  3
*U30
  1

  0
TEXT
  5
55F
  8
0
 10
-737.46581451528345
 20
-65.876771766981548
 30
0.0
 40
12.2941616766467
  1
Selected fascia* & gutter
  7
ARIAL
  0
TEXT
  5
560
  8
0
 10
-737.73417275106306
 20
-85.107540997750775
 30
0.0
 40
12.2941616766467
  1
(Fascia board height not to
  7
ARIAL
  0
TEXT
  5
561
  8
0
 10
-737.32324920252574
 20
-104.33831022852
 30
0.0
 40
12.2941616766467
  1
exceed batten height)
  7
ARIAL
  0
ENDBLK
  5
563
  8
0
  0
BLOCK
  8
0
  2
*U31
 70
     1
 10
0.0
 20
0.0
 30
0.0
  3
*U31
  1

  0
SOLID
  5
565
  8
0
  6
CONTINUOUS
 10
-97.992596134563996
 20
275.4601171767124
 30
0.0
 11
-98.949304715476714
 21
275.26981600799058
 31
0.0
 12
-97.035887553651236
 22
275.26981600799058
 32
0.0
 13
-97.035887553651236
 23
275.26981600799058
 33
0.0
210
0.0
220
0.0
230
1.0
  0
SOLID
  5
566
  8
0
  6
CONTINUOUS
 10
-98.949304715476714
 20
275.26981600799058
 30
0.0
 11
-99.760363087530365
 21
274.72788412967873
 31
0.0
 12
-96.224829181597613
 22
274.72788412967873
 32
0.0
 13
-96.224829181597613
 23
274.72788412967873
 33
0.0
210
0.0
220
0.0
230
1.0
  0
SOLID
  5
567
  8
0
  6
CONTINUOUS
 10
98.949304715476714
 20
275.26981600799058
 30
0.0
 11
97.035887553651236
 21
275.26981600799058
 31
0.0
 12
96.224829181597613
 22
274.72788412967873
 32
0.0
 13
96.224829181597613
 23
274.72788412967873
 33
0.0
210
0.0
220
0.0
230
-1.0
  0
SOLID
  5
568
  8
0
  6
CONTINUOUS
 10
-99.760363087530365
 20
274.72788412967873
 30
0.0
 11
-100.30229496584219
 21
273.91682575762508
 31
0.0
 12
-95.682897303285756
 22
273.91682575762508
 32
0.0
 13
-95.682897303285756
 23
273.91682575762508
 33
0.0
210
0.0
220
0.0
230
1.0
  0
SOLID
  5
569
  8
0
  6
CONTINUOUS
 10
99.760363087530365
 20
274.72788412967873
 30
0.0
 11
96.224829181597613
 21
274.72788412967873
 31
0.0
 12
95.682897303285756
 22
273.91682575762508
 32
0.0
 13
95.682897303285756
 23
273.91682575762508
 33
0.0
210
0.0
220
0.0
230
-1.0
  0
SOLID
  5
56A
  8
0
  6
CONTINUOUS
 10
-100.30229496584219
 20
273.91682575762508
 30
0.0
 11
-100.492596134564
 21
272.96011717671229
 31
0.0
 12
-95.492596134563968
 22
272.96011717671229
 32
0.0
 13
-95.492596134563968
 23
272.96011717671229
 33
0.0
210
0.0
220
0.0
230
1.0
  0
SOLID
  5
56B
  8
0
  6
CONTINUOUS
 10
100.30229496584219
 20
273.91682575762508
 30
0.0
 11
95.682897303285756
 21
273.91682575762508
 31
0.0
 12
95.492596134563968
 22
272.96011717671229
 32
0.0
 13
95.492596134563968
 23
272.96011717671229
 33
0.0
210
0.0
220
0.0
230
-1.0
  0
SOLID
  5
56C
  8
0
  6
CONTINUOUS
 10
-100.492596134564
 20
272.96011717671229
 30
0.0
 11
-100.30229496584219
 21
272.00340859579961
 31
0.0
 12
-95.682897303285756
 22
272.00340859579961
 32
0.0
 13
-95.682897303285756
 23
272.00340859579961
 33
0.0
  0
SOLID
  5
56D
  8
0
  6
CONTINUOUS
 10
100.492596134564
 20
272.96011717671229
 30
0.0
 11
95.492596134563968
 21
272.96011717671229
 31
0.0
 12
95.682897303285756
 22
272.00340859579961
 32
0.0
 13
95.682897303285756
 23
272.00340859579961
 33
0.0
210
0.0
220
0.0
230
-1.0
  0
SOLID
  5
56E
  8
0
  6
CONTINUOUS
 10
-100.30229496584219
 20
272.00340859579961
 30
0.0
 11
-99.760363087530365
 21
271.19235022374602
 31
0.0
 12
-96.224829181597613
 22
271.19235022374602
 32
0.0
 13
-96.224829181597613
 23
271.19235022374602
 33
0.0
210
0.0
220
0.0
230
1.0
  0
SOLID
  5
56F
  8
0
  6
CONTINUOUS
 10
100.30229496584219
 20
272.00340859579961
 30
0.0
 11
95.682897303285756
 21
272.00340859579961
 31
0.0
 12
96.224829181597613
 22
271.19235022374602
 32
0.0
 13
96.224829181597613
 23
271.19235022374602
 33
0.0
210
0.0
220
0.0
230
-1.0
  0
SOLID
  5
570
  8
0
  6
CONTINUOUS
 10
98.949304715476714
 20
270.6504183454341
 30
0.0
 11
97.035887553651236
 21
270.6504183454341
 31
0.0
 12
97.992596134563996
 22
270.46011717671229
 32
0.0
 13
97.992596134563996
 23
270.46011717671229
 33
0.0
210
0.0
220
0.0
230
-1.0
  0
SOLID
  5
571
  8
0
  6
CONTINUOUS
 10
-99.760363087530365
 20
271.19235022374602
 30
0.0
 11
-98.949304715476714
 21
270.6504183454341
 31
0.0
 12
-97.035887553651236
 22
270.6504183454341
 32
0.0
 13
-97.035887553651236
 23
270.6504183454341
 33
0.0
210
0.0
220
0.0
230
1.0
  0
SOLID
  5
572
  8
0
  6
CONTINUOUS
 10
99.760363087530365
 20
271.19235022374602
 30
0.0
 11
96.224829181597613
 21
271.19235022374602
 31
0.0
 12
97.035887553651236
 22
270.6504183454341
 32
0.0
 13
97.035887553651236
 23
270.6504183454341
 33
0.0
210
0.0
220
0.0
230
-1.0
  0
LINE
  5
573
  8
0
  6
CONTINUOUS
 10
-97.992596134563996
 20
275.4601171767124
 30
0.0
 11
-98.949304715476714
 21
275.26981600799058
 31
0.0
  0
LINE
  5
574
  8
0
  6
CONTINUOUS
 10
-97.035887553651236
 20
275.26981600799058
 30
0.0
 11
-97.992596134563996
 21
275.4601171767124
 31
0.0
  0
LINE
  5
575
  8
0
  6
CONTINUOUS
 10
-98.949304715476714
 20
275.26981600799058
 30
0.0
 11
-99.760363087530365
 21
274.72788412967873
 31
0.0
  0
LINE
  5
576
  8
0
  6
CONTINUOUS
 10
-97.035887553651236
 20
275.26981600799058
 30
0.0
 11
-96.224829181597613
 21
274.72788412967873
 31
0.0
  0
LINE
  5
577
  8
0
  6
CONTINUOUS
 10
-99.760363087530365
 20
274.72788412967873
 30
0.0
 11
-100.30229496584219
 21
273.91682575762508
 31
0.0
  0
LINE
  5
578
  8
0
  6
CONTINUOUS
 10
-96.224829181597613
 20
274.72788412967873
 30
0.0
 11
-95.682897303285756
 21
273.91682575762508
 31
0.0
  0
LINE
  5
579
  8
0
  6
CONTINUOUS
 10
-100.30229496584219
 20
273.91682575762508
 30
0.0
 11
-100.492596134564
 21
272.96011717671229
 31
0.0
  0
LINE
  5
57A
  8
0
  6
CONTINUOUS
 10
-95.682897303285756
 20
273.91682575762508
 30
0.0
 11
-95.492596134563968
 21
272.96011717671229
 31
0.0
  0
LINE
  5
57B
  8
0
  6
CONTINUOUS
 10
-100.492596134564
 20
272.96011717671229
 30
0.0
 11
-100.30229496584219
 21
272.00340859579961
 31
0.0
  0
LINE
  5
57C
  8
0
  6
CONTINUOUS
 10
-95.492596134563968
 20
272.96011717671229
 30
0.0
 11
-95.682897303285756
 21
272.00340859579961
 31
0.0
  0
LINE
  5
57D
  8
0
  6
CONTINUOUS
 10
-100.30229496584219
 20
272.00340859579961
 30
0.0
 11
-99.760363087530365
 21
271.19235022374602
 31
0.0
  0
LINE
  5
57E
  8
0
  6
CONTINUOUS
 10
-95.682897303285756
 20
272.00340859579961
 30
0.0
 11
-96.224829181597613
 21
271.19235022374602
 31
0.0
  0
LINE
  5
57F
  8
0
  6
CONTINUOUS
 10
-97.035887553651236
 20
270.6504183454341
 30
0.0
 11
-97.992596134563996
 21
270.46011717671229
 31
0.0
  0
LINE
  5
580
  8
0
  6
CONTINUOUS
 10
-97.992596134563996
 20
270.46011717671229
 30
0.0
 11
-98.949304715476714
 21
270.6504183454341
 31
0.0
  0
LINE
  5
581
  8
0
  6
CONTINUOUS
 10
-99.760363087530365
 20
271.19235022374602
 30
0.0
 11
-98.949304715476714
 21
270.6504183454341
 31
0.0
  0
LINE
  5
582
  8
0
  6
CONTINUOUS
 10
-96.224829181597613
 20
271.19235022374602
 30
0.0
 11
-97.035887553651236
 21
270.6504183454341
 31
0.0
  0
ENDBLK
  5
584
  8
0
  0
BLOCK
  8
0
  2
*U32
 70
     1
 10
0.0
 20
0.0
 30
0.0
  3
*U32
  1

  0
TEXT
  5
586
  8
0
 10
-359.65238005004329
 20
451.2319822978917
 30
0.0
 40
12.2941616766467
  1
2" x 2"  Tile batten on 14 1/2"
  7
ARIAL
  0
TEXT
  5
587
  8
0
 10
-359.45111137320868
 20
432.00121306712248
 30
0.0
 40
12.2941616766467
  1
truss spacing's
  7
ARIAL
  0
ENDBLK
  5
589
  8
0
  0
BLOCK
  8
0
  2
*U33
 70
     1
 10
0.0
 20
0.0
 30
0.0
  3
*U33
  1

  0
SOLID
  5
58B
  8
0
  6
CONTINUOUS
 10
-371.36066987241207
 20
-46.012598390300617
 30
0.0
 11
-372.31737845332481
 21
-46.202899559022391
 31
0.0
 12
-370.4039612914994
 22
-46.202899559022391
 32
0.0
 13
-370.4039612914994
 23
-46.202899559022391
 33
0.0
  0
SOLID
  5
58C
  8
0
  6
CONTINUOUS
 10
-372.31737845332481
 20
-46.202899559022391
 30
0.0
 11
-373.1284368253784
 21
-46.744831437334227
 31
0.0
 12
-369.59290291944569
 22
-46.744831437334227
 32
0.0
 13
-369.59290291944569
 23
-46.744831437334227
 33
0.0
210
0.0
220
0.0
230
1.0
  0
SOLID
  5
58D
  8
0
  6
CONTINUOUS
 10
372.31737845332481
 20
-46.202899559022391
 30
0.0
 11
370.4039612914994
 21
-46.202899559022391
 31
0.0
 12
369.59290291944569
 22
-46.744831437334227
 32
0.0
 13
369.59290291944569
 23
-46.744831437334227
 33
0.0
210
0.0
220
0.0
230
-1.0
  0
SOLID
  5
58E
  8
0
  6
CONTINUOUS
 10
-373.1284368253784
 20
-46.744831437334227
 30
0.0
 11
-373.67036870369031
 21
-47.55588980938785
 31
0.0
 12
-369.05097104113389
 22
-47.55588980938785
 32
0.0
 13
-369.05097104113389
 23
-47.55588980938785
 33
0.0
210
0.0
220
0.0
230
1.0
  0
SOLID
  5
58F
  8
0
  6
CONTINUOUS
 10
373.1284368253784
 20
-46.744831437334227
 30
0.0
 11
369.59290291944569
 21
-46.744831437334227
 31
0.0
 12
369.05097104113389
 22
-47.55588980938785
 32
0.0
 13
369.05097104113389
 23
-47.55588980938785
 33
0.0
210
0.0
220
0.0
230
-1.0
  0
SOLID
  5
590
  8
0
  6
CONTINUOUS
 10
-373.67036870369031
 20
-47.55588980938785
 30
0.0
 11
-373.86066987241202
 21
-48.51259839030056
 31
0.0
 12
-368.86066987241207
 22
-48.51259839030056
 32
0.0
 13
-368.86066987241207
 23
-48.51259839030056
 33
0.0
210
0.0
220
0.0
230
1.0
  0
SOLID
  5
591
  8
0
  6
CONTINUOUS
 10
373.67036870369031
 20
-47.55588980938785
 30
0.0
 11
369.05097104113389
 21
-47.55588980938785
 31
0.0
 12
368.86066987241207
 22
-48.51259839030056
 32
0.0
 13
368.86066987241207
 23
-48.51259839030056
 33
0.0
210
0.0
220
0.0
230
-1.0
  0
SOLID
  5
592
  8
0
  6
CONTINUOUS
 10
-373.86066987241202
 20
-48.51259839030056
 30
0.0
 11
-373.67036870369031
 21
-49.469306971213257
 31
0.0
 12
-369.05097104113389
 22
-49.469306971213257
 32
0.0
 13
-369.05097104113389
 23
-49.469306971213257
 33
0.0
210
0.0
220
0.0
230
1.0
  0
SOLID
  5
593
  8
0
  6
CONTINUOUS
 10
373.86066987241202
 20
-48.51259839030056
 30
0.0
 11
368.86066987241207
 21
-48.51259839030056
 31
0.0
 12
369.05097104113389
 22
-49.469306971213257
 32
0.0
 13
369.05097104113389
 23
-49.469306971213257
 33
0.0
210
0.0
220
0.0
230
-1.0
  0
SOLID
  5
594
  8
0
  6
CONTINUOUS
 10
-373.67036870369031
 20
-49.469306971213257
 30
0.0
 11
-373.1284368253784
 21
-50.28036534326688
 31
0.0
 12
-369.59290291944569
 22
-50.28036534326688
 32
0.0
 13
-369.59290291944569
 23
-50.28036534326688
 33
0.0
210
0.0
220
0.0
230
1.0
  0
SOLID
  5
595
  8
0
  6
CONTINUOUS
 10
373.67036870369031
 20
-49.469306971213257
 30
0.0
 11
369.05097104113389
 21
-49.469306971213257
 31
0.0
 12
369.59290291944569
 22
-50.28036534326688
 32
0.0
 13
369.59290291944569
 23
-50.28036534326688
 33
0.0
210
0.0
220
0.0
230
-1.0
  0
SOLID
  5
596
  8
0
  6
CONTINUOUS
 10
372.31737845332481
 20
-50.822297221578722
 30
0.0
 11
370.4039612914994
 21
-50.822297221578722
 31
0.0
 12
371.36066987241207
 22
-51.012598390300496
 32
0.0
 13
371.36066987241207
 23
-51.012598390300496
 33
0.0
210
0.0
220
0.0
230
-1.0
  0
SOLID
  5
597
  8
0
  6
CONTINUOUS
 10
-373.1284368253784
 20
-50.28036534326688
 30
0.0
 11
-372.31737845332481
 21
-50.822297221578722
 31
0.0
 12
-370.4039612914994
 22
-50.822297221578722
 32
0.0
 13
-370.4039612914994
 23
-50.822297221578722
 33
0.0
  0
SOLID
  5
598
  8
0
  6
CONTINUOUS
 10
373.1284368253784
 20
-50.28036534326688
 30
0.0
 11
369.59290291944569
 21
-50.28036534326688
 31
0.0
 12
370.4039612914994
 22
-50.822297221578722
 32
0.0
 13
370.4039612914994
 23
-50.822297221578722
 33
0.0
210
0.0
220
0.0
230
-1.0
  0
LINE
  5
599
  8
0
  6
CONTINUOUS
 10
-371.36066987241207
 20
-46.012598390300617
 30
0.0
 11
-372.31737845332481
 21
-46.202899559022391
 31
0.0
  0
LINE
  5
59A
  8
0
  6
CONTINUOUS
 10
-370.4039612914994
 20
-46.202899559022391
 30
0.0
 11
-371.36066987241207
 21
-46.012598390300617
 31
0.0
  0
LINE
  5
59B
  8
0
  6
CONTINUOUS
 10
-372.31737845332481
 20
-46.202899559022391
 30
0.0
 11
-373.1284368253784
 21
-46.744831437334227
 31
0.0
  0
LINE
  5
59C
  8
0
  6
CONTINUOUS
 10
-370.4039612914994
 20
-46.202899559022391
 30
0.0
 11
-369.59290291944569
 21
-46.744831437334227
 31
0.0
  0
LINE
  5
59D
  8
0
  6
CONTINUOUS
 10
-373.1284368253784
 20
-46.744831437334227
 30
0.0
 11
-373.67036870369031
 21
-47.55588980938785
 31
0.0
  0
LINE
  5
59E
  8
0
  6
CONTINUOUS
 10
-369.59290291944569
 20
-46.744831437334227
 30
0.0
 11
-369.05097104113389
 21
-47.55588980938785
 31
0.0
  0
LINE
  5
59F
  8
0
  6
CONTINUOUS
 10
-373.67036870369031
 20
-47.55588980938785
 30
0.0
 11
-373.86066987241202
 21
-48.51259839030056
 31
0.0
  0
LINE
  5
5A0
  8
0
  6
CONTINUOUS
 10
-369.05097104113389
 20
-47.55588980938785
 30
0.0
 11
-368.86066987241207
 21
-48.51259839030056
 31
0.0
  0
LINE
  5
5A1
  8
0
  6
CONTINUOUS
 10
-373.86066987241202
 20
-48.51259839030056
 30
0.0
 11
-373.67036870369031
 21
-49.469306971213257
 31
0.0
  0
LINE
  5
5A2
  8
0
  6
CONTINUOUS
 10
-368.86066987241207
 20
-48.51259839030056
 30
0.0
 11
-369.05097104113389
 21
-49.469306971213257
 31
0.0
  0
LINE
  5
5A3
  8
0
  6
CONTINUOUS
 10
-373.67036870369031
 20
-49.469306971213257
 30
0.0
 11
-373.1284368253784
 21
-50.28036534326688
 31
0.0
  0
LINE
  5
5A4
  8
0
  6
CONTINUOUS
 10
-369.05097104113389
 20
-49.469306971213257
 30
0.0
 11
-369.59290291944569
 21
-50.28036534326688
 31
0.0
  0
LINE
  5
5A5
  8
0
  6
CONTINUOUS
 10
-370.4039612914994
 20
-50.822297221578722
 30
0.0
 11
-371.36066987241207
 21
-51.012598390300496
 31
0.0
  0
LINE
  5
5A6
  8
0
  6
CONTINUOUS
 10
-371.36066987241207
 20
-51.012598390300496
 30
0.0
 11
-372.31737845332481
 21
-50.822297221578722
 31
0.0
  0
LINE
  5
5A7
  8
0
  6
CONTINUOUS
 10
-373.1284368253784
 20
-50.28036534326688
 30
0.0
 11
-372.31737845332481
 21
-50.822297221578722
 31
0.0
  0
LINE
  5
5A8
  8
0
  6
CONTINUOUS
 10
-369.59290291944569
 20
-50.28036534326688
 30
0.0
 11
-370.4039612914994
 21
-50.822297221578722
 31
0.0
  0
ENDBLK
  5
5AA
  8
0
  0
BLOCK
  8
0
  2
*U34
 70
     1
 10
0.0
 20
0.0
 30
0.0
  3
*U34
  1

  0
TEXT
  5
5AC
  8
0
 10
-738.05284815605114
 20
-194.20189927478381
 30
0.0
 40
12.2941616766467
  1
Eaves soffit
  7
ARIAL
  0
ENDBLK
  5
5AE
  8
0
  0
BLOCK
  8
0
  2
*U35
 70
     1
 10
0.0
 20
0.0
 30
0.0
  3
*U35
  1

  0
SOLID
  5
5B0
  8
0
  6
CONTINUOUS
 10
-431.28179687252208
 20
-72.126038278913654
 30
0.0
 11
-432.23850545343493
 21
-72.316339447635443
 31
0.0
 12
-430.3250882916094
 22
-72.316339447635443
 32
0.0
 13
-430.3250882916094
 23
-72.316339447635443
 33
0.0
210
0.0
220
0.0
230
1.0
  0
SOLID
  5
5B1
  8
0
  6
CONTINUOUS
 10
-432.23850545343493
 20
-72.316339447635443
 30
0.0
 11
-433.04956382548852
 21
-72.858271325947285
 31
0.0
 12
-429.51402991955581
 22
-72.858271325947285
 32
0.0
 13
-429.51402991955581
 23
-72.858271325947285
 33
0.0
210
0.0
220
0.0
230
1.0
  0
SOLID
  5
5B2
  8
0
  6
CONTINUOUS
 10
432.23850545343493
 20
-72.316339447635443
 30
0.0
 11
430.3250882916094
 21
-72.316339447635443
 31
0.0
 12
429.51402991955581
 22
-72.858271325947285
 32
0.0
 13
429.51402991955581
 23
-72.858271325947285
 33
0.0
210
0.0
220
0.0
230
-1.0
  0
SOLID
  5
5B3
  8
0
  6
CONTINUOUS
 10
-433.04956382548852
 20
-72.858271325947285
 30
0.0
 11
-433.59149570380038
 21
-73.669329698000936
 31
0.0
 12
-428.9720980412439
 22
-73.669329698000936
 32
0.0
 13
-428.9720980412439
 23
-73.669329698000936
 33
0.0
210
0.0
220
0.0
230
1.0
  0
SOLID
  5
5B4
  8
0
  6
CONTINUOUS
 10
433.04956382548852
 20
-72.858271325947285
 30
0.0
 11
429.51402991955581
 21
-72.858271325947285
 31
0.0
 12
428.9720980412439
 22
-73.669329698000936
 32
0.0
 13
428.9720980412439
 23
-73.669329698000936
 33
0.0
210
0.0
220
0.0
230
-1.0
  0
SOLID
  5
5B5
  8
0
  6
CONTINUOUS
 10
-433.59149570380038
 20
-73.669329698000936
 30
0.0
 11
-433.78179687252208
 21
-74.626038278913654
 31
0.0
 12
-428.78179687252208
 22
-74.626038278913654
 32
0.0
 13
-428.78179687252208
 23
-74.626038278913654
 33
0.0
210
0.0
220
0.0
230
1.0
  0
SOLID
  5
5B6
  8
0
  6
CONTINUOUS
 10
433.59149570380038
 20
-73.669329698000936
 30
0.0
 11
428.9720980412439
 21
-73.669329698000936
 31
0.0
 12
428.78179687252208
 22
-74.626038278913654
 32
0.0
 13
428.78179687252208
 23
-74.626038278913654
 33
0.0
210
0.0
220
0.0
230
-1.0
  0
SOLID
  5
5B7
  8
0
  6
CONTINUOUS
 10
-433.78179687252208
 20
-74.626038278913654
 30
0.0
 11
-433.59149570380038
 21
-75.582746859826372
 31
0.0
 12
-428.9720980412439
 22
-75.582746859826372
 32
0.0
 13
-428.9720980412439
 23
-75.582746859826372
 33
0.0
210
0.0
220
0.0
230
1.0
  0
SOLID
  5
5B8
  8
0
  6
CONTINUOUS
 10
433.78179687252208
 20
-74.626038278913654
 30
0.0
 11
428.78179687252208
 21
-74.626038278913654
 31
0.0
 12
428.9720980412439
 22
-75.582746859826372
 32
0.0
 13
428.9720980412439
 23
-75.582746859826372
 33
0.0
210
0.0
220
0.0
230
-1.0
  0
SOLID
  5
5B9
  8
0
  6
CONTINUOUS
 10
-433.59149570380038
 20
-75.582746859826372
 30
0.0
 11
-433.04956382548852
 21
-76.393805231880023
 31
0.0
 12
-429.51402991955581
 22
-76.393805231880023
 32
0.0
 13
-429.51402991955581
 23
-76.393805231880023
 33
0.0
210
0.0
220
0.0
230
1.0
  0
SOLID
  5
5BA
  8
0
  6
CONTINUOUS
 10
433.59149570380038
 20
-75.582746859826372
 30
0.0
 11
428.9720980412439
 21
-75.582746859826372
 31
0.0
 12
429.51402991955581
 22
-76.393805231880023
 32
0.0
 13
429.51402991955581
 23
-76.393805231880023
 33
0.0
210
0.0
220
0.0
230
-1.0
  0
SOLID
  5
5BB
  8
0
  6
CONTINUOUS
 10
432.23850545343493
 20
-76.935737110191866
 30
0.0
 11
430.3250882916094
 21
-76.935737110191866
 31
0.0
 12
431.28179687252208
 22
-77.126038278913654
 32
0.0
 13
431.28179687252208
 23
-77.126038278913654
 33
0.0
210
0.0
220
0.0
230
-1.0
  0
SOLID
  5
5BC
  8
0
  6
CONTINUOUS
 10
-433.04956382548852
 20
-76.393805231880023
 30
0.0
 11
-432.23850545343493
 21
-76.935737110191866
 31
0.0
 12
-430.3250882916094
 22
-76.935737110191866
 32
0.0
 13
-430.3250882916094
 23
-76.935737110191866
 33
0.0
  0
SOLID
  5
5BD
  8
0
  6
CONTINUOUS
 10
433.04956382548852
 20
-76.393805231880023
 30
0.0
 11
429.51402991955581
 21
-76.393805231880023
 31
0.0
 12
430.3250882916094
 22
-76.935737110191866
 32
0.0
 13
430.3250882916094
 23
-76.935737110191866
 33
0.0
210
0.0
220
0.0
230
-1.0
  0
LINE
  5
5BE
  8
0
  6
CONTINUOUS
 10
-431.28179687252208
 20
-72.126038278913654
 30
0.0
 11
-432.23850545343493
 21
-72.316339447635443
 31
0.0
  0
LINE
  5
5BF
  8
0
  6
CONTINUOUS
 10
-430.3250882916094
 20
-72.316339447635443
 30
0.0
 11
-431.28179687252208
 21
-72.126038278913654
 31
0.0
  0
LINE
  5
5C0
  8
0
  6
CONTINUOUS
 10
-432.23850545343493
 20
-72.316339447635443
 30
0.0
 11
-433.04956382548852
 21
-72.858271325947285
 31
0.0
  0
LINE
  5
5C1
  8
0
  6
CONTINUOUS
 10
-430.3250882916094
 20
-72.316339447635443
 30
0.0
 11
-429.51402991955581
 21
-72.858271325947285
 31
0.0
  0
LINE
  5
5C2
  8
0
  6
CONTINUOUS
 10
-433.04956382548852
 20
-72.858271325947285
 30
0.0
 11
-433.59149570380038
 21
-73.669329698000936
 31
0.0
  0
LINE
  5
5C3
  8
0
  6
CONTINUOUS
 10
-429.51402991955581
 20
-72.858271325947285
 30
0.0
 11
-428.9720980412439
 21
-73.669329698000936
 31
0.0
  0
LINE
  5
5C4
  8
0
  6
CONTINUOUS
 10
-433.59149570380038
 20
-73.669329698000936
 30
0.0
 11
-433.78179687252208
 21
-74.626038278913654
 31
0.0
  0
LINE
  5
5C5
  8
0
  6
CONTINUOUS
 10
-428.9720980412439
 20
-73.669329698000936
 30
0.0
 11
-428.78179687252208
 21
-74.626038278913654
 31
0.0
  0
LINE
  5
5C6
  8
0
  6
CONTINUOUS
 10
-433.78179687252208
 20
-74.626038278913654
 30
0.0
 11
-433.59149570380038
 21
-75.582746859826372
 31
0.0
  0
LINE
  5
5C7
  8
0
  6
CONTINUOUS
 10
-428.78179687252208
 20
-74.626038278913654
 30
0.0
 11
-428.9720980412439
 21
-75.582746859826372
 31
0.0
  0
LINE
  5
5C8
  8
0
  6
CONTINUOUS
 10
-433.59149570380038
 20
-75.582746859826372
 30
0.0
 11
-433.04956382548852
 21
-76.393805231880023
 31
0.0
  0
LINE
  5
5C9
  8
0
  6
CONTINUOUS
 10
-428.9720980412439
 20
-75.582746859826372
 30
0.0
 11
-429.51402991955581
 21
-76.393805231880023
 31
0.0
  0
LINE
  5
5CA
  8
0
  6
CONTINUOUS
 10
-430.3250882916094
 20
-76.935737110191866
 30
0.0
 11
-431.28179687252208
 21
-77.126038278913654
 31
0.0
  0
LINE
  5
5CB
  8
0
  6
CONTINUOUS
 10
-431.28179687252208
 20
-77.126038278913654
 30
0.0
 11
-432.23850545343493
 21
-76.935737110191866
 31
0.0
  0
LINE
  5
5CC
  8
0
  6
CONTINUOUS
 10
-433.04956382548852
 20
-76.393805231880023
 30
0.0
 11
-432.23850545343493
 21
-76.935737110191866
 31
0.0
  0
LINE
  5
5CD
  8
0
  6
CONTINUOUS
 10
-429.51402991955581
 20
-76.393805231880023
 30
0.0
 11
-430.3250882916094
 21
-76.935737110191866
 31
0.0
  0
ENDBLK
  5
5CF
  8
0
  0
BLOCK
  8
0
  2
*U36
 70
     1
 10
0.0
 20
0.0
 30
0.0
  3
*U36
  1

  0
TEXT
  5
5D1
  8
0
 10
-737.19745627950419
 20
-156.42526850340181
 30
0.0
 40
12.2941616766467
  1
2"x6" Flush with OSB
  7
ARIAL
  0
ENDBLK
  5
5D3
  8
0
  0
BLOCK
  8
0
  2
*U37
 70
     1
 10
0.0
 20
0.0
 30
0.0
  3
*U37
  1

  0
SOLID
  5
5D5
  8
0
  6
CONTINUOUS
 10
-442.10053408952308
 20
146.1776522961917
 30
0.0
 11
-443.0572426704357
 21
145.98735112746991
 31
0.0
 12
-441.1438255086104
 22
145.98735112746991
 32
0.0
 13
-441.1438255086104
 23
145.98735112746991
 33
0.0
  0
SOLID
  5
5D6
  8
0
  6
CONTINUOUS
 10
-443.0572426704357
 20
145.98735112746991
 30
0.0
 11
-443.86830104248941
 21
145.44541924915811
 31
0.0
 12
-440.33276713655681
 22
145.44541924915811
 32
0.0
 13
-440.33276713655681
 23
145.44541924915811
 33
0.0
210
0.0
220
0.0
230
1.0
  0
SOLID
  5
5D7
  8
0
  6
CONTINUOUS
 10
443.0572426704357
 20
145.98735112746991
 30
0.0
 11
441.1438255086104
 21
145.98735112746991
 31
0.0
 12
440.33276713655681
 22
145.44541924915811
 32
0.0
 13
440.33276713655681
 23
145.44541924915811
 33
0.0
210
0.0
220
0.0
230
-1.0
  0
SOLID
  5
5D8
  8
0
  6
CONTINUOUS
 10
-443.86830104248941
 20
145.44541924915811
 30
0.0
 11
-444.41023292080132
 21
144.63436087710451
 31
0.0
 12
-439.7908352582449
 22
144.63436087710451
 32
0.0
 13
-439.7908352582449
 23
144.63436087710451
 33
0.0
210
0.0
220
0.0
230
1.0
  0
SOLID
  5
5D9
  8
0
  6
CONTINUOUS
 10
443.86830104248941
 20
145.44541924915811
 30
0.0
 11
440.33276713655681
 21
145.44541924915811
 31
0.0
 12
439.7908352582449
 22
144.63436087710451
 32
0.0
 13
439.7908352582449
 23
144.63436087710451
 33
0.0
210
0.0
220
0.0
230
-1.0
  0
SOLID
  5
5DA
  8
0
  6
CONTINUOUS
 10
-444.41023292080132
 20
144.63436087710451
 30
0.0
 11
-444.60053408952302
 21
143.67765229619181
 31
0.0
 12
-439.60053408952308
 22
143.67765229619181
 32
0.0
 13
-439.60053408952308
 23
143.67765229619181
 33
0.0
210
0.0
220
0.0
230
1.0
  0
SOLID
  5
5DB
  8
0
  6
CONTINUOUS
 10
444.41023292080132
 20
144.63436087710451
 30
0.0
 11
439.7908352582449
 21
144.63436087710451
 31
0.0
 12
439.60053408952308
 22
143.67765229619181
 32
0.0
 13
439.60053408952308
 23
143.67765229619181
 33
0.0
210
0.0
220
0.0
230
-1.0
  0
SOLID
  5
5DC
  8
0
  6
CONTINUOUS
 10
-444.60053408952302
 20
143.67765229619181
 30
0.0
 11
-444.41023292080132
 21
142.72094371527911
 31
0.0
 12
-439.7908352582449
 22
142.72094371527911
 32
0.0
 13
-439.7908352582449
 23
142.72094371527911
 33
0.0
210
0.0
220
0.0
230
1.0
  0
SOLID
  5
5DD
  8
0
  6
CONTINUOUS
 10
444.60053408952302
 20
143.67765229619181
 30
0.0
 11
439.60053408952308
 21
143.67765229619181
 31
0.0
 12
439.7908352582449
 22
142.72094371527911
 32
0.0
 13
439.7908352582449
 23
142.72094371527911
 33
0.0
210
0.0
220
0.0
230
-1.0
  0
SOLID
  5
5DE
  8
0
  6
CONTINUOUS
 10
-444.41023292080132
 20
142.72094371527911
 30
0.0
 11
-443.86830104248941
 21
141.90988534322551
 31
0.0
 12
-440.33276713655681
 22
141.90988534322551
 32
0.0
 13
-440.33276713655681
 23
141.90988534322551
 33
0.0
210
0.0
220
0.0
230
1.0
  0
SOLID
  5
5DF
  8
0
  6
CONTINUOUS
 10
444.41023292080132
 20
142.72094371527911
 30
0.0
 11
439.7908352582449
 21
142.72094371527911
 31
0.0
 12
440.33276713655681
 22
141.90988534322551
 32
0.0
 13
440.33276713655681
 23
141.90988534322551
 33
0.0
210
0.0
220
0.0
230
-1.0
  0
SOLID
  5
5E0
  8
0
  6
CONTINUOUS
 10
443.0572426704357
 20
141.3679534649136
 30
0.0
 11
441.1438255086104
 21
141.3679534649136
 31
0.0
 12
442.10053408952308
 22
141.17765229619181
 32
0.0
 13
442.10053408952308
 23
141.17765229619181
 33
0.0
210
0.0
220
0.0
230
-1.0
  0
SOLID
  5
5E1
  8
0
  6
CONTINUOUS
 10
-443.86830104248941
 20
141.90988534322551
 30
0.0
 11
-443.0572426704357
 21
141.3679534649136
 31
0.0
 12
-441.1438255086104
 22
141.3679534649136
 32
0.0
 13
-441.1438255086104
 23
141.3679534649136
 33
0.0
210
0.0
220
0.0
230
1.0
  0
SOLID
  5
5E2
  8
0
  6
CONTINUOUS
 10
443.86830104248941
 20
141.90988534322551
 30
0.0
 11
440.33276713655681
 21
141.90988534322551
 31
0.0
 12
441.1438255086104
 22
141.3679534649136
 32
0.0
 13
441.1438255086104
 23
141.3679534649136
 33
0.0
210
0.0
220
0.0
230
-1.0
  0
LINE
  5
5E3
  8
0
  6
CONTINUOUS
 10
-442.10053408952308
 20
146.1776522961917
 30
0.0
 11
-443.0572426704357
 21
145.98735112746991
 31
0.0
  0
LINE
  5
5E4
  8
0
  6
CONTINUOUS
 10
-441.1438255086104
 20
145.98735112746991
 30
0.0
 11
-442.10053408952308
 21
146.1776522961917
 31
0.0
  0
LINE
  5
5E5
  8
0
  6
CONTINUOUS
 10
-443.0572426704357
 20
145.98735112746991
 30
0.0
 11
-443.86830104248941
 21
145.44541924915811
 31
0.0
  0
LINE
  5
5E6
  8
0
  6
CONTINUOUS
 10
-441.1438255086104
 20
145.98735112746991
 30
0.0
 11
-440.33276713655681
 21
145.44541924915811
 31
0.0
  0
LINE
  5
5E7
  8
0
  6
CONTINUOUS
 10
-443.86830104248941
 20
145.44541924915811
 30
0.0
 11
-444.41023292080132
 21
144.63436087710451
 31
0.0
  0
LINE
  5
5E8
  8
0
  6
CONTINUOUS
 10
-440.33276713655681
 20
145.44541924915811
 30
0.0
 11
-439.7908352582449
 21
144.63436087710451
 31
0.0
  0
LINE
  5
5E9
  8
0
  6
CONTINUOUS
 10
-444.41023292080132
 20
144.63436087710451
 30
0.0
 11
-444.60053408952302
 21
143.67765229619181
 31
0.0
  0
LINE
  5
5EA
  8
0
  6
CONTINUOUS
 10
-439.7908352582449
 20
144.63436087710451
 30
0.0
 11
-439.60053408952308
 21
143.67765229619181
 31
0.0
  0
LINE
  5
5EB
  8
0
  6
CONTINUOUS
 10
-444.60053408952302
 20
143.67765229619181
 30
0.0
 11
-444.41023292080132
 21
142.72094371527911
 31
0.0
  0
LINE
  5
5EC
  8
0
  6
CONTINUOUS
 10
-439.60053408952308
 20
143.67765229619181
 30
0.0
 11
-439.7908352582449
 21
142.72094371527911
 31
0.0
  0
LINE
  5
5ED
  8
0
  6
CONTINUOUS
 10
-444.41023292080132
 20
142.72094371527911
 30
0.0
 11
-443.86830104248941
 21
141.90988534322551
 31
0.0
  0
LINE
  5
5EE
  8
0
  6
CONTINUOUS
 10
-439.7908352582449
 20
142.72094371527911
 30
0.0
 11
-440.33276713655681
 21
141.90988534322551
 31
0.0
  0
LINE
  5
5EF
  8
0
  6
CONTINUOUS
 10
-441.1438255086104
 20
141.3679534649136
 30
0.0
 11
-442.10053408952308
 21
141.17765229619181
 31
0.0
  0
LINE
  5
5F0
  8
0
  6
CONTINUOUS
 10
-442.10053408952308
 20
141.17765229619181
 30
0.0
 11
-443.0572426704357
 21
141.3679534649136
 31
0.0
  0
LINE
  5
5F1
  8
0
  6
CONTINUOUS
 10
-443.86830104248941
 20
141.90988534322551
 30
0.0
 11
-443.0572426704357
 21
141.3679534649136
 31
0.0
  0
LINE
  5
5F2
  8
0
  6
CONTINUOUS
 10
-440.33276713655681
 20
141.90988534322551
 30
0.0
 11
-441.1438255086104
 21
141.3679534649136
 31
0.0
  0
ENDBLK
  5
5F4
  8
0
  0
BLOCK
  8
0
  2
*U38
 70
     1
 10
0.0
 20
0.0
 30
0.0
  3
*U38
  1

  0
TEXT
  5
5F6
  8
0
 10
-737.19745627950397
 20
261.62935749956262
 30
0.0
 40
12.2941616766467
  1
2x2 Batten flush with Fascia
  7
ARIAL
  0
ENDBLK
  5
5F8
  8
0
  0
BLOCK
  8
0
  2
*U39
 70
     1
 10
0.0
 20
0.0
 30
0.0
  3
*U39
  1

  0
SOLID
  5
5FA
  8
0
  6
CONTINUOUS
 10
-471.63321071726318
 20
127.821881516353
 30
0.0
 11
-472.5899192981758
 21
127.6315803476312
 31
0.0
 12
-470.67650213635051
 22
127.6315803476312
 32
0.0
 13
-470.67650213635051
 23
127.6315803476312
 33
0.0
210
0.0
220
0.0
230
1.0
  0
SOLID
  5
5FB
  8
0
  6
CONTINUOUS
 10
-472.5899192981758
 20
127.6315803476312
 30
0.0
 11
-473.40097767022939
 21
127.0896484693194
 31
0.0
 12
-469.8654437642968
 22
127.0896484693194
 32
0.0
 13
-469.8654437642968
 23
127.0896484693194
 33
0.0
210
0.0
220
0.0
230
1.0
  0
SOLID
  5
5FC
  8
0
  6
CONTINUOUS
 10
472.5899192981758
 20
127.6315803476312
 30
0.0
 11
470.67650213635051
 21
127.6315803476312
 31
0.0
 12
469.8654437642968
 22
127.0896484693194
 32
0.0
 13
469.8654437642968
 23
127.0896484693194
 33
0.0
210
0.0
220
0.0
230
-1.0
  0
SOLID
  5
5FD
  8
0
  6
CONTINUOUS
 10
-473.40097767022939
 20
127.0896484693194
 30
0.0
 11
-473.94290954854131
 21
126.27859009726571
 31
0.0
 12
-469.323511885985
 22
126.27859009726571
 32
0.0
 13
-469.323511885985
 23
126.27859009726571
 33
0.0
210
0.0
220
0.0
230
1.0
  0
SOLID
  5
5FE
  8
0
  6
CONTINUOUS
 10
473.40097767022939
 20
127.0896484693194
 30
0.0
 11
469.8654437642968
 21
127.0896484693194
 31
0.0
 12
469.323511885985
 22
126.27859009726571
 32
0.0
 13
469.323511885985
 23
126.27859009726571
 33
0.0
210
0.0
220
0.0
230
-1.0
  0
SOLID
  5
5FF
  8
0
  6
CONTINUOUS
 10
-473.94290954854131
 20
126.27859009726571
 30
0.0
 11
-474.13321071726313
 21
125.321881516353
 31
0.0
 12
-469.13321071726318
 22
125.321881516353
 32
0.0
 13
-469.13321071726318
 23
125.321881516353
 33
0.0
210
0.0
220
0.0
230
1.0
  0
SOLID
  5
600
  8
0
  6
CONTINUOUS
 10
473.94290954854131
 20
126.27859009726571
 30
0.0
 11
469.323511885985
 21
126.27859009726571
 31
0.0
 12
469.13321071726318
 22
125.321881516353
 32
0.0
 13
469.13321071726318
 23
125.321881516353
 33
0.0
210
0.0
220
0.0
230
-1.0
  0
SOLID
  5
601
  8
0
  6
CONTINUOUS
 10
-474.13321071726313
 20
125.321881516353
 30
0.0
 11
-473.94290954854131
 21
124.3651729354403
 31
0.0
 12
-469.323511885985
 22
124.3651729354403
 32
0.0
 13
-469.323511885985
 23
124.3651729354403
 33
0.0
210
0.0
220
0.0
230
1.0
  0
SOLID
  5
602
  8
0
  6
CONTINUOUS
 10
474.13321071726313
 20
125.321881516353
 30
0.0
 11
469.13321071726318
 21
125.321881516353
 31
0.0
 12
469.323511885985
 22
124.3651729354403
 32
0.0
 13
469.323511885985
 23
124.3651729354403
 33
0.0
210
0.0
220
0.0
230
-1.0
  0
SOLID
  5
603
  8
0
  6
CONTINUOUS
 10
-473.94290954854131
 20
124.3651729354403
 30
0.0
 11
-473.40097767022939
 21
123.5541145633867
 31
0.0
 12
-469.8654437642968
 22
123.5541145633867
 32
0.0
 13
-469.8654437642968
 23
123.5541145633867
 33
0.0
210
0.0
220
0.0
230
1.0
  0
SOLID
  5
604
  8
0
  6
CONTINUOUS
 10
473.94290954854131
 20
124.3651729354403
 30
0.0
 11
469.323511885985
 21
124.3651729354403
 31
0.0
 12
469.8654437642968
 22
123.5541145633867
 32
0.0
 13
469.8654437642968
 23
123.5541145633867
 33
0.0
210
0.0
220
0.0
230
-1.0
  0
SOLID
  5
605
  8
0
  6
CONTINUOUS
 10
472.5899192981758
 20
123.0121826850749
 30
0.0
 11
470.67650213635051
 21
123.0121826850749
 31
0.0
 12
471.63321071726318
 22
122.8218815163531
 32
0.0
 13
471.63321071726318
 23
122.8218815163531
 33
0.0
210
0.0
220
0.0
230
-1.0
  0
SOLID
  5
606
  8
0
  6
CONTINUOUS
 10
-473.40097767022939
 20
123.5541145633867
 30
0.0
 11
-472.5899192981758
 21
123.0121826850749
 31
0.0
 12
-470.67650213635051
 22
123.0121826850749
 32
0.0
 13
-470.67650213635051
 23
123.0121826850749
 33
0.0
  0
SOLID
  5
607
  8
0
  6
CONTINUOUS
 10
473.40097767022939
 20
123.5541145633867
 30
0.0
 11
469.8654437642968
 21
123.5541145633867
 31
0.0
 12
470.67650213635051
 22
123.0121826850749
 32
0.0
 13
470.67650213635051
 23
123.0121826850749
 33
0.0
210
0.0
220
0.0
230
-1.0
  0
LINE
  5
608
  8
0
  6
CONTINUOUS
 10
-471.63321071726318
 20
127.821881516353
 30
0.0
 11
-472.5899192981758
 21
127.6315803476312
 31
0.0
  0
LINE
  5
609
  8
0
  6
CONTINUOUS
 10
-470.67650213635051
 20
127.6315803476312
 30
0.0
 11
-471.63321071726318
 21
127.821881516353
 31
0.0
  0
LINE
  5
60A
  8
0
  6
CONTINUOUS
 10
-472.5899192981758
 20
127.6315803476312
 30
0.0
 11
-473.40097767022939
 21
127.0896484693194
 31
0.0
  0
LINE
  5
60B
  8
0
  6
CONTINUOUS
 10
-470.67650213635051
 20
127.6315803476312
 30
0.0
 11
-469.8654437642968
 21
127.0896484693194
 31
0.0
  0
LINE
  5
60C
  8
0
  6
CONTINUOUS
 10
-473.40097767022939
 20
127.0896484693194
 30
0.0
 11
-473.94290954854131
 21
126.27859009726571
 31
0.0
  0
LINE
  5
60D
  8
0
  6
CONTINUOUS
 10
-469.8654437642968
 20
127.0896484693194
 30
0.0
 11
-469.323511885985
 21
126.27859009726571
 31
0.0
  0
LINE
  5
60E
  8
0
  6
CONTINUOUS
 10
-473.94290954854131
 20
126.27859009726571
 30
0.0
 11
-474.13321071726313
 21
125.321881516353
 31
0.0
  0
LINE
  5
60F
  8
0
  6
CONTINUOUS
 10
-469.323511885985
 20
126.27859009726571
 30
0.0
 11
-469.13321071726318
 21
125.321881516353
 31
0.0
  0
LINE
  5
610
  8
0
  6
CONTINUOUS
 10
-474.13321071726313
 20
125.321881516353
 30
0.0
 11
-473.94290954854131
 21
124.3651729354403
 31
0.0
  0
LINE
  5
611
  8
0
  6
CONTINUOUS
 10
-469.13321071726318
 20
125.321881516353
 30
0.0
 11
-469.323511885985
 21
124.3651729354403
 31
0.0
  0
LINE
  5
612
  8
0
  6
CONTINUOUS
 10
-473.94290954854131
 20
124.3651729354403
 30
0.0
 11
-473.40097767022939
 21
123.5541145633867
 31
0.0
  0
LINE
  5
613
  8
0
  6
CONTINUOUS
 10
-469.323511885985
 20
124.3651729354403
 30
0.0
 11
-469.8654437642968
 21
123.5541145633867
 31
0.0
  0
LINE
  5
614
  8
0
  6
CONTINUOUS
 10
-470.67650213635051
 20
123.0121826850749
 30
0.0
 11
-471.63321071726318
 21
122.8218815163531
 31
0.0
  0
LINE
  5
615
  8
0
  6
CONTINUOUS
 10
-471.63321071726318
 20
122.8218815163531
 30
0.0
 11
-472.5899192981758
 21
123.0121826850749
 31
0.0
  0
LINE
  5
616
  8
0
  6
CONTINUOUS
 10
-473.40097767022939
 20
123.5541145633867
 30
0.0
 11
-472.5899192981758
 21
123.0121826850749
 31
0.0
  0
LINE
  5
617
  8
0
  6
CONTINUOUS
 10
-469.8654437642968
 20
123.5541145633867
 30
0.0
 11
-470.67650213635051
 21
123.0121826850749
 31
0.0
  0
ENDBLK
  5
619
  8
0
  0
BLOCK
  8
0
  2
*U40
 70
     1
 10
0.0
 20
0.0
 30
0.0
  3
*U40
  1

  0
TEXT
  5
61B
  8
0
 10
-738.10316532525962
 20
119.6488045932761
 30
0.0
 40
12.2941616766467
  1
Fascia flashing
  7
ARIAL
  0
ENDBLK
  5
61D
  8
0
  0
BLOCK
  8
0
  2
*U41
 70
     1
 10
0.0
 20
0.0
 30
0.0
  3
*U41
  1

  0
SOLID
  5
61F
  8
0
  6
CONTINUOUS
 10
-228.5238264457214
 20
149.977786183468
 30
0.0
 11
-229.48053502663419
 21
149.78748501474621
 31
0.0
 12
-227.56711786480869
 22
149.78748501474621
 32
0.0
 13
-227.56711786480869
 23
149.78748501474621
 33
0.0
210
0.0
220
0.0
230
1.0
  0
SOLID
  5
620
  8
0
  6
CONTINUOUS
 10
-229.48053502663419
 20
149.78748501474621
 30
0.0
 11
-230.29159339868781
 21
149.24555313643441
 31
0.0
 12
-226.7560594927551
 22
149.24555313643441
 32
0.0
 13
-226.7560594927551
 23
149.24555313643441
 33
0.0
210
0.0
220
0.0
230
1.0
  0
SOLID
  5
621
  8
0
  6
CONTINUOUS
 10
229.48053502663419
 20
149.78748501474621
 30
0.0
 11
227.56711786480869
 21
149.78748501474621
 31
0.0
 12
226.7560594927551
 22
149.24555313643441
 32
0.0
 13
226.7560594927551
 23
149.24555313643441
 33
0.0
210
0.0
220
0.0
230
-1.0
  0
SOLID
  5
622
  8
0
  6
CONTINUOUS
 10
-230.29159339868781
 20
149.24555313643441
 30
0.0
 11
-230.83352527699961
 21
148.4344947643807
 31
0.0
 12
-226.21412761444321
 22
148.4344947643807
 32
0.0
 13
-226.21412761444321
 23
148.4344947643807
 33
0.0
210
0.0
220
0.0
230
1.0
  0
SOLID
  5
623
  8
0
  6
CONTINUOUS
 10
230.29159339868781
 20
149.24555313643441
 30
0.0
 11
226.7560594927551
 21
149.24555313643441
 31
0.0
 12
226.21412761444321
 22
148.4344947643807
 32
0.0
 13
226.21412761444321
 23
148.4344947643807
 33
0.0
210
0.0
220
0.0
230
-1.0
  0
SOLID
  5
624
  8
0
  6
CONTINUOUS
 10
-230.83352527699961
 20
148.4344947643807
 30
0.0
 11
-231.02382644572151
 21
147.477786183468
 31
0.0
 12
-226.0238264457214
 22
147.477786183468
 32
0.0
 13
-226.0238264457214
 23
147.477786183468
 33
0.0
210
0.0
220
0.0
230
1.0
  0
SOLID
  5
625
  8
0
  6
CONTINUOUS
 10
230.83352527699961
 20
148.4344947643807
 30
0.0
 11
226.21412761444321
 21
148.4344947643807
 31
0.0
 12
226.0238264457214
 22
147.477786183468
 32
0.0
 13
226.0238264457214
 23
147.477786183468
 33
0.0
210
0.0
220
0.0
230
-1.0
  0
SOLID
  5
626
  8
0
  6
CONTINUOUS
 10
-231.02382644572151
 20
147.477786183468
 30
0.0
 11
-230.83352527699961
 21
146.52107760255529
 31
0.0
 12
-226.21412761444321
 22
146.52107760255529
 32
0.0
 13
-226.21412761444321
 23
146.52107760255529
 33
0.0
  0
SOLID
  5
627
  8
0
  6
CONTINUOUS
 10
231.02382644572151
 20
147.477786183468
 30
0.0
 11
226.0238264457214
 21
147.477786183468
 31
0.0
 12
226.21412761444321
 22
146.52107760255529
 32
0.0
 13
226.21412761444321
 23
146.52107760255529
 33
0.0
210
0.0
220
0.0
230
-1.0
  0
SOLID
  5
628
  8
0
  6
CONTINUOUS
 10
-230.83352527699961
 20
146.52107760255529
 30
0.0
 11
-230.29159339868781
 21
145.71001923050159
 31
0.0
 12
-226.7560594927551
 22
145.71001923050159
 32
0.0
 13
-226.7560594927551
 23
145.71001923050159
 33
0.0
210
0.0
220
0.0
230
1.0
  0
SOLID
  5
629
  8
0
  6
CONTINUOUS
 10
230.83352527699961
 20
146.52107760255529
 30
0.0
 11
226.21412761444321
 21
146.52107760255529
 31
0.0
 12
226.7560594927551
 22
145.71001923050159
 32
0.0
 13
226.7560594927551
 23
145.71001923050159
 33
0.0
210
0.0
220
0.0
230
-1.0
  0
SOLID
  5
62A
  8
0
  6
CONTINUOUS
 10
229.48053502663419
 20
145.16808735218979
 30
0.0
 11
227.56711786480869
 21
145.16808735218979
 31
0.0
 12
228.5238264457214
 22
144.977786183468
 32
0.0
 13
228.5238264457214
 23
144.977786183468
 33
0.0
210
0.0
220
0.0
230
-1.0
  0
SOLID
  5
62B
  8
0
  6
CONTINUOUS
 10
-230.29159339868781
 20
145.71001923050159
 30
0.0
 11
-229.48053502663419
 21
145.16808735218979
 31
0.0
 12
-227.56711786480869
 22
145.16808735218979
 32
0.0
 13
-227.56711786480869
 23
145.16808735218979
 33
0.0
210
0.0
220
0.0
230
1.0
  0
SOLID
  5
62C
  8
0
  6
CONTINUOUS
 10
230.29159339868781
 20
145.71001923050159
 30
0.0
 11
226.7560594927551
 21
145.71001923050159
 31
0.0
 12
227.56711786480869
 22
145.16808735218979
 32
0.0
 13
227.56711786480869
 23
145.16808735218979
 33
0.0
210
0.0
220
0.0
230
-1.0
  0
LINE
  5
62D
  8
0
  6
CONTINUOUS
 10
-228.5238264457214
 20
149.977786183468
 30
0.0
 11
-229.48053502663419
 21
149.78748501474621
 31
0.0
  0
LINE
  5
62E
  8
0
  6
CONTINUOUS
 10
-227.56711786480869
 20
149.78748501474621
 30
0.0
 11
-228.5238264457214
 21
149.977786183468
 31
0.0
  0
LINE
  5
62F
  8
0
  6
CONTINUOUS
 10
-229.48053502663419
 20
149.78748501474621
 30
0.0
 11
-230.29159339868781
 21
149.24555313643441
 31
0.0
  0
LINE
  5
630
  8
0
  6
CONTINUOUS
 10
-227.56711786480869
 20
149.78748501474621
 30
0.0
 11
-226.7560594927551
 21
149.24555313643441
 31
0.0
  0
LINE
  5
631
  8
0
  6
CONTINUOUS
 10
-230.29159339868781
 20
149.24555313643441
 30
0.0
 11
-230.83352527699961
 21
148.4344947643807
 31
0.0
  0
LINE
  5
632
  8
0
  6
CONTINUOUS
 10
-226.7560594927551
 20
149.24555313643441
 30
0.0
 11
-226.21412761444321
 21
148.4344947643807
 31
0.0
  0
LINE
  5
633
  8
0
  6
CONTINUOUS
 10
-230.83352527699961
 20
148.4344947643807
 30
0.0
 11
-231.02382644572151
 21
147.477786183468
 31
0.0
  0
LINE
  5
634
  8
0
  6
CONTINUOUS
 10
-226.21412761444321
 20
148.4344947643807
 30
0.0
 11
-226.0238264457214
 21
147.477786183468
 31
0.0
  0
LINE
  5
635
  8
0
  6
CONTINUOUS
 10
-231.02382644572151
 20
147.477786183468
 30
0.0
 11
-230.83352527699961
 21
146.52107760255529
 31
0.0
  0
LINE
  5
636
  8
0
  6
CONTINUOUS
 10
-226.0238264457214
 20
147.477786183468
 30
0.0
 11
-226.21412761444321
 21
146.52107760255529
 31
0.0
  0
LINE
  5
637
  8
0
  6
CONTINUOUS
 10
-230.83352527699961
 20
146.52107760255529
 30
0.0
 11
-230.29159339868781
 21
145.71001923050159
 31
0.0
  0
LINE
  5
638
  8
0
  6
CONTINUOUS
 10
-226.21412761444321
 20
146.52107760255529
 30
0.0
 11
-226.7560594927551
 21
145.71001923050159
 31
0.0
  0
LINE
  5
639
  8
0
  6
CONTINUOUS
 10
-227.56711786480869
 20
145.16808735218979
 30
0.0
 11
-228.5238264457214
 21
144.977786183468
 31
0.0
  0
LINE
  5
63A
  8
0
  6
CONTINUOUS
 10
-228.5238264457214
 20
144.977786183468
 30
0.0
 11
-229.48053502663419
 21
145.16808735218979
 31
0.0
  0
LINE
  5
63B
  8
0
  6
CONTINUOUS
 10
-230.29159339868781
 20
145.71001923050159
 30
0.0
 11
-229.48053502663419
 21
145.16808735218979
 31
0.0
  0
LINE
  5
63C
  8
0
  6
CONTINUOUS
 10
-226.7560594927551
 20
145.71001923050159
 30
0.0
 11
-227.56711786480869
 21
145.16808735218979
 31
0.0
  0
ENDBLK
  5
63E
  8
0
  0
BLOCK
  8
0
  2
*U42
 70
     1
 10
0.0
 20
0.0
 30
0.0
  3
*U42
  1

  0
TEXT
  5
640
  8
0
 10
-737.46581451528345
 20
-227.54730574910121
 30
0.0
 40
12.2941616766467
  1
Skip sheathing
  7
ARIAL
  0
ENDBLK
  5
642
  8
0
  0
BLOCK
  8
0
  2
*U43
 70
     1
 10
0.0
 20
0.0
 30
0.0
  3
*U43
  1

  0
SOLID
  5
644
  8
0
  6
CONTINUOUS
 10
-371.30225065802381
 20
130.7808057133243
 30
0.0
 11
-372.25895923893648
 21
130.59050454460251
 31
0.0
 12
-370.34554207711102
 22
130.59050454460251
 32
0.0
 13
-370.34554207711102
 23
130.59050454460251
 33
0.0
210
0.0
220
0.0
230
1.0
  0
SOLID
  5
645
  8
0
  6
CONTINUOUS
 10
-372.25895923893648
 20
130.59050454460251
 30
0.0
 11
-373.07001761099008
 21
130.04857266629071
 31
0.0
 12
-369.53448370505743
 22
130.04857266629071
 32
0.0
 13
-369.53448370505743
 23
130.04857266629071
 33
0.0
210
0.0
220
0.0
230
1.0
  0
SOLID
  5
646
  8
0
  6
CONTINUOUS
 10
372.25895923893648
 20
130.59050454460251
 30
0.0
 11
370.34554207711102
 21
130.59050454460251
 31
0.0
 12
369.53448370505743
 22
130.04857266629071
 32
0.0
 13
369.53448370505743
 23
130.04857266629071
 33
0.0
210
0.0
220
0.0
230
-1.0
  0
SOLID
  5
647
  8
0
  6
CONTINUOUS
 10
-373.07001761099008
 20
130.04857266629071
 30
0.0
 11
-373.61194948930199
 21
129.237514294237
 31
0.0
 12
-368.99255182674551
 22
129.237514294237
 32
0.0
 13
-368.99255182674551
 23
129.237514294237
 33
0.0
210
0.0
220
0.0
230
1.0
  0
SOLID
  5
648
  8
0
  6
CONTINUOUS
 10
373.07001761099008
 20
130.04857266629071
 30
0.0
 11
369.53448370505743
 21
130.04857266629071
 31
0.0
 12
368.99255182674551
 22
129.237514294237
 32
0.0
 13
368.99255182674551
 23
129.237514294237
 33
0.0
210
0.0
220
0.0
230
-1.0
  0
SOLID
  5
649
  8
0
  6
CONTINUOUS
 10
-373.61194948930199
 20
129.237514294237
 30
0.0
 11
-373.80225065802381
 21
128.2808057133243
 31
0.0
 12
-368.80225065802369
 22
128.2808057133243
 32
0.0
 13
-368.80225065802369
 23
128.2808057133243
 33
0.0
210
0.0
220
0.0
230
1.0
  0
SOLID
  5
64A
  8
0
  6
CONTINUOUS
 10
373.61194948930199
 20
129.237514294237
 30
0.0
 11
368.99255182674551
 21
129.237514294237
 31
0.0
 12
368.80225065802369
 22
128.2808057133243
 32
0.0
 13
368.80225065802369
 23
128.2808057133243
 33
0.0
210
0.0
220
0.0
230
-1.0
  0
SOLID
  5
64B
  8
0
  6
CONTINUOUS
 10
-373.80225065802381
 20
128.2808057133243
 30
0.0
 11
-373.61194948930199
 21
127.3240971324115
 31
0.0
 12
-368.99255182674551
 22
127.3240971324115
 32
0.0
 13
-368.99255182674551
 23
127.3240971324115
 33
0.0
210
0.0
220
0.0
230
1.0
  0
SOLID
  5
64C
  8
0
  6
CONTINUOUS
 10
373.80225065802381
 20
128.2808057133243
 30
0.0
 11
368.80225065802369
 21
128.2808057133243
 31
0.0
 12
368.99255182674551
 22
127.3240971324115
 32
0.0
 13
368.99255182674551
 23
127.3240971324115
 33
0.0
210
0.0
220
0.0
230
-1.0
  0
SOLID
  5
64D
  8
0
  6
CONTINUOUS
 10
-373.61194948930199
 20
127.3240971324115
 30
0.0
 11
-373.07001761099008
 21
126.5130387603579
 31
0.0
 12
-369.53448370505743
 22
126.5130387603579
 32
0.0
 13
-369.53448370505743
 23
126.5130387603579
 33
0.0
210
0.0
220
0.0
230
1.0
  0
SOLID
  5
64E
  8
0
  6
CONTINUOUS
 10
373.61194948930199
 20
127.3240971324115
 30
0.0
 11
368.99255182674551
 21
127.3240971324115
 31
0.0
 12
369.53448370505743
 22
126.5130387603579
 32
0.0
 13
369.53448370505743
 23
126.5130387603579
 33
0.0
210
0.0
220
0.0
230
-1.0
  0
SOLID
  5
64F
  8
0
  6
CONTINUOUS
 10
372.25895923893648
 20
125.9711068820461
 30
0.0
 11
370.34554207711102
 21
125.9711068820461
 31
0.0
 12
371.30225065802381
 22
125.7808057133243
 32
0.0
 13
371.30225065802381
 23
125.7808057133243
 33
0.0
210
0.0
220
0.0
230
-1.0
  0
SOLID
  5
650
  8
0
  6
CONTINUOUS
 10
-373.07001761099008
 20
126.5130387603579
 30
0.0
 11
-372.25895923893648
 21
125.9711068820461
 31
0.0
 12
-370.34554207711102
 22
125.9711068820461
 32
0.0
 13
-370.34554207711102
 23
125.9711068820461
 33
0.0
  0
SOLID
  5
651
  8
0
  6
CONTINUOUS
 10
373.07001761099008
 20
126.5130387603579
 30
0.0
 11
369.53448370505743
 21
126.5130387603579
 31
0.0
 12
370.34554207711102
 22
125.9711068820461
 32
0.0
 13
370.34554207711102
 23
125.9711068820461
 33
0.0
210
0.0
220
0.0
230
-1.0
  0
LINE
  5
652
  8
0
  6
CONTINUOUS
 10
-371.30225065802381
 20
130.7808057133243
 30
0.0
 11
-372.25895923893648
 21
130.59050454460251
 31
0.0
  0
LINE
  5
653
  8
0
  6
CONTINUOUS
 10
-370.34554207711102
 20
130.59050454460251
 30
0.0
 11
-371.30225065802381
 21
130.7808057133243
 31
0.0
  0
LINE
  5
654
  8
0
  6
CONTINUOUS
 10
-372.25895923893648
 20
130.59050454460251
 30
0.0
 11
-373.07001761099008
 21
130.04857266629071
 31
0.0
  0
LINE
  5
655
  8
0
  6
CONTINUOUS
 10
-370.34554207711102
 20
130.59050454460251
 30
0.0
 11
-369.53448370505743
 21
130.04857266629071
 31
0.0
  0
LINE
  5
656
  8
0
  6
CONTINUOUS
 10
-373.07001761099008
 20
130.04857266629071
 30
0.0
 11
-373.61194948930199
 21
129.237514294237
 31
0.0
  0
LINE
  5
657
  8
0
  6
CONTINUOUS
 10
-369.53448370505743
 20
130.04857266629071
 30
0.0
 11
-368.99255182674551
 21
129.237514294237
 31
0.0
  0
LINE
  5
658
  8
0
  6
CONTINUOUS
 10
-373.61194948930199
 20
129.237514294237
 30
0.0
 11
-373.80225065802381
 21
128.2808057133243
 31
0.0
  0
LINE
  5
659
  8
0
  6
CONTINUOUS
 10
-368.99255182674551
 20
129.237514294237
 30
0.0
 11
-368.80225065802369
 21
128.2808057133243
 31
0.0
  0
LINE
  5
65A
  8
0
  6
CONTINUOUS
 10
-373.80225065802381
 20
128.2808057133243
 30
0.0
 11
-373.61194948930199
 21
127.3240971324115
 31
0.0
  0
LINE
  5
65B
  8
0
  6
CONTINUOUS
 10
-368.80225065802369
 20
128.2808057133243
 30
0.0
 11
-368.99255182674551
 21
127.3240971324115
 31
0.0
  0
LINE
  5
65C
  8
0
  6
CONTINUOUS
 10
-373.61194948930199
 20
127.3240971324115
 30
0.0
 11
-373.07001761099008
 21
126.5130387603579
 31
0.0
  0
LINE
  5
65D
  8
0
  6
CONTINUOUS
 10
-368.99255182674551
 20
127.3240971324115
 30
0.0
 11
-369.53448370505743
 21
126.5130387603579
 31
0.0
  0
LINE
  5
65E
  8
0
  6
CONTINUOUS
 10
-370.34554207711102
 20
125.9711068820461
 30
0.0
 11
-371.30225065802381
 21
125.7808057133243
 31
0.0
  0
LINE
  5
65F
  8
0
  6
CONTINUOUS
 10
-371.30225065802381
 20
125.7808057133243
 30
0.0
 11
-372.25895923893648
 21
125.9711068820461
 31
0.0
  0
LINE
  5
660
  8
0
  6
CONTINUOUS
 10
-373.07001761099008
 20
126.5130387603579
 30
0.0
 11
-372.25895923893648
 21
125.9711068820461
 31
0.0
  0
LINE
  5
661
  8
0
  6
CONTINUOUS
 10
-369.53448370505743
 20
126.5130387603579
 30
0.0
 11
-370.34554207711102
 21
125.9711068820461
 31
0.0
  0
ENDBLK
  5
663
  8
0
  0
BLOCK
  8
0
  2
*U44
 70
     1
 10
0.0
 20
0.0
 30
0.0
  3
*U44
  1

  0
TEXT
  5
665
  8
0
 10
-738.56440604300565
 20
312.28946727763639
 30
0.0
 40
12.2941616766467
  1
1x4 counter batten
  7
ARIAL
  0
ENDBLK
  5
667
  8
0
  0
BLOCK
  8
0
  2
*U45
 70
     1
 10
0.0
 20
0.0
 30
0.0
  3
*U45
  1

  0
SOLID
  5
673
  8
0
  6
CONTINUOUS
 10
-471.46203177262191
 20
160.1461465067417
 30
0.0
 11
-471.46203177262208
 21
141.5689415850425
 31
0.0
 12
-469.46203177262208
 22
141.5689415850425
 32
0.0
 13
-469.46203177262208
 23
141.5689415850425
 33
0.0
210
0.0
220
0.0
230
1.0
  0
SOLID
  5
674
  8
0
  6
CONTINUOUS
 10
471.46203177262191
 20
160.1461465067417
 30
0.0
 11
469.46203177262203
 21
160.1461465067417
 31
0.0
 12
469.46203177262208
 22
141.5689415850425
 32
0.0
 13
469.46203177262208
 23
141.5689415850425
 33
0.0
210
0.0
220
0.0
230
-1.0
  0
SOLID
  5
675
  8
0
  6
CONTINUOUS
 10
-471.46203177262208
 20
140.5689415850425
 30
0.0
 11
-471.46203177262259
 21
53.30802505108862
 31
0.0
 12
-469.46203177262259
 22
53.30802505108862
 32
0.0
 13
-469.46203177262259
 23
53.30802505108862
 33
0.0
210
0.0
220
0.0
230
1.0
  0
SOLID
  5
676
  8
0
  6
CONTINUOUS
 10
471.46203177262208
 20
140.5689415850425
 30
0.0
 11
469.46203177262208
 21
140.5689415850425
 31
0.0
 12
469.46203177262259
 22
53.30802505108862
 32
0.0
 13
469.46203177262259
 23
53.30802505108862
 33
0.0
210
0.0
220
0.0
230
-1.0
  0
SOLID
  5
677
  8
0
  6
CONTINUOUS
 10
-471.46203177262259
 20
52.308025051088578
 30
0.0
 11
-471.46203177262271
 21
34.78412847032056
 31
0.0
 12
-469.46203177262282
 22
34.78412847032056
 32
0.0
 13
-469.46203177262282
 23
34.78412847032056
 33
0.0
210
0.0
220
0.0
230
1.0
  0
SOLID
  5
678
  8
0
  6
CONTINUOUS
 10
471.46203177262259
 20
52.308025051088578
 30
0.0
 11
469.46203177262259
 21
52.308025051088578
 31
0.0
 12
469.46203177262282
 22
34.78412847032056
 32
0.0
 13
469.46203177262282
 23
34.78412847032056
 33
0.0
210
0.0
220
0.0
230
-1.0
  0
SOLID
  5
679
  8
0
  6
CONTINUOUS
 10
-471.46203177262271
 20
34.78412847032056
 30
0.0
 11
-471.46203177262282
 21
30.146146506741701
 31
0.0
 12
-469.46203177262282
 22
30.146146506741701
 32
0.0
 13
-469.46203177262282
 23
30.146146506741701
 33
0.0
210
0.0
220
0.0
230
1.0
  0
SOLID
  5
67A
  8
0
  6
CONTINUOUS
 10
471.46203177262271
 20
34.78412847032056
 30
0.0
 11
469.46203177262282
 21
34.78412847032056
 31
0.0
 12
469.46203177262282
 22
30.146146506741701
 32
0.0
 13
469.46203177262282
 23
30.146146506741701
 33
0.0
210
0.0
220
0.0
230
-1.0
  0
LINE
  5
67B
  8
0
  6
CONTINUOUS
 10
-471.46203177262191
 20
160.1461465067417
 30
0.0
 11
-471.46203177262208
 21
141.5689415850425
 31
0.0
  0
LINE
  5
67C
  8
0
  6
CONTINUOUS
 10
-469.46203177262203
 20
160.1461465067417
 30
0.0
 11
-469.46203177262208
 21
141.5689415850425
 31
0.0
  0
LINE
  5
67D
  8
0
  6
CONTINUOUS
 10
-471.46203177262208
 20
140.5689415850425
 30
0.0
 11
-471.46203177262259
 21
53.30802505108862
 31
0.0
  0
LINE
  5
67E
  8
0
  6
CONTINUOUS
 10
-469.46203177262208
 20
140.5689415850425
 30
0.0
 11
-469.46203177262259
 21
53.30802505108862
 31
0.0
  0
LINE
  5
67F
  8
0
  6
CONTINUOUS
 10
-471.46203177262259
 20
52.308025051088578
 30
0.0
 11
-471.46203177262271
 21
34.78412847032056
 31
0.0
  0
LINE
  5
680
  8
0
  6
CONTINUOUS
 10
-469.46203177262259
 20
52.308025051088578
 30
0.0
 11
-469.46203177262282
 21
34.78412847032056
 31
0.0
  0
LINE
  5
681
  8
0
  6
CONTINUOUS
 10
-471.46203177262271
 20
34.78412847032056
 30
0.0
 11
-471.46203177262282
 21
30.146146506741701
 31
0.0
  0
LINE
  5
682
  8
0
  6
CONTINUOUS
 10
-469.46203177262282
 20
34.78412847032056
 30
0.0
 11
-469.46203177262282
 21
30.146146506741701
 31
0.0
  0
ENDBLK
  5
684
  8
0
  0
BLOCK
  8
0
  2
*U46
 70
     1
 10
0.0
 20
0.0
 30
0.0
  3
*U46
  1

  0
SOLID
  5
686
  8
0
  6
CONTINUOUS
 10
-577.46130677724034
 20
80.411464191428948
 30
0.0
 11
-590.69149628925129
 21
80.364864120592785
 31
0.0
 12
-577.10734409753275
 22
80.364864120592785
 32
0.0
 13
-577.10734409753275
 23
80.364864120592785
 33
0.0
210
0.0
220
0.0
230
1.0
  0
SOLID
  5
687
  8
0
  6
CONTINUOUS
 10
-590.69149628925129
 20
80.364864120592785
 30
0.0
 11
-590.72753385466069
 21
80.351834387434863
 31
0.0
 12
-577.00837344831075
 22
80.351834387434863
 32
0.0
 13
-577.00837344831075
 23
80.351834387434863
 33
0.0
  0
SOLID
  5
688
  8
0
  6
CONTINUOUS
 10
590.69149628925129
 20
80.364864120592785
 30
0.0
 11
577.10734409753275
 21
80.364864120592785
 31
0.0
 12
577.00837344831075
 22
80.351834387434863
 32
0.0
 13
577.00837344831075
 23
80.351834387434863
 33
0.0
210
0.0
220
0.0
230
-1.0
  0
SOLID
  5
689
  8
0
  6
CONTINUOUS
 10
-590.72753385466069
 20
80.351834387434863
 30
0.0
 11
-591.07129083749055
 21
80.227545698491696
 31
0.0
 12
-576.70831400981467
 22
80.227545698491696
 32
0.0
 13
-576.70831400981467
 23
80.227545698491696
 33
0.0
210
0.0
220
0.0
230
1.0
  0
SOLID
  5
68A
  8
0
  6
CONTINUOUS
 10
590.72753385466069
 20
80.351834387434863
 30
0.0
 11
577.00837344831075
 21
80.351834387434863
 31
0.0
 12
576.70831400981467
 22
80.227545698491696
 32
0.0
 13
576.70831400981467
 23
80.227545698491696
 33
0.0
210
0.0
220
0.0
230
-1.0
  0
SOLID
  5
68B
  8
0
  6
CONTINUOUS
 10
-591.07129083749055
 20
80.227545698491696
 30
0.0
 11
-591.14872610085297
 21
80.177008648051711
 31
0.0
 12
-576.58630677724022
 22
80.177008648051711
 32
0.0
 13
-576.58630677724022
 23
80.177008648051711
 33
0.0
210
0.0
220
0.0
230
1.0
  0
SOLID
  5
68C
  8
0
  6
CONTINUOUS
 10
591.07129083749055
 20
80.227545698491696
 30
0.0
 11
576.70831400981467
 21
80.227545698491696
 31
0.0
 12
576.58630677724022
 22
80.177008648051711
 32
0.0
 13
576.58630677724022
 23
80.177008648051711
 33
0.0
210
0.0
220
0.0
230
-1.0
  0
SOLID
  5
68D
  8
0
  6
CONTINUOUS
 10
-591.14872610085297
 20
80.177008648051711
 30
0.0
 11
-591.40949395866232
 21
80.006822123063145
 31
0.0
 12
-576.36451537975927
 22
80.006822123063145
 32
0.0
 13
-576.36451537975927
 23
80.006822123063145
 33
0.0
210
0.0
220
0.0
230
1.0
  0
SOLID
  5
68E
  8
0
  6
CONTINUOUS
 10
591.14872610085297
 20
80.177008648051711
 30
0.0
 11
576.58630677724022
 21
80.177008648051711
 31
0.0
 12
576.36451537975927
 22
80.006822123063145
 32
0.0
 13
576.36451537975927
 23
80.006822123063145
 33
0.0
210
0.0
220
0.0
230
-1.0
  0
SOLID
  5
68F
  8
0
  6
CONTINUOUS
 10
-591.40949395866232
 20
80.006822123063145
 30
0.0
 11
-591.51233088082938
 21
79.898901058505544
 31
0.0
 12
-576.22386991016367
 22
79.898901058505544
 32
0.0
 13
-576.22386991016367
 23
79.898901058505544
 33
0.0
210
0.0
220
0.0
230
1.0
  0
SOLID
  5
690
  8
0
  6
CONTINUOUS
 10
591.40949395866232
 20
80.006822123063145
 30
0.0
 11
576.36451537975927
 21
80.006822123063145
 31
0.0
 12
576.22386991016367
 22
79.898901058505544
 32
0.0
 13
576.22386991016367
 23
79.898901058505544
 33
0.0
210
0.0
220
0.0
230
-1.0
  0
SOLID
  5
691
  8
0
  6
CONTINUOUS
 10
-591.51233088082938
 20
79.898901058505544
 30
0.0
 11
-591.68809389344926
 21
79.714448519164023
 31
0.0
 12
-576.08233449872569
 22
79.714448519164023
 32
0.0
 13
-576.08233449872569
 23
79.714448519164023
 33
0.0
210
0.0
220
0.0
230
1.0
  0
SOLID
  5
692
  8
0
  6
CONTINUOUS
 10
591.51233088082938
 20
79.898901058505544
 30
0.0
 11
576.22386991016367
 21
79.898901058505544
 31
0.0
 12
576.08233449872569
 22
79.714448519164023
 32
0.0
 13
576.08233449872569
 23
79.714448519164023
 33
0.0
210
0.0
220
0.0
230
-1.0
  0
SOLID
  5
693
  8
0
  6
CONTINUOUS
 10
-591.68809389344926
 20
79.714448519164023
 30
0.0
 11
-591.7923753686307
 21
79.536464191429019
 31
0.0
 12
-575.9457623206174
 22
79.536464191429019
 32
0.0
 13
-575.9457623206174
 23
79.536464191429019
 33
0.0
  0
SOLID
  5
694
  8
0
  6
CONTINUOUS
 10
591.68809389344926
 20
79.714448519164023
 30
0.0
 11
576.08233449872569
 21
79.714448519164023
 31
0.0
 12
575.9457623206174
 22
79.536464191429019
 32
0.0
 13
575.9457623206174
 23
79.536464191429019
 33
0.0
210
0.0
220
0.0
230
-1.0
  0
SOLID
  5
695
  8
0
  6
CONTINUOUS
 10
-591.7923753686307
 20
79.536464191429019
 30
0.0
 11
-591.86561318998008
 21
79.411464191428976
 31
0.0
 12
-575.89398562532085
 22
79.411464191428976
 32
0.0
 13
-575.89398562532085
 23
79.411464191428976
 33
0.0
210
0.0
220
0.0
230
1.0
  0
SOLID
  5
696
  8
0
  6
CONTINUOUS
 10
591.7923753686307
 20
79.536464191429019
 30
0.0
 11
575.9457623206174
 21
79.536464191429019
 31
0.0
 12
575.89398562532085
 22
79.411464191428976
 32
0.0
 13
575.89398562532085
 23
79.411464191428976
 33
0.0
210
0.0
220
0.0
230
-1.0
  0
SOLID
  5
697
  8
0
  6
CONTINUOUS
 10
-590.29033711720285
 20
79.411464191428976
 30
0.0
 11
-580.11288521626818
 21
79.391492732498136
 31
0.0
 12
-575.88571317617129
 22
79.391492732498136
 32
0.0
 13
-575.88571317617129
 23
79.391492732498136
 33
0.0
210
0.0
220
0.0
230
1.0
  0
SOLID
  5
698
  8
0
  6
CONTINUOUS
 10
590.29033711720285
 20
79.411464191428976
 30
0.0
 11
575.89398562532085
 21
79.411464191428976
 31
0.0
 12
575.88571317617129
 22
79.391492732498136
 32
0.0
 13
575.88571317617129
 23
79.391492732498136
 33
0.0
210
0.0
220
0.0
230
-1.0
  0
SOLID
  5
699
  8
0
  6
CONTINUOUS
 10
-591.86561318998008
 20
79.411464191428976
 30
0.0
 11
-591.87731451911031
 21
79.391492732498136
 31
0.0
 12
-590.46226247665254
 22
79.391492732498136
 32
0.0
 13
-590.46226247665254
 23
79.391492732498136
 33
0.0
  0
SOLID
  5
69A
  8
0
  6
CONTINUOUS
 10
591.86561318998008
 20
79.411464191428976
 30
0.0
 11
590.29033711720285
 21
79.411464191428976
 31
0.0
 12
590.46226247665254
 22
79.391492732498136
 32
0.0
 13
590.46226247665254
 23
79.391492732498136
 33
0.0
210
0.0
220
0.0
230
-1.0
  0
SOLID
  5
69B
  8
0
  6
CONTINUOUS
 10
-580.11288521626818
 20
79.391492732498136
 30
0.0
 11
-577.2671924934134
 21
79.385908561145854
 31
0.0
 12
-575.88340013666266
 22
79.385908561145854
 32
0.0
 13
-575.88340013666266
 23
79.385908561145854
 33
0.0
  0
SOLID
  5
69C
  8
0
  6
CONTINUOUS
 10
580.11288521626818
 20
79.391492732498136
 30
0.0
 11
575.88571317617129
 21
79.391492732498136
 31
0.0
 12
575.88340013666266
 22
79.385908561145854
 32
0.0
 13
575.88340013666266
 23
79.385908561145854
 33
0.0
210
0.0
220
0.0
230
-1.0
  0
SOLID
  5
69D
  8
0
  6
CONTINUOUS
 10
-591.87731451911031
 20
79.391492732498136
 30
0.0
 11
-591.89225318277101
 21
79.365995893253242
 31
0.0
 12
-590.5133924314664
 22
79.365995893253242
 32
0.0
 13
-590.5133924314664
 23
79.365995893253242
 33
0.0
210
0.0
220
0.0
230
1.0
  0
SOLID
  5
69E
  8
0
  6
CONTINUOUS
 10
591.87731451911031
 20
79.391492732498136
 30
0.0
 11
590.46226247665254
 21
79.391492732498136
 31
0.0
 12
590.5133924314664
 22
79.365995893253242
 32
0.0
 13
590.5133924314664
 23
79.365995893253242
 33
0.0
210
0.0
220
0.0
230
-1.0
  0
SOLID
  5
69F
  8
0
  6
CONTINUOUS
 10
-591.89225318277101
 20
79.365995893253242
 30
0.0
 11
-591.92621246009173
 21
79.238046162128185
 31
0.0
 12
-590.76997576354324
 22
79.238046162128185
 32
0.0
 13
-590.76997576354324
 23
79.238046162128185
 33
0.0
210
0.0
220
0.0
230
1.0
  0
SOLID
  5
6A0
  8
0
  6
CONTINUOUS
 10
591.89225318277101
 20
79.365995893253242
 30
0.0
 11
590.5133924314664
 21
79.365995893253242
 31
0.0
 12
590.76997576354324
 22
79.238046162128185
 32
0.0
 13
590.76997576354324
 23
79.238046162128185
 33
0.0
210
0.0
220
0.0
230
-1.0
  0
SOLID
  5
6A1
  8
0
  6
CONTINUOUS
 10
-577.2671924934134
 20
79.385908561145854
 30
0.0
 11
-576.93097669135045
 21
79.191794277318891
 31
0.0
 12
-575.80299536765096
 22
79.191794277318891
 32
0.0
 13
-575.80299536765096
 23
79.191794277318891
 33
0.0
210
0.0
220
0.0
230
1.0
  0
SOLID
  5
6A2
  8
0
  6
CONTINUOUS
 10
577.2671924934134
 20
79.385908561145854
 30
0.0
 11
575.88340013666266
 21
79.385908561145854
 31
0.0
 12
575.80299536765096
 22
79.191794277318891
 32
0.0
 13
575.80299536765096
 23
79.191794277318891
 33
0.0
210
0.0
220
0.0
230
-1.0
  0
SOLID
  5
6A3
  8
0
  6
CONTINUOUS
 10
-576.93097669135045
 20
79.191794277318891
 30
0.0
 11
-576.88629165288478
 21
79.114397520358466
 31
0.0
 12
-575.77093658123442
 22
79.114397520358466
 32
0.0
 13
-575.77093658123442
 23
79.114397520358466
 33
0.0
  0
SOLID
  5
6A4
  8
0
  6
CONTINUOUS
 10
576.93097669135045
 20
79.191794277318891
 30
0.0
 11
575.80299536765096
 21
79.191794277318891
 31
0.0
 12
575.77093658123442
 22
79.114397520358466
 32
0.0
 13
575.77093658123442
 23
79.114397520358466
 33
0.0
210
0.0
220
0.0
230
-1.0
  0
SOLID
  5
6A5
  8
0
  6
CONTINUOUS
 10
-591.92621246009173
 20
79.238046162128185
 30
0.0
 11
-591.99910491155197
 21
78.963406349352169
 31
0.0
 12
-590.97687257387565
 22
78.963406349352169
 32
0.0
 13
-590.97687257387565
 23
78.963406349352169
 33
0.0
210
0.0
220
0.0
230
1.0
  0
SOLID
  5
6A6
  8
0
  6
CONTINUOUS
 10
591.92621246009173
 20
79.238046162128185
 30
0.0
 11
590.76997576354324
 21
79.238046162128185
 31
0.0
 12
590.97687257387565
 22
78.963406349352169
 32
0.0
 13
590.97687257387565
 23
78.963406349352169
 33
0.0
210
0.0
220
0.0
230
-1.0
  0
SOLID
  5
6A7
  8
0
  6
CONTINUOUS
 10
-576.88629165288478
 20
79.114397520358466
 30
0.0
 11
-576.7368624075234
 21
78.855578475255854
 31
0.0
 12
-575.73686240752329
 22
78.855578475255854
 32
0.0
 13
-575.73686240752329
 23
78.855578475255854
 33
0.0
210
0.0
220
0.0
230
1.0
  0
SOLID
  5
6A8
  8
0
  6
CONTINUOUS
 10
576.88629165288478
 20
79.114397520358466
 30
0.0
 11
575.77093658123442
 21
79.114397520358466
 31
0.0
 12
575.73686240752329
 22
78.855578475255854
 32
0.0
 13
575.73686240752329
 23
78.855578475255854
 33
0.0
210
0.0
220
0.0
230
-1.0
  0
SOLID
  5
6A9
  8
0
  6
CONTINUOUS
 10
-591.99910491155197
 20
78.963406349352169
 30
0.0
 11
-592.04892390537782
 21
78.775701328284185
 31
0.0
 12
-591.0119758069859
 22
78.775701328284185
 32
0.0
 13
-591.0119758069859
 23
78.775701328284185
 33
0.0
210
0.0
220
0.0
230
1.0
  0
SOLID
  5
6AA
  8
0
  6
CONTINUOUS
 10
591.99910491155197
 20
78.963406349352169
 30
0.0
 11
590.97687257387565
 21
78.963406349352169
 31
0.0
 12
591.0119758069859
 22
78.775701328284185
 32
0.0
 13
591.0119758069859
 23
78.775701328284185
 33
0.0
210
0.0
220
0.0
230
-1.0
  0
SOLID
  5
6AB
  8
0
  6
CONTINUOUS
 10
-576.7368624075234
 20
78.855578475255854
 30
0.0
 11
-576.71130677724022
 21
78.661464191429019
 31
0.0
 12
-575.71130677724022
 22
78.661464191429019
 32
0.0
 13
-575.71130677724022
 23
78.661464191429019
 33
0.0
210
0.0
220
0.0
230
1.0
  0
SOLID
  5
6AC
  8
0
  6
CONTINUOUS
 10
576.7368624075234
 20
78.855578475255854
 30
0.0
 11
575.73686240752329
 21
78.855578475255854
 31
0.0
 12
575.71130677724022
 22
78.661464191429019
 32
0.0
 13
575.71130677724022
 23
78.661464191429019
 33
0.0
210
0.0
220
0.0
230
-1.0
  0
SOLID
  5
6AD
  8
0
  6
CONTINUOUS
 10
-576.71130677724022
 20
78.661464191429019
 30
0.0
 11
-576.71130677724022
 21
76.000740090304674
 31
0.0
 12
-575.71130677724022
 22
76.000740090304674
 32
0.0
 13
-575.71130677724022
 23
76.000740090304674
 33
0.0
210
0.0
220
0.0
230
1.0
  0
SOLID
  5
6AE
  8
0
  6
CONTINUOUS
 10
576.71130677724022
 20
78.661464191429019
 30
0.0
 11
575.71130677724022
 21
78.661464191429019
 31
0.0
 12
575.71130677724022
 22
76.000740090304674
 32
0.0
 13
575.71130677724022
 23
76.000740090304674
 33
0.0
210
0.0
220
0.0
230
-1.0
  0
SOLID
  5
6AF
  8
0
  6
CONTINUOUS
 10
-592.04892390537782
 20
78.775701328284185
 30
0.0
 11
-594.00700361319184
 21
68.198688275643903
 31
0.0
 12
-592.99001215722774
 22
68.198688275643903
 32
0.0
 13
-592.99001215722774
 23
68.198688275643903
 33
0.0
210
0.0
220
0.0
230
1.0
  0
SOLID
  5
6B0
  8
0
  6
CONTINUOUS
 10
592.04892390537782
 20
78.775701328284185
 30
0.0
 11
591.0119758069859
 21
78.775701328284185
 31
0.0
 12
592.99001215722774
 22
68.198688275643903
 32
0.0
 13
592.99001215722774
 23
68.198688275643903
 33
0.0
210
0.0
220
0.0
230
-1.0
  0
SOLID
  5
6B1
  8
0
  6
CONTINUOUS
 10
-594.00700361319184
 20
68.198688275643903
 30
0.0
 11
-594.04612532181693
 21
67.987363465362748
 31
0.0
 12
-593.01599294923415
 22
67.987363465362748
 32
0.0
 13
-593.01599294923415
 23
67.987363465362748
 33
0.0
210
0.0
220
0.0
230
1.0
  0
SOLID
  5
6B2
  8
0
  6
CONTINUOUS
 10
594.00700361319184
 20
68.198688275643903
 30
0.0
 11
592.99001215722774
 21
68.198688275643903
 31
0.0
 12
593.01599294923415
 22
67.987363465362748
 32
0.0
 13
593.01599294923415
 23
67.987363465362748
 33
0.0
210
0.0
220
0.0
230
-1.0
  0
SOLID
  5
6B3
  8
0
  6
CONTINUOUS
 10
-594.04612532181693
 20
67.987363465362748
 30
0.0
 11
-594.08435155780148
 21
67.390229448232617
 31
0.0
 12
-593.08940607416912
 22
67.390229448232617
 32
0.0
 13
-593.08940607416912
 23
67.390229448232617
 33
0.0
210
0.0
220
0.0
230
1.0
  0
SOLID
  5
6B4
  8
0
  6
CONTINUOUS
 10
594.04612532181693
 20
67.987363465362748
 30
0.0
 11
593.01599294923415
 21
67.987363465362748
 31
0.0
 12
593.08940607416912
 22
67.390229448232617
 32
0.0
 13
593.08940607416912
 23
67.390229448232617
 33
0.0
210
0.0
220
0.0
230
-1.0
  0
SOLID
  5
6B5
  8
0
  6
CONTINUOUS
 10
-594.08435155780148
 20
67.390229448232617
 30
0.0
 11
-594.08788317976166
 21
67.335061798223563
 31
0.0
 12
-593.07969062408495
 22
67.335061798223563
 32
0.0
 13
-593.07969062408495
 23
67.335061798223563
 33
0.0
210
0.0
220
0.0
230
1.0
  0
SOLID
  5
6B6
  8
0
  6
CONTINUOUS
 10
594.08435155780148
 20
67.390229448232617
 30
0.0
 11
593.08940607416912
 21
67.390229448232617
 31
0.0
 12
593.07969062408495
 22
67.335061798223563
 32
0.0
 13
593.07969062408495
 23
67.335061798223563
 33
0.0
210
0.0
220
0.0
230
-1.0
  0
SOLID
  5
6B7
  8
0
  6
CONTINUOUS
 10
-594.08788317976166
 20
67.335061798223563
 30
0.0
 11
-594.02545664579054
 21
66.980582577230706
 31
0.0
 12
-593.01726409011394
 22
66.980582577230706
 32
0.0
 13
-593.01726409011394
 23
66.980582577230706
 33
0.0
210
0.0
220
0.0
230
1.0
  0
SOLID
  5
6B8
  8
0
  6
CONTINUOUS
 10
594.08788317976166
 20
67.335061798223563
 30
0.0
 11
593.07969062408495
 21
67.335061798223563
 31
0.0
 12
593.01726409011394
 22
66.980582577230706
 32
0.0
 13
593.01726409011394
 23
66.980582577230706
 33
0.0
210
0.0
220
0.0
230
-1.0
  0
SOLID
  5
6B9
  8
0
  6
CONTINUOUS
 10
-594.02545664579054
 20
66.980582577230706
 30
0.0
 11
-593.97451720481774
 21
66.691331000934738
 31
0.0
 12
-592.89066170266324
 22
66.691331000934738
 32
0.0
 13
-592.89066170266324
 23
66.691331000934738
 33
0.0
  0
SOLID
  5
6BA
  8
0
  6
CONTINUOUS
 10
594.02545664579054
 20
66.980582577230706
 30
0.0
 11
593.01726409011394
 21
66.980582577230706
 31
0.0
 12
592.89066170266324
 22
66.691331000934738
 32
0.0
 13
592.89066170266324
 23
66.691331000934738
 33
0.0
210
0.0
220
0.0
230
-1.0
  0
SOLID
  5
6BB
  8
0
  6
CONTINUOUS
 10
-593.97451720481774
 20
66.691331000934738
 30
0.0
 11
-593.93433808171847
 21
66.599532774024041
 31
0.0
 12
-592.85048257956396
 22
66.599532774024041
 32
0.0
 13
-592.85048257956396
 23
66.599532774024041
 33
0.0
210
0.0
220
0.0
230
1.0
  0
SOLID
  5
6BC
  8
0
  6
CONTINUOUS
 10
593.97451720481774
 20
66.691331000934738
 30
0.0
 11
592.89066170266324
 21
66.691331000934738
 31
0.0
 12
592.85048257956396
 22
66.599532774024041
 32
0.0
 13
592.85048257956396
 23
66.599532774024041
 33
0.0
210
0.0
220
0.0
230
-1.0
  0
SOLID
  5
6BD
  8
0
  6
CONTINUOUS
 10
-593.93433808171847
 20
66.599532774024041
 30
0.0
 11
-593.78949548015987
 21
66.268607333680819
 31
0.0
 12
-592.59848381425184
 22
66.268607333680819
 32
0.0
 13
-592.59848381425184
 23
66.268607333680819
 33
0.0
210
0.0
220
0.0
230
1.0
  0
SOLID
  5
6BE
  8
0
  6
CONTINUOUS
 10
593.93433808171847
 20
66.599532774024041
 30
0.0
 11
592.85048257956396
 21
66.599532774024041
 31
0.0
 12
592.59848381425184
 22
66.268607333680819
 32
0.0
 13
592.59848381425184
 23
66.268607333680819
 33
0.0
210
0.0
220
0.0
230
-1.0
  0
SOLID
  5
6BF
  8
0
  6
CONTINUOUS
 10
-593.78949548015987
 20
66.268607333680819
 30
0.0
 11
-593.71243197395358
 21
66.092538453038955
 31
0.0
 12
-592.32368785884807
 22
66.092538453038955
 32
0.0
 13
-592.32368785884807
 23
66.092538453038955
 33
0.0
210
0.0
220
0.0
230
1.0
  0
SOLID
  5
6C0
  8
0
  6
CONTINUOUS
 10
593.78949548015987
 20
66.268607333680819
 30
0.0
 11
592.59848381425184
 21
66.268607333680819
 31
0.0
 12
592.32368785884807
 22
66.092538453038955
 32
0.0
 13
592.32368785884807
 23
66.092538453038955
 33
0.0
210
0.0
220
0.0
230
-1.0
  0
SOLID
  5
6C1
  8
0
  6
CONTINUOUS
 10
-593.71243197395358
 20
66.092538453038955
 30
0.0
 11
-593.31643391417754
 21
65.572512761071138
 31
0.0
 12
-591.51206824533188
 22
65.572512761071138
 32
0.0
 13
-591.51206824533188
 23
65.572512761071138
 33
0.0
210
0.0
220
0.0
230
1.0
  0
SOLID
  5
6C2
  8
0
  6
CONTINUOUS
 10
593.71243197395358
 20
66.092538453038955
 30
0.0
 11
592.32368785884807
 21
66.092538453038955
 31
0.0
 12
591.51206824533188
 22
65.572512761071138
 32
0.0
 13
591.51206824533188
 23
65.572512761071138
 33
0.0
210
0.0
220
0.0
230
-1.0
  0
SOLID
  5
6C3
  8
0
  6
CONTINUOUS
 10
-593.31643391417754
 20
65.572512761071138
 30
0.0
 11
-592.80889481785744
 21
65.160632621516612
 31
0.0
 12
-590.86923462221762
 22
65.160632621516612
 32
0.0
 13
-590.86923462221762
 23
65.160632621516612
 33
0.0
210
0.0
220
0.0
230
1.0
  0
SOLID
  5
6C4
  8
0
  6
CONTINUOUS
 10
593.31643391417754
 20
65.572512761071138
 30
0.0
 11
591.51206824533188
 21
65.572512761071138
 31
0.0
 12
590.86923462221762
 22
65.160632621516612
 32
0.0
 13
590.86923462221762
 23
65.160632621516612
 33
0.0
210
0.0
220
0.0
230
-1.0
  0
SOLID
  5
6C5
  8
0
  6
CONTINUOUS
 10
-462.30000000000149
 20
63.996774167516072
 30
0.0
 11
-462.88234285148252
 21
63.920107276666428
 31
0.0
 12
-461.71765714852052
 22
63.920107276666428
 32
0.0
 13
-461.71765714852052
 23
63.920107276666428
 33
0.0
210
0.0
220
0.0
230
1.0
  0
SOLID
  5
6C6
  8
0
  6
CONTINUOUS
 10
-462.88234285148252
 20
63.920107276666428
 30
0.0
 11
-463.42500000000189
 21
63.695331326030889
 31
0.0
 12
-461.17500000000098
 22
63.695331326030889
 32
0.0
 13
-461.17500000000098
 23
63.695331326030889
 33
0.0
210
0.0
220
0.0
230
1.0
  0
SOLID
  5
6C7
  8
0
  6
CONTINUOUS
 10
462.88234285148252
 20
63.920107276666428
 30
0.0
 11
461.71765714852052
 21
63.920107276666428
 31
0.0
 12
461.17500000000098
 22
63.695331326030889
 32
0.0
 13
461.17500000000098
 23
63.695331326030889
 33
0.0
210
0.0
220
0.0
230
-1.0
  0
SOLID
  5
6C8
  8
0
  6
CONTINUOUS
 10
-463.42500000000189
 20
63.695331326030889
 30
0.0
 11
-463.89099025767177
 21
63.33776442518559
 31
0.0
 12
-460.70900974233098
 22
63.33776442518559
 32
0.0
 13
-460.70900974233098
 23
63.33776442518559
 33
0.0
210
0.0
220
0.0
230
1.0
  0
SOLID
  5
6C9
  8
0
  6
CONTINUOUS
 10
463.42500000000189
 20
63.695331326030889
 30
0.0
 11
461.17500000000098
 21
63.695331326030889
 31
0.0
 12
460.70900974233098
 22
63.33776442518559
 32
0.0
 13
460.70900974233098
 23
63.33776442518559
 33
0.0
210
0.0
220
0.0
230
-1.0
  0
SOLID
  5
6CA
  8
0
  6
CONTINUOUS
 10
-463.89099025767177
 20
63.33776442518559
 30
0.0
 11
-464.15264128501951
 21
62.996774167516008
 31
0.0
 12
-460.4473587149833
 22
62.996774167516008
 32
0.0
 13
-460.4473587149833
 23
62.996774167516008
 33
0.0
210
0.0
220
0.0
230
1.0
  0
SOLID
  5
6CB
  8
0
  6
CONTINUOUS
 10
463.89099025767177
 20
63.33776442518559
 30
0.0
 11
460.70900974233098
 21
63.33776442518559
 31
0.0
 12
460.4473587149833
 22
62.996774167516008
 32
0.0
 13
460.4473587149833
 23
62.996774167516008
 33
0.0
210
0.0
220
0.0
230
-1.0
  0
SOLID
  5
6CC
  8
0
  6
CONTINUOUS
 10
-462.30000000000149
 20
62.996774167516008
 30
0.0
 11
-461.976476193623
 21
62.954181450377348
 31
0.0
 12
-460.41467617363139
 22
62.954181450377348
 32
0.0
 13
-460.41467617363139
 23
62.954181450377348
 33
0.0
  0
SOLID
  5
6CD
  8
0
  6
CONTINUOUS
 10
462.30000000000149
 20
62.996774167516008
 30
0.0
 11
460.4473587149833
 21
62.996774167516008
 31
0.0
 12
460.41467617363139
 22
62.954181450377348
 32
0.0
 13
460.41467617363139
 23
62.954181450377348
 33
0.0
210
0.0
220
0.0
230
-1.0
  0
SOLID
  5
6CE
  8
0
  6
CONTINUOUS
 10
-464.15264128501951
 20
62.996774167516008
 30
0.0
 11
-464.1853238263713
 21
62.954181450377348
 31
0.0
 12
-462.62352380637981
 22
62.954181450377348
 32
0.0
 13
-462.62352380637981
 23
62.954181450377348
 33
0.0
210
0.0
220
0.0
230
1.0
  0
SOLID
  5
6CF
  8
0
  6
CONTINUOUS
 10
464.15264128501951
 20
62.996774167516008
 30
0.0
 11
462.30000000000149
 21
62.996774167516008
 31
0.0
 12
462.62352380637981
 22
62.954181450377348
 32
0.0
 13
462.62352380637981
 23
62.954181450377348
 33
0.0
210
0.0
220
0.0
230
-1.0
  0
SOLID
  5
6D0
  8
0
  6
CONTINUOUS
 10
-461.976476193623
 20
62.954181450377348
 30
0.0
 11
-461.77752741370011
 21
62.871774167515639
 31
0.0
 12
-460.35144284148572
 22
62.871774167515639
 32
0.0
 13
-460.35144284148572
 23
62.871774167515639
 33
0.0
210
0.0
220
0.0
230
1.0
  0
SOLID
  5
6D1
  8
0
  6
CONTINUOUS
 10
461.976476193623
 20
62.954181450377348
 30
0.0
 11
460.41467617363139
 21
62.954181450377348
 31
0.0
 12
460.35144284148572
 22
62.871774167515639
 32
0.0
 13
460.35144284148572
 23
62.871774167515639
 33
0.0
210
0.0
220
0.0
230
-1.0
  0
SOLID
  5
6D2
  8
0
  6
CONTINUOUS
 10
-464.1853238263713
 20
62.954181450377348
 30
0.0
 11
-464.24855715851709
 21
62.871774167515639
 31
0.0
 12
-462.82247258630281
 22
62.871774167515639
 32
0.0
 13
-462.82247258630281
 23
62.871774167515639
 33
0.0
210
0.0
220
0.0
230
1.0
  0
SOLID
  5
6D3
  8
0
  6
CONTINUOUS
 10
464.1853238263713
 20
62.954181450377348
 30
0.0
 11
462.62352380637981
 21
62.954181450377348
 31
0.0
 12
462.82247258630281
 22
62.871774167515639
 32
0.0
 13
462.82247258630281
 23
62.871774167515639
 33
0.0
210
0.0
220
0.0
230
-1.0
  0
SOLID
  5
6D4
  8
0
  6
CONTINUOUS
 10
-461.77752741370011
 20
62.871774167515639
 30
0.0
 11
-461.67500000000098
 21
62.829305922246419
 31
0.0
 12
-460.33385191832502
 22
62.829305922246419
 32
0.0
 13
-460.33385191832502
 23
62.829305922246419
 33
0.0
210
0.0
220
0.0
230
1.0
  0
SOLID
  5
6D5
  8
0
  6
CONTINUOUS
 10
461.77752741370011
 20
62.871774167515639
 30
0.0
 11
460.35144284148572
 21
62.871774167515639
 31
0.0
 12
460.33385191832502
 22
62.829305922246419
 32
0.0
 13
460.33385191832502
 23
62.829305922246419
 33
0.0
210
0.0
220
0.0
230
-1.0
  0
SOLID
  5
6D6
  8
0
  6
CONTINUOUS
 10
-464.24855715851709
 20
62.871774167515639
 30
0.0
 11
-464.26614808167778
 21
62.829305922246419
 31
0.0
 12
-462.925000000002
 22
62.829305922246419
 32
0.0
 13
-462.925000000002
 23
62.829305922246419
 33
0.0
  0
SOLID
  5
6D7
  8
0
  6
CONTINUOUS
 10
464.24855715851709
 20
62.871774167515639
 30
0.0
 11
462.82247258630281
 21
62.871774167515639
 31
0.0
 12
462.925000000002
 22
62.829305922246419
 32
0.0
 13
462.925000000002
 23
62.829305922246419
 33
0.0
210
0.0
220
0.0
230
-1.0
  0
SOLID
  5
6D8
  8
0
  6
CONTINUOUS
 10
-461.67500000000098
 20
62.829305922246419
 30
0.0
 11
-461.41611652351759
 21
62.630657643998859
 31
0.0
 12
-460.25156910733273
 22
62.630657643998859
 32
0.0
 13
-460.25156910733273
 23
62.630657643998859
 33
0.0
210
0.0
220
0.0
230
1.0
  0
SOLID
  5
6D9
  8
0
  6
CONTINUOUS
 10
461.67500000000098
 20
62.829305922246419
 30
0.0
 11
460.33385191832502
 21
62.829305922246419
 31
0.0
 12
460.25156910733273
 22
62.630657643998859
 32
0.0
 13
460.25156910733273
 23
62.630657643998859
 33
0.0
210
0.0
220
0.0
230
-1.0
  0
SOLID
  5
6DA
  8
0
  6
CONTINUOUS
 10
-464.26614808167778
 20
62.829305922246419
 30
0.0
 11
-464.34843089267008
 21
62.630657643998859
 31
0.0
 12
-463.18388347648528
 22
62.630657643998859
 32
0.0
 13
-463.18388347648528
 23
62.630657643998859
 33
0.0
210
0.0
220
0.0
230
1.0
  0
SOLID
  5
6DB
  8
0
  6
CONTINUOUS
 10
464.26614808167778
 20
62.829305922246419
 30
0.0
 11
462.925000000002
 21
62.829305922246419
 31
0.0
 12
463.18388347648528
 22
62.630657643998859
 32
0.0
 13
463.18388347648528
 23
62.630657643998859
 33
0.0
210
0.0
220
0.0
230
-1.0
  0
SOLID
  5
6DC
  8
0
  6
CONTINUOUS
 10
-592.80889481785744
 20
65.160632621516612
 30
0.0
 11
-588.71176953181862
 21
62.577056469710357
 31
0.0
 12
-586.83697023565662
 22
62.577056469710357
 32
0.0
 13
-586.83697023565662
 23
62.577056469710357
 33
0.0
210
0.0
220
0.0
230
1.0
  0
SOLID
  5
6DD
  8
0
  6
CONTINUOUS
 10
592.80889481785744
 20
65.160632621516612
 30
0.0
 11
590.86923462221762
 21
65.160632621516612
 31
0.0
 12
586.83697023565662
 22
62.577056469710357
 32
0.0
 13
586.83697023565662
 23
62.577056469710357
 33
0.0
210
0.0
220
0.0
230
-1.0
  0
SOLID
  5
6DE
  8
0
  6
CONTINUOUS
 10
-461.41611652351759
 20
62.630657643998859
 30
0.0
 11
-461.21746824527008
 21
62.371774167515611
 31
0.0
 12
-460.14433606029911
 22
62.371774167515611
 32
0.0
 13
-460.14433606029911
 23
62.371774167515611
 33
0.0
210
0.0
220
0.0
230
1.0
  0
SOLID
  5
6DF
  8
0
  6
CONTINUOUS
 10
461.41611652351759
 20
62.630657643998859
 30
0.0
 11
460.25156910733273
 21
62.630657643998859
 31
0.0
 12
460.14433606029911
 22
62.371774167515611
 32
0.0
 13
460.14433606029911
 23
62.371774167515611
 33
0.0
210
0.0
220
0.0
230
-1.0
  0
SOLID
  5
6E0
  8
0
  6
CONTINUOUS
 10
-464.34843089267008
 20
62.630657643998859
 30
0.0
 11
-464.45566393970381
 21
62.371774167515611
 31
0.0
 12
-463.38253175473278
 22
62.371774167515611
 32
0.0
 13
-463.38253175473278
 23
62.371774167515611
 33
0.0
210
0.0
220
0.0
230
1.0
  0
SOLID
  5
6E1
  8
0
  6
CONTINUOUS
 10
464.34843089267008
 20
62.630657643998859
 30
0.0
 11
463.18388347648528
 21
62.630657643998859
 31
0.0
 12
463.38253175473278
 22
62.371774167515611
 32
0.0
 13
463.38253175473278
 23
62.371774167515611
 33
0.0
210
0.0
220
0.0
230
-1.0
  0
SOLID
  5
6E2
  8
0
  6
CONTINUOUS
 10
-461.21746824527008
 20
62.371774167515611
 30
0.0
 11
-461.19979907582109
 21
62.329117018996058
 31
0.0
 12
-460.12666689085012
 22
62.329117018996058
 32
0.0
 13
-460.12666689085012
 23
62.329117018996058
 33
0.0
210
0.0
220
0.0
230
1.0
  0
SOLID
  5
6E3
  8
0
  6
CONTINUOUS
 10
461.21746824527008
 20
62.371774167515611
 30
0.0
 11
460.14433606029911
 21
62.371774167515611
 31
0.0
 12
460.12666689085012
 22
62.329117018996058
 32
0.0
 13
460.12666689085012
 23
62.329117018996058
 33
0.0
210
0.0
220
0.0
230
-1.0
  0
SOLID
  5
6E4
  8
0
  6
CONTINUOUS
 10
-464.45566393970381
 20
62.371774167515611
 30
0.0
 11
-464.47333310915269
 21
62.329117018996058
 31
0.0
 12
-463.40020092418177
 22
62.329117018996058
 32
0.0
 13
-463.40020092418177
 23
62.329117018996058
 33
0.0
210
0.0
220
0.0
230
1.0
  0
SOLID
  5
6E5
  8
0
  6
CONTINUOUS
 10
464.45566393970381
 20
62.371774167515611
 30
0.0
 11
463.38253175473278
 21
62.371774167515611
 31
0.0
 12
463.40020092418177
 22
62.329117018996058
 32
0.0
 13
463.40020092418177
 23
62.329117018996058
 33
0.0
210
0.0
220
0.0
230
-1.0
  0
SOLID
  5
6E6
  8
0
  6
CONTINUOUS
 10
-461.19979907582109
 20
62.329117018996058
 30
0.0
 11
-461.09259271713921
 21
62.07029797389356
 31
0.0
 12
-460.09259271713933
 22
62.07029797389356
 32
0.0
 13
-460.09259271713933
 23
62.07029797389356
 33
0.0
210
0.0
220
0.0
230
1.0
  0
SOLID
  5
6E7
  8
0
  6
CONTINUOUS
 10
461.19979907582109
 20
62.329117018996058
 30
0.0
 11
460.12666689085012
 21
62.329117018996058
 31
0.0
 12
460.09259271713933
 22
62.07029797389356
 32
0.0
 13
460.09259271713933
 23
62.07029797389356
 33
0.0
210
0.0
220
0.0
230
-1.0
  0
SOLID
  5
6E8
  8
0
  6
CONTINUOUS
 10
-464.47333310915269
 20
62.329117018996058
 30
0.0
 11
-464.50740728286371
 21
62.07029797389356
 31
0.0
 12
-463.5074072828636
 22
62.07029797389356
 32
0.0
 13
-463.5074072828636
 23
62.07029797389356
 33
0.0
  0
SOLID
  5
6E9
  8
0
  6
CONTINUOUS
 10
464.47333310915269
 20
62.329117018996058
 30
0.0
 11
463.40020092418177
 21
62.329117018996058
 31
0.0
 12
463.5074072828636
 22
62.07029797389356
 32
0.0
 13
463.5074072828636
 23
62.07029797389356
 33
0.0
210
0.0
220
0.0
230
-1.0
  0
SOLID
  5
6EA
  8
0
  6
CONTINUOUS
 10
-461.09259271713921
 20
62.07029797389356
 30
0.0
 11
-461.05000000000058
 21
61.746774167515213
 31
0.0
 12
-460.05000000000052
 22
61.746774167515213
 32
0.0
 13
-460.05000000000052
 23
61.746774167515213
 33
0.0
210
0.0
220
0.0
230
1.0
  0
SOLID
  5
6EB
  8
0
  6
CONTINUOUS
 10
461.09259271713921
 20
62.07029797389356
 30
0.0
 11
460.09259271713933
 21
62.07029797389356
 31
0.0
 12
460.05000000000052
 22
61.746774167515213
 32
0.0
 13
460.05000000000052
 23
61.746774167515213
 33
0.0
210
0.0
220
0.0
230
-1.0
  0
SOLID
  5
6EC
  8
0
  6
CONTINUOUS
 10
-464.50740728286371
 20
62.07029797389356
 30
0.0
 11
-464.55000000000251
 21
61.746774167515213
 31
0.0
 12
-463.50999574841268
 22
61.746774167515213
 32
0.0
 13
-463.50999574841268
 23
61.746774167515213
 33
0.0
210
0.0
220
0.0
230
1.0
  0
SOLID
  5
6ED
  8
0
  6
CONTINUOUS
 10
464.50740728286371
 20
62.07029797389356
 30
0.0
 11
463.5074072828636
 21
62.07029797389356
 31
0.0
 12
463.50999574841268
 22
61.746774167515213
 32
0.0
 13
463.50999574841268
 23
61.746774167515213
 33
0.0
210
0.0
220
0.0
230
-1.0
  0
SOLID
  5
6EE
  8
0
  6
CONTINUOUS
 10
-588.71176953181862
 20
62.577056469710357
 30
0.0
 11
-587.3703606641933
 21
61.731187300898959
 31
0.0
 12
-585.66951618625103
 22
61.731187300898959
 32
0.0
 13
-585.66951618625103
 23
61.731187300898959
 33
0.0
210
0.0
220
0.0
230
1.0
  0
SOLID
  5
6EF
  8
0
  6
CONTINUOUS
 10
588.71176953181862
 20
62.577056469710357
 30
0.0
 11
586.83697023565662
 21
62.577056469710357
 31
0.0
 12
585.66951618625103
 22
61.731187300898959
 32
0.0
 13
585.66951618625103
 23
61.731187300898959
 33
0.0
210
0.0
220
0.0
230
-1.0
  0
SOLID
  5
6F0
  8
0
  6
CONTINUOUS
 10
-587.3703606641933
 20
61.731187300898959
 30
0.0
 11
-585.42109144315168
 21
60.318860420340897
 31
0.0
 12
-583.72024696520953
 22
60.318860420340897
 32
0.0
 13
-583.72024696520953
 23
60.318860420340897
 33
0.0
210
0.0
220
0.0
230
1.0
  0
SOLID
  5
6F1
  8
0
  6
CONTINUOUS
 10
587.3703606641933
 20
61.731187300898959
 30
0.0
 11
585.66951618625103
 21
61.731187300898959
 31
0.0
 12
583.72024696520953
 22
60.318860420340897
 32
0.0
 13
583.72024696520953
 23
60.318860420340897
 33
0.0
210
0.0
220
0.0
230
-1.0
  0
SOLID
  5
6F2
  8
0
  6
CONTINUOUS
 10
-585.42109144315168
 20
60.318860420340897
 30
0.0
 11
-584.35666956797604
 21
59.547642360599909
 31
0.0
 12
-582.89544810790107
 22
59.547642360599909
 32
0.0
 13
-582.89544810790107
 23
59.547642360599909
 33
0.0
210
0.0
220
0.0
230
1.0
  0
SOLID
  5
6F3
  8
0
  6
CONTINUOUS
 10
585.42109144315168
 20
60.318860420340897
 30
0.0
 11
583.72024696520953
 21
60.318860420340897
 31
0.0
 12
582.89544810790107
 22
59.547642360599909
 32
0.0
 13
582.89544810790107
 23
59.547642360599909
 33
0.0
210
0.0
220
0.0
230
-1.0
  0
SOLID
  5
6F4
  8
0
  6
CONTINUOUS
 10
-584.35666956797604
 20
59.547642360599909
 30
0.0
 11
-582.41426267394263
 21
57.731418607656451
 31
0.0
 12
-580.95304121386755
 22
57.731418607656451
 32
0.0
 13
-580.95304121386755
 23
57.731418607656451
 33
0.0
210
0.0
220
0.0
230
1.0
  0
SOLID
  5
6F5
  8
0
  6
CONTINUOUS
 10
584.35666956797604
 20
59.547642360599909
 30
0.0
 11
582.89544810790107
 21
59.547642360599909
 31
0.0
 12
580.95304121386755
 22
57.731418607656451
 32
0.0
 13
580.95304121386755
 23
57.731418607656451
 33
0.0
210
0.0
220
0.0
230
-1.0
  0
SOLID
  5
6F6
  8
0
  6
CONTINUOUS
 10
-582.41426267394263
 20
57.731418607656451
 30
0.0
 11
-581.6809416927116
 21
57.045735814450381
 31
0.0
 12
-580.38524380978299
 22
57.045735814450381
 32
0.0
 13
-580.38524380978299
 23
57.045735814450381
 33
0.0
210
0.0
220
0.0
230
1.0
  0
SOLID
  5
6F7
  8
0
  6
CONTINUOUS
 10
582.41426267394263
 20
57.731418607656451
 30
0.0
 11
580.95304121386755
 21
57.731418607656451
 31
0.0
 12
580.38524380978299
 22
57.045735814450381
 32
0.0
 13
580.38524380978299
 23
57.045735814450381
 33
0.0
210
0.0
220
0.0
230
-1.0
  0
SOLID
  5
6F8
  8
0
  6
CONTINUOUS
 10
-464.55000000000251
 20
61.746774167515213
 30
0.0
 11
-464.55000000000251
 21
56.746774167515142
 31
0.0
 12
-463.5500000000024
 22
56.746774167515142
 32
0.0
 13
-463.5500000000024
 23
56.746774167515142
 33
0.0
210
0.0
220
0.0
230
1.0
  0
SOLID
  5
6F9
  8
0
  6
CONTINUOUS
 10
464.55000000000251
 20
61.746774167515213
 30
0.0
 11
463.50999574841268
 21
61.746774167515213
 31
0.0
 12
463.5500000000024
 22
56.746774167515142
 32
0.0
 13
463.5500000000024
 23
56.746774167515142
 33
0.0
210
0.0
220
0.0
230
-1.0
  0
SOLID
  5
6FA
  8
0
  6
CONTINUOUS
 10
-581.6809416927116
 20
57.045735814450381
 30
0.0
 11
-579.81324934043937
 21
54.790275504588081
 31
0.0
 12
-578.5175514575111
 22
54.790275504588081
 32
0.0
 13
-578.5175514575111
 23
54.790275504588081
 33
0.0
210
0.0
220
0.0
230
1.0
  0
SOLID
  5
6FB
  8
0
  6
CONTINUOUS
 10
581.6809416927116
 20
57.045735814450381
 30
0.0
 11
580.38524380978299
 21
57.045735814450381
 31
0.0
 12
578.5175514575111
 22
54.790275504588081
 32
0.0
 13
578.5175514575111
 23
54.790275504588081
 33
0.0
210
0.0
220
0.0
230
-1.0
  0
SOLID
  5
6FC
  8
0
  6
CONTINUOUS
 10
-579.81324934043937
 20
54.790275504588081
 30
0.0
 11
-579.32596399441616
 21
54.201820582557822
 31
0.0
 12
-578.14301842901511
 22
54.201820582557822
 32
0.0
 13
-578.14301842901511
 23
54.201820582557822
 33
0.0
210
0.0
220
0.0
230
1.0
  0
SOLID
  5
6FD
  8
0
  6
CONTINUOUS
 10
579.81324934043937
 20
54.790275504588081
 30
0.0
 11
578.5175514575111
 21
54.790275504588081
 31
0.0
 12
578.14301842901511
 22
54.201820582557822
 32
0.0
 13
578.14301842901511
 23
54.201820582557822
 33
0.0
210
0.0
220
0.0
230
-1.0
  0
SOLID
  5
6FE
  8
0
  6
CONTINUOUS
 10
-461.05000000000058
 20
61.746774167515213
 30
0.0
 11
-461.05000000000058
 21
53.30802505108845
 31
0.0
 12
-460.05000000000052
 22
53.30802505108845
 32
0.0
 13
-460.05000000000052
 23
53.30802505108845
 33
0.0
210
0.0
220
0.0
230
1.0
  0
SOLID
  5
6FF
  8
0
  6
CONTINUOUS
 10
461.05000000000058
 20
61.746774167515213
 30
0.0
 11
460.05000000000052
 21
61.746774167515213
 31
0.0
 12
460.05000000000052
 22
53.30802505108845
 32
0.0
 13
460.05000000000052
 23
53.30802505108845
 33
0.0
210
0.0
220
0.0
230
-1.0
  0
SOLID
  5
700
  8
0
  6
CONTINUOUS
 10
-579.32596399441616
 20
54.201820582557822
 30
0.0
 11
-577.65012783390023
 21
51.568797692341761
 31
0.0
 12
-576.46718226849907
 22
51.568797692341761
 32
0.0
 13
-576.46718226849907
 23
51.568797692341761
 33
0.0
210
0.0
220
0.0
230
1.0
  0
SOLID
  5
701
  8
0
  6
CONTINUOUS
 10
579.32596399441616
 20
54.201820582557822
 30
0.0
 11
578.14301842901511
 21
54.201820582557822
 31
0.0
 12
576.46718226849907
 22
51.568797692341761
 32
0.0
 13
576.46718226849907
 23
51.568797692341761
 33
0.0
210
0.0
220
0.0
230
-1.0
  0
SOLID
  5
702
  8
0
  6
CONTINUOUS
 10
-577.65012783390023
 20
51.568797692341761
 30
0.0
 11
-577.34337560504105
 21
51.086837904600699
 31
0.0
 12
-576.24059447058062
 22
51.086837904600699
 32
0.0
 13
-576.24059447058062
 23
51.086837904600699
 33
0.0
210
0.0
220
0.0
230
1.0
  0
SOLID
  5
703
  8
0
  6
CONTINUOUS
 10
577.65012783390023
 20
51.568797692341761
 30
0.0
 11
576.46718226849907
 21
51.568797692341761
 31
0.0
 12
576.24059447058062
 22
51.086837904600699
 32
0.0
 13
576.24059447058062
 23
51.086837904600699
 33
0.0
210
0.0
220
0.0
230
-1.0
  0
SOLID
  5
704
  8
0
  6
CONTINUOUS
 10
-577.34337560504105
 20
51.086837904600699
 30
0.0
 11
-576.10666276910194
 21
48.456308540788953
 31
0.0
 12
-575.00388163464152
 22
48.456308540788953
 32
0.0
 13
-575.00388163464152
 23
48.456308540788953
 33
0.0
210
0.0
220
0.0
230
1.0
  0
SOLID
  5
705
  8
0
  6
CONTINUOUS
 10
577.34337560504105
 20
51.086837904600699
 30
0.0
 11
576.24059447058062
 21
51.086837904600699
 31
0.0
 12
575.00388163464152
 22
48.456308540788953
 32
0.0
 13
575.00388163464152
 23
48.456308540788953
 33
0.0
210
0.0
220
0.0
230
-1.0
  0
SOLID
  5
706
  8
0
  6
CONTINUOUS
 10
-576.10666276910194
 20
48.456308540788953
 30
0.0
 11
-575.78481565653624
 21
47.77172902025778
 31
0.0
 12
-574.77321098985442
 22
47.77172902025778
 32
0.0
 13
-574.77321098985442
 23
47.77172902025778
 33
0.0
210
0.0
220
0.0
230
1.0
  0
SOLID
  5
707
  8
0
  6
CONTINUOUS
 10
576.10666276910194
 20
48.456308540788953
 30
0.0
 11
575.00388163464152
 21
48.456308540788953
 31
0.0
 12
574.77321098985442
 22
47.77172902025778
 32
0.0
 13
574.77321098985442
 23
47.77172902025778
 33
0.0
210
0.0
220
0.0
230
-1.0
  0
SOLID
  5
708
  8
0
  6
CONTINUOUS
 10
-575.78481565653624
 20
47.77172902025778
 30
0.0
 11
-574.71366508972449
 21
44.480482156865499
 31
0.0
 12
-573.66421778546646
 22
44.480482156865499
 32
0.0
 13
-573.66421778546646
 23
44.480482156865499
 33
0.0
210
0.0
220
0.0
230
1.0
  0
SOLID
  5
709
  8
0
  6
CONTINUOUS
 10
575.78481565653624
 20
47.77172902025778
 30
0.0
 11
574.77321098985442
 21
47.77172902025778
 31
0.0
 12
573.66421778546646
 22
44.480482156865499
 32
0.0
 13
573.66421778546646
 23
44.480482156865499
 33
0.0
210
0.0
220
0.0
230
-1.0
  0
SOLID
  5
70A
  8
0
  6
CONTINUOUS
 10
-574.71366508972449
 20
44.480482156865499
 30
0.0
 11
-574.63307110491849
 21
44.232846849635962
 31
0.0
 12
-573.60092312139761
 22
44.232846849635962
 32
0.0
 13
-573.60092312139761
 23
44.232846849635962
 33
0.0
210
0.0
220
0.0
230
1.0
  0
SOLID
  5
70B
  8
0
  6
CONTINUOUS
 10
574.71366508972449
 20
44.480482156865499
 30
0.0
 11
573.66421778546646
 21
44.480482156865499
 31
0.0
 12
573.60092312139761
 22
44.232846849635962
 32
0.0
 13
573.60092312139761
 23
44.232846849635962
 33
0.0
210
0.0
220
0.0
230
-1.0
  0
SOLID
  5
70C
  8
0
  6
CONTINUOUS
 10
-574.63307110491849
 20
44.232846849635962
 30
0.0
 11
-569.34373791779672
 21
23.538754099449172
 31
0.0
 12
-568.31158993427573
 22
23.538754099449172
 32
0.0
 13
-568.31158993427573
 23
23.538754099449172
 33
0.0
210
0.0
220
0.0
230
1.0
  0
SOLID
  5
70D
  8
0
  6
CONTINUOUS
 10
574.63307110491849
 20
44.232846849635962
 30
0.0
 11
573.60092312139761
 21
44.232846849635962
 31
0.0
 12
568.31158993427573
 22
23.538754099449172
 32
0.0
 13
568.31158993427573
 23
23.538754099449172
 33
0.0
210
0.0
220
0.0
230
-1.0
  0
SOLID
  5
70E
  8
0
  6
CONTINUOUS
 10
-569.34373791779672
 20
23.538754099449172
 30
0.0
 11
-569.18550125762454
 21
22.91966583137507
 31
0.0
 12
-568.08835855907034
 22
22.91966583137507
 32
0.0
 13
-568.08835855907034
 23
22.91966583137507
 33
0.0
210
0.0
220
0.0
230
1.0
  0
SOLID
  5
70F
  8
0
  6
CONTINUOUS
 10
569.34373791779672
 20
23.538754099449172
 30
0.0
 11
568.31158993427573
 21
23.538754099449172
 31
0.0
 12
568.08835855907034
 22
22.91966583137507
 32
0.0
 13
568.08835855907034
 23
22.91966583137507
 33
0.0
210
0.0
220
0.0
230
-1.0
  0
SOLID
  5
710
  8
0
  6
CONTINUOUS
 10
-569.18550125762454
 20
22.91966583137507
 30
0.0
 11
-567.18912495653456
 21
17.486544773822981
 31
0.0
 12
-566.12927913876899
 22
17.486544773822981
 32
0.0
 13
-566.12927913876899
 23
17.486544773822981
 33
0.0
210
0.0
220
0.0
230
1.0
  0
SOLID
  5
711
  8
0
  6
CONTINUOUS
 10
569.18550125762454
 20
22.91966583137507
 30
0.0
 11
568.08835855907034
 21
22.91966583137507
 31
0.0
 12
566.12927913876899
 22
17.486544773822981
 32
0.0
 13
566.12927913876899
 23
17.486544773822981
 33
0.0
210
0.0
220
0.0
230
-1.0
  0
SOLID
  5
712
  8
0
  6
CONTINUOUS
 10
-567.18912495653456
 20
17.486544773822981
 30
0.0
 11
-567.02796880109838
 21
17.047959672819442
 31
0.0
 12
-565.85679722226826
 22
17.047959672819442
 32
0.0
 13
-565.85679722226826
 23
17.047959672819442
 33
0.0
  0
SOLID
  5
713
  8
0
  6
CONTINUOUS
 10
567.18912495653456
 20
17.486544773822981
 30
0.0
 11
566.12927913876899
 21
17.486544773822981
 31
0.0
 12
565.85679722226826
 22
17.047959672819442
 32
0.0
 13
565.85679722226826
 23
17.047959672819442
 33
0.0
210
0.0
220
0.0
230
-1.0
  0
SOLID
  5
714
  8
0
  6
CONTINUOUS
 10
-567.02796880109838
 20
17.047959672819442
 30
0.0
 11
-564.10661818503252
 21
12.34577293151704
 31
0.0
 12
-562.93544660620216
 22
12.34577293151704
 32
0.0
 13
-562.93544660620216
 23
12.34577293151704
 33
0.0
210
0.0
220
0.0
230
1.0
  0
SOLID
  5
715
  8
0
  6
CONTINUOUS
 10
567.02796880109838
 20
17.047959672819442
 30
0.0
 11
565.85679722226826
 21
17.047959672819442
 31
0.0
 12
562.93544660620216
 22
12.34577293151704
 32
0.0
 13
562.93544660620216
 23
12.34577293151704
 33
0.0
210
0.0
220
0.0
230
-1.0
  0
SOLID
  5
716
  8
0
  6
CONTINUOUS
 10
-564.10661818503252
 20
12.34577293151704
 30
0.0
 11
-563.72678055315134
 21
11.7343887769905
 31
0.0
 12
-562.35470349060222
 22
11.7343887769905
 32
0.0
 13
-562.35470349060222
 23
11.7343887769905
 33
0.0
210
0.0
220
0.0
230
1.0
  0
SOLID
  5
717
  8
0
  6
CONTINUOUS
 10
564.10661818503252
 20
12.34577293151704
 30
0.0
 11
562.93544660620216
 21
12.34577293151704
 31
0.0
 12
562.35470349060222
 22
11.7343887769905
 32
0.0
 13
562.35470349060222
 23
11.7343887769905
 33
0.0
210
0.0
220
0.0
230
-1.0
  0
SOLID
  5
718
  8
0
  6
CONTINUOUS
 10
-563.72678055315134
 20
11.7343887769905
 30
0.0
 11
-560.13940340392082
 21
7.9577352335664191
 31
0.0
 12
-558.76732634137159
 22
7.9577352335664191
 32
0.0
 13
-558.76732634137159
 23
7.9577352335664191
 33
0.0
210
0.0
220
0.0
230
1.0
  0
SOLID
  5
719
  8
0
  6
CONTINUOUS
 10
563.72678055315134
 20
11.7343887769905
 30
0.0
 11
562.35470349060222
 21
11.7343887769905
 31
0.0
 12
558.76732634137159
 22
7.9577352335664191
 32
0.0
 13
558.76732634137159
 23
7.9577352335664191
 33
0.0
210
0.0
220
0.0
230
-1.0
  0
SOLID
  5
71A
  8
0
  6
CONTINUOUS
 10
-560.13940340392082
 20
7.9577352335664191
 30
0.0
 11
-559.41855540546919
 21
7.1988540135624826
 31
0.0
 12
-557.88299740425191
 22
7.1988540135624826
 32
0.0
 13
-557.88299740425191
 23
7.1988540135624826
 33
0.0
210
0.0
220
0.0
230
1.0
  0
SOLID
  5
71B
  8
0
  6
CONTINUOUS
 10
560.13940340392082
 20
7.9577352335664191
 30
0.0
 11
558.76732634137159
 21
7.9577352335664191
 31
0.0
 12
557.88299740425191
 22
7.1988540135624826
 32
0.0
 13
557.88299740425191
 23
7.1988540135624826
 33
0.0
210
0.0
220
0.0
230
-1.0
  0
SOLID
  5
71C
  8
0
  6
CONTINUOUS
 10
-559.41855540546919
 20
7.1988540135624826
 30
0.0
 11
-556.40982853723267
 21
4.6169342995445009
 31
0.0
 12
-554.87427053601539
 22
4.6169342995445009
 32
0.0
 13
-554.87427053601539
 23
4.6169342995445009
 33
0.0
210
0.0
220
0.0
230
1.0
  0
SOLID
  5
71D
  8
0
  6
CONTINUOUS
 10
559.41855540546919
 20
7.1988540135624826
 30
0.0
 11
557.88299740425191
 21
7.1988540135624826
 31
0.0
 12
554.87427053601539
 22
4.6169342995445009
 32
0.0
 13
554.87427053601539
 23
4.6169342995445009
 33
0.0
210
0.0
220
0.0
230
-1.0
  0
SOLID
  5
71E
  8
0
  6
CONTINUOUS
 10
-556.40982853723267
 20
4.6169342995445009
 30
0.0
 11
-555.52549960011288
 21
3.8580530795404311
 31
0.0
 12
-554.08631069543856
 22
3.8580530795404311
 32
0.0
 13
-554.08631069543856
 23
3.8580530795404311
 33
0.0
210
0.0
220
0.0
230
1.0
  0
SOLID
  5
71F
  8
0
  6
CONTINUOUS
 10
556.40982853723267
 20
4.6169342995445009
 30
0.0
 11
554.87427053601539
 21
4.6169342995445009
 31
0.0
 12
554.08631069543856
 22
3.8580530795404311
 32
0.0
 13
554.08631069543856
 23
3.8580530795404311
 33
0.0
210
0.0
220
0.0
230
-1.0
  0
SOLID
  5
720
  8
0
  6
CONTINUOUS
 10
-555.52549960011288
 20
3.8580530795404311
 30
0.0
 11
-554.89356305433205
 21
3.246127752762539
 31
0.0
 12
-553.45093776720864
 22
3.246127752762539
 32
0.0
 13
-553.45093776720864
 23
3.246127752762539
 33
0.0
  0
SOLID
  5
721
  8
0
  6
CONTINUOUS
 10
555.52549960011288
 20
3.8580530795404311
 30
0.0
 11
554.08631069543856
 21
3.8580530795404311
 31
0.0
 12
553.45093776720864
 22
3.246127752762539
 32
0.0
 13
553.45093776720864
 23
3.246127752762539
 33
0.0
210
0.0
220
0.0
230
-1.0
  0
SOLID
  5
722
  8
0
  6
CONTINUOUS
 10
-554.89356305433205
 20
3.246127752762539
 30
0.0
 11
-553.90064184144535
 21
2.28464888005443
 31
0.0
 12
-552.63399644702019
 22
2.28464888005443
 32
0.0
 13
-552.63399644702019
 23
2.28464888005443
 33
0.0
210
0.0
220
0.0
230
1.0
  0
SOLID
  5
723
  8
0
  6
CONTINUOUS
 10
554.89356305433205
 20
3.246127752762539
 30
0.0
 11
553.45093776720864
 21
3.246127752762539
 31
0.0
 12
552.63399644702019
 22
2.28464888005443
 32
0.0
 13
552.63399644702019
 23
2.28464888005443
 33
0.0
210
0.0
220
0.0
230
-1.0
  0
SOLID
  5
724
  8
0
  6
CONTINUOUS
 10
-553.90064184144535
 20
2.28464888005443
 30
0.0
 11
-553.01679938559971
 21
1.2124448834022981
 31
0.0
 12
-551.72297513037995
 22
1.2124448834022981
 32
0.0
 13
-551.72297513037995
 23
1.2124448834022981
 33
0.0
210
0.0
220
0.0
230
1.0
  0
SOLID
  5
725
  8
0
  6
CONTINUOUS
 10
553.90064184144535
 20
2.28464888005443
 30
0.0
 11
552.63399644702019
 21
2.28464888005443
 31
0.0
 12
551.72297513037995
 22
1.2124448834022981
 32
0.0
 13
551.72297513037995
 23
1.2124448834022981
 33
0.0
210
0.0
220
0.0
230
-1.0
  0
SOLID
  5
726
  8
0
  6
CONTINUOUS
 10
-553.01679938559971
 20
1.2124448834022981
 30
0.0
 11
-552.52982372068175
 21
0.6216865975288073
 31
0.0
 12
-551.29043381281031
 22
0.6216865975288073
 32
0.0
 13
-551.29043381281031
 23
0.6216865975288073
 33
0.0
210
0.0
220
0.0
230
1.0
  0
SOLID
  5
727
  8
0
  6
CONTINUOUS
 10
553.01679938559971
 20
1.2124448834022981
 30
0.0
 11
551.72297513037995
 21
1.2124448834022981
 31
0.0
 12
551.29043381281031
 22
0.6216865975288073
 32
0.0
 13
551.29043381281031
 23
0.6216865975288073
 33
0.0
210
0.0
220
0.0
230
-1.0
  0
SOLID
  5
728
  8
0
  6
CONTINUOUS
 10
-552.52982372068175
 20
0.6216865975288073
 30
0.0
 11
-552.25099161407945
 21
0.2181559307878516
 31
0.0
 12
-550.99497678673799
 22
0.2181559307878516
 32
0.0
 13
-550.99497678673799
 23
0.2181559307878516
 33
0.0
210
0.0
220
0.0
230
1.0
  0
SOLID
  5
729
  8
0
  6
CONTINUOUS
 10
552.52982372068175
 20
0.6216865975288073
 30
0.0
 11
551.29043381281031
 21
0.6216865975288073
 31
0.0
 12
550.99497678673799
 22
0.2181559307878516
 32
0.0
 13
550.99497678673799
 23
0.2181559307878516
 33
0.0
210
0.0
220
0.0
230
-1.0
  0
SOLID
  5
72A
  8
0
  6
CONTINUOUS
 10
-552.25099161407945
 20
0.2181559307878516
 30
0.0
 11
-551.89517232271885
 21
-0.2967919266583596
 31
0.0
 12
-550.71289155138231
 22
-0.2967919266583596
 32
0.0
 13
-550.71289155138231
 23
-0.2967919266583596
 33
0.0
210
0.0
220
0.0
230
1.0
  0
SOLID
  5
72B
  8
0
  6
CONTINUOUS
 10
552.25099161407945
 20
0.2181559307878516
 30
0.0
 11
550.99497678673799
 21
0.2181559307878516
 31
0.0
 12
550.71289155138231
 22
-0.2967919266583596
 32
0.0
 13
550.71289155138231
 23
-0.2967919266583596
 33
0.0
210
0.0
220
0.0
230
-1.0
  0
SOLID
  5
72C
  8
0
  6
CONTINUOUS
 10
-551.89517232271885
 20
-0.2967919266583596
 30
0.0
 11
-551.64511135739758
 21
-0.6586844981113434
 31
0.0
 12
-550.62454257538434
 22
-0.6586844981113434
 32
0.0
 13
-550.62454257538434
 23
-0.6586844981113434
 33
0.0
210
0.0
220
0.0
230
1.0
  0
SOLID
  5
72D
  8
0
  6
CONTINUOUS
 10
551.89517232271885
 20
-0.2967919266583596
 30
0.0
 11
550.71289155138231
 21
-0.2967919266583596
 31
0.0
 12
550.62454257538434
 22
-0.6586844981113434
 32
0.0
 13
550.62454257538434
 23
-0.6586844981113434
 33
0.0
210
0.0
220
0.0
230
-1.0
  0
SOLID
  5
72E
  8
0
  6
CONTINUOUS
 10
-551.64511135739758
 20
-0.6586844981113434
 30
0.0
 11
-551.59420914381838
 21
-0.8671887026795985
 31
0.0
 12
-550.57364036180502
 22
-0.8671887026795985
 32
0.0
 13
-550.57364036180502
 23
-0.8671887026795985
 33
0.0
210
0.0
220
0.0
230
1.0
  0
SOLID
  5
72F
  8
0
  6
CONTINUOUS
 10
551.64511135739758
 20
-0.6586844981113434
 30
0.0
 11
550.62454257538434
 21
-0.6586844981113434
 31
0.0
 12
550.57364036180502
 22
-0.8671887026795985
 32
0.0
 13
550.57364036180502
 23
-0.8671887026795985
 33
0.0
210
0.0
220
0.0
230
-1.0
  0
SOLID
  5
730
  8
0
  6
CONTINUOUS
 10
-551.59420914381838
 20
-0.8671887026795985
 30
0.0
 11
-551.56774958541041
 21
-0.9755715959007549
 31
0.0
 12
-550.57605274686523
 22
-0.9755715959007549
 32
0.0
 13
-550.57605274686523
 23
-0.9755715959007549
 33
0.0
210
0.0
220
0.0
230
1.0
  0
SOLID
  5
731
  8
0
  6
CONTINUOUS
 10
551.59420914381838
 20
-0.8671887026795985
 30
0.0
 11
550.57364036180502
 21
-0.8671887026795985
 31
0.0
 12
550.57605274686523
 22
-0.9755715959007549
 32
0.0
 13
550.57605274686523
 23
-0.9755715959007549
 33
0.0
210
0.0
220
0.0
230
-1.0
  0
SOLID
  5
732
  8
0
  6
CONTINUOUS
 10
-551.56774958541041
 20
-0.9755715959007549
 30
0.0
 11
-551.57852967747237
 21
-1.3245048683582781
 31
0.0
 12
-550.58381929920995
 22
-1.3245048683582781
 32
0.0
 13
-550.58381929920995
 23
-1.3245048683582781
 33
0.0
210
0.0
220
0.0
230
1.0
  0
SOLID
  5
733
  8
0
  6
CONTINUOUS
 10
551.56774958541041
 20
-0.9755715959007549
 30
0.0
 11
550.57605274686523
 21
-0.9755715959007549
 31
0.0
 12
550.58381929920995
 22
-1.3245048683582781
 32
0.0
 13
550.58381929920995
 23
-1.3245048683582781
 33
0.0
210
0.0
220
0.0
230
-1.0
  0
SOLID
  5
734
  8
0
  6
CONTINUOUS
 10
-551.57852967747237
 20
-1.3245048683582781
 30
0.0
 11
-552.04990586115423
 21
-4.3791909279641397
 31
0.0
 12
-551.03888409491685
 22
-4.3791909279641397
 32
0.0
 13
-551.03888409491685
 23
-4.3791909279641397
 33
0.0
210
0.0
220
0.0
230
1.0
  0
SOLID
  5
735
  8
0
  6
CONTINUOUS
 10
551.57852967747237
 20
-1.3245048683582781
 30
0.0
 11
550.58381929920995
 21
-1.3245048683582781
 31
0.0
 12
551.03888409491685
 22
-4.3791909279641397
 32
0.0
 13
551.03888409491685
 23
-4.3791909279641397
 33
0.0
210
0.0
220
0.0
230
-1.0
  0
SOLID
  5
736
  8
0
  6
CONTINUOUS
 10
-552.04990586115423
 20
-4.3791909279641397
 30
0.0
 11
-552.05695908776852
 21
-4.5316983123817396
 31
0.0
 12
-551.06160353003384
 22
-4.5316983123817396
 32
0.0
 13
-551.06160353003384
 23
-4.5316983123817396
 33
0.0
  0
SOLID
  5
737
  8
0
  6
CONTINUOUS
 10
552.04990586115423
 20
-4.3791909279641397
 30
0.0
 11
551.03888409491685
 21
-4.3791909279641397
 31
0.0
 12
551.06160353003384
 22
-4.5316983123817396
 32
0.0
 13
551.06160353003384
 23
-4.5316983123817396
 33
0.0
210
0.0
220
0.0
230
-1.0
  0
SOLID
  5
738
  8
0
  6
CONTINUOUS
 10
-552.05695908776852
 20
-4.5316983123817396
 30
0.0
 11
-552.10378257093691
 21
-5.544132385157333
 31
0.0
 12
-551.10842701320223
 22
-5.544132385157333
 32
0.0
 13
-551.10842701320223
 23
-5.544132385157333
 33
0.0
210
0.0
220
0.0
230
1.0
  0
SOLID
  5
739
  8
0
  6
CONTINUOUS
 10
552.05695908776852
 20
-4.5316983123817396
 30
0.0
 11
551.06160353003384
 21
-4.5316983123817396
 31
0.0
 12
551.10842701320223
 22
-5.544132385157333
 32
0.0
 13
551.10842701320223
 23
-5.544132385157333
 33
0.0
210
0.0
220
0.0
230
-1.0
  0
SOLID
  5
73A
  8
0
  6
CONTINUOUS
 10
-552.10378257093691
 20
-5.544132385157333
 30
0.0
 11
-552.10658691972662
 21
-5.604769016060926
 31
0.0
 12
-551.09817037197536
 22
-5.604769016060926
 32
0.0
 13
-551.09817037197536
 23
-5.604769016060926
 33
0.0
210
0.0
220
0.0
230
1.0
  0
SOLID
  5
73B
  8
0
  6
CONTINUOUS
 10
552.10378257093691
 20
-5.544132385157333
 30
0.0
 11
551.10842701320223
 21
-5.544132385157333
 31
0.0
 12
551.09817037197536
 22
-5.604769016060926
 32
0.0
 13
551.09817037197536
 23
-5.604769016060926
 33
0.0
210
0.0
220
0.0
230
-1.0
  0
SOLID
  5
73C
  8
0
  6
CONTINUOUS
 10
-552.10658691972662
 20
-5.604769016060926
 30
0.0
 11
-551.94780914552734
 21
-6.5434534330165954
 31
0.0
 12
-550.9393925977763
 22
-6.5434534330165954
 32
0.0
 13
-550.9393925977763
 23
-6.5434534330165954
 33
0.0
210
0.0
220
0.0
230
1.0
  0
SOLID
  5
73D
  8
0
  6
CONTINUOUS
 10
552.10658691972662
 20
-5.604769016060926
 30
0.0
 11
551.09817037197536
 21
-5.604769016060926
 31
0.0
 12
550.9393925977763
 22
-6.5434534330165954
 32
0.0
 13
550.9393925977763
 23
-6.5434534330165954
 33
0.0
210
0.0
220
0.0
230
-1.0
  0
SOLID
  5
73E
  8
0
  6
CONTINUOUS
 10
-551.94780914552734
 20
-6.5434534330165954
 30
0.0
 11
-551.90196631157926
 21
-6.8144734424169018
 31
0.0
 12
-550.83072183541015
 22
-6.8144734424169018
 32
0.0
 13
-550.83072183541015
 23
-6.8144734424169018
 33
0.0
  0
SOLID
  5
73F
  8
0
  6
CONTINUOUS
 10
551.94780914552734
 20
-6.5434534330165954
 30
0.0
 11
550.9393925977763
 21
-6.5434534330165954
 31
0.0
 12
550.83072183541015
 22
-6.8144734424169018
 32
0.0
 13
550.83072183541015
 23
-6.8144734424169018
 33
0.0
210
0.0
220
0.0
230
-1.0
  0
SOLID
  5
740
  8
0
  6
CONTINUOUS
 10
-551.90196631157926
 20
-6.8144734424169018
 30
0.0
 11
-551.63344048155204
 21
-7.4841648239223284
 31
0.0
 12
-550.56219600538282
 22
-7.4841648239223284
 32
0.0
 13
-550.56219600538282
 23
-7.4841648239223284
 33
0.0
  0
SOLID
  5
741
  8
0
  6
CONTINUOUS
 10
551.90196631157926
 20
-6.8144734424169018
 30
0.0
 11
550.83072183541015
 21
-6.8144734424169018
 31
0.0
 12
550.56219600538282
 22
-7.4841648239223284
 32
0.0
 13
550.56219600538282
 23
-7.4841648239223284
 33
0.0
210
0.0
220
0.0
230
-1.0
  0
SOLID
  5
742
  8
0
  6
CONTINUOUS
 10
-551.63344048155204
 20
-7.4841648239223284
 30
0.0
 11
-551.44535991026089
 21
-7.9532293366712317
 31
0.0
 12
-550.31306725826687
 22
-7.9532293366712317
 32
0.0
 13
-550.31306725826687
 23
-7.9532293366712317
 33
0.0
210
0.0
220
0.0
230
1.0
  0
SOLID
  5
743
  8
0
  6
CONTINUOUS
 10
551.63344048155204
 20
-7.4841648239223284
 30
0.0
 11
550.56219600538282
 21
-7.4841648239223284
 31
0.0
 12
550.31306725826687
 22
-7.9532293366712317
 32
0.0
 13
550.31306725826687
 23
-7.9532293366712317
 33
0.0
210
0.0
220
0.0
230
-1.0
  0
SOLID
  5
744
  8
0
  6
CONTINUOUS
 10
-461.05000000000058
 20
52.3080250510884
 30
0.0
 11
-461.05000000000058
 21
-9.7532258324851782
 31
0.0
 12
-460.05000000000052
 22
-9.7532258324851782
 32
0.0
 13
-460.05000000000052
 23
-9.7532258324851782
 33
0.0
210
0.0
220
0.0
230
1.0
  0
SOLID
  5
745
  8
0
  6
CONTINUOUS
 10
461.05000000000058
 20
52.3080250510884
 30
0.0
 11
460.05000000000052
 21
52.3080250510884
 31
0.0
 12
460.05000000000052
 22
-9.7532258324851782
 32
0.0
 13
460.05000000000052
 23
-9.7532258324851782
 33
0.0
210
0.0
220
0.0
230
-1.0
  0
SOLID
  5
746
  8
0
  6
CONTINUOUS
 10
-461.05000000000058
 20
-9.7532258324851782
 30
0.0
 11
-461.10962980399461
 21
-10.20615916141443
 31
0.0
 12
-460.10962980399472
 22
-10.20615916141443
 32
0.0
 13
-460.10962980399472
 23
-10.20615916141443
 33
0.0
210
0.0
220
0.0
230
1.0
  0
SOLID
  5
747
  8
0
  6
CONTINUOUS
 10
461.05000000000058
 20
-9.7532258324851782
 30
0.0
 11
460.05000000000052
 21
-9.7532258324851782
 31
0.0
 12
460.10962980399472
 22
-10.20615916141443
 32
0.0
 13
460.10962980399472
 23
-10.20615916141443
 33
0.0
210
0.0
220
0.0
230
-1.0
  0
SOLID
  5
748
  8
0
  6
CONTINUOUS
 10
-551.44535991026089
 20
-7.9532293366712317
 30
0.0
 11
-550.21395194822662
 21
-10.271748505547951
 31
0.0
 12
-549.08165929623237
 22
-10.271748505547951
 32
0.0
 13
-549.08165929623237
 23
-10.271748505547951
 33
0.0
210
0.0
220
0.0
230
1.0
  0
SOLID
  5
749
  8
0
  6
CONTINUOUS
 10
551.44535991026089
 20
-7.9532293366712317
 30
0.0
 11
550.31306725826687
 21
-7.9532293366712317
 31
0.0
 12
549.08165929623237
 22
-10.271748505547951
 32
0.0
 13
549.08165929623237
 23
-10.271748505547951
 33
0.0
210
0.0
220
0.0
230
-1.0
  0
SOLID
  5
74A
  8
0
  6
CONTINUOUS
 10
-461.10962980399461
 20
-10.20615916141443
 30
0.0
 11
-461.21683616267649
 21
-10.464978206516919
 31
0.0
 12
-460.14370397770563
 22
-10.464978206516919
 32
0.0
 13
-460.14370397770563
 23
-10.464978206516919
 33
0.0
210
0.0
220
0.0
230
1.0
  0
SOLID
  5
74B
  8
0
  6
CONTINUOUS
 10
461.10962980399461
 20
-10.20615916141443
 30
0.0
 11
460.10962980399472
 21
-10.20615916141443
 31
0.0
 12
460.14370397770563
 22
-10.464978206516919
 32
0.0
 13
460.14370397770563
 23
-10.464978206516919
 33
0.0
210
0.0
220
0.0
230
-1.0
  0
SOLID
  5
74C
  8
0
  6
CONTINUOUS
 10
-461.21683616267649
 20
-10.464978206516919
 30
0.0
 11
-461.2844555433777
 21
-10.628225832484979
 31
0.0
 12
-460.21132335840679
 22
-10.628225832484979
 32
0.0
 13
-460.21132335840679
 23
-10.628225832484979
 33
0.0
  0
SOLID
  5
74D
  8
0
  6
CONTINUOUS
 10
461.21683616267649
 20
-10.464978206516919
 30
0.0
 11
460.14370397770563
 21
-10.464978206516919
 31
0.0
 12
460.21132335840679
 22
-10.628225832484979
 32
0.0
 13
460.21132335840679
 23
-10.628225832484979
 33
0.0
210
0.0
220
0.0
230
-1.0
  0
SOLID
  5
74E
  8
0
  6
CONTINUOUS
 10
-550.21395194822662
 20
-10.271748505547951
 30
0.0
 11
-549.88721029220869
 21
-10.88694413210254
 31
0.0
 12
-548.70865424085389
 22
-10.88694413210254
 32
0.0
 13
-548.70865424085389
 23
-10.88694413210254
 33
0.0
  0
SOLID
  5
74F
  8
0
  6
CONTINUOUS
 10
550.21395194822662
 20
-10.271748505547951
 30
0.0
 11
549.08165929623237
 21
-10.271748505547951
 31
0.0
 12
548.70865424085389
 22
-10.88694413210254
 32
0.0
 13
548.70865424085389
 23
-10.88694413210254
 33
0.0
210
0.0
220
0.0
230
-1.0
  0
SOLID
  5
750
  8
0
  6
CONTINUOUS
 10
-461.2844555433777
 20
-10.628225832484979
 30
0.0
 11
-461.56256313292391
 21
-10.990662699561179
 31
0.0
 12
-460.36144962425379
 22
-10.990662699561179
 32
0.0
 13
-460.36144962425379
 23
-10.990662699561179
 33
0.0
210
0.0
220
0.0
230
1.0
  0
SOLID
  5
751
  8
0
  6
CONTINUOUS
 10
461.2844555433777
 20
-10.628225832484979
 30
0.0
 11
460.21132335840679
 21
-10.628225832484979
 31
0.0
 12
460.36144962425379
 22
-10.990662699561179
 32
0.0
 13
460.36144962425379
 23
-10.990662699561179
 33
0.0
210
0.0
220
0.0
230
-1.0
  0
SOLID
  5
752
  8
0
  6
CONTINUOUS
 10
-549.88721029220869
 20
-10.88694413210254
 30
0.0
 11
-549.80424477485462
 21
-11.043153242544969
 31
0.0
 12
-548.54357446936433
 22
-11.043153242544969
 32
0.0
 13
-548.54357446936433
 23
-11.043153242544969
 33
0.0
210
0.0
220
0.0
230
1.0
  0
SOLID
  5
753
  8
0
  6
CONTINUOUS
 10
549.88721029220869
 20
-10.88694413210254
 30
0.0
 11
548.70865424085389
 21
-10.88694413210254
 31
0.0
 12
548.54357446936433
 22
-11.043153242544969
 32
0.0
 13
548.54357446936433
 23
-11.043153242544969
 33
0.0
210
0.0
220
0.0
230
-1.0
  0
SOLID
  5
754
  8
0
  6
CONTINUOUS
 10
-461.56256313292391
 20
-10.990662699561179
 30
0.0
 11
-461.74183889811752
 21
-11.128225832484871
 31
0.0
 12
-460.41843013959328
 22
-11.128225832484871
 32
0.0
 13
-460.41843013959328
 23
-11.128225832484871
 33
0.0
210
0.0
220
0.0
230
1.0
  0
SOLID
  5
755
  8
0
  6
CONTINUOUS
 10
461.56256313292391
 20
-10.990662699561179
 30
0.0
 11
460.36144962425379
 21
-10.990662699561179
 31
0.0
 12
460.41843013959328
 22
-11.128225832484871
 32
0.0
 13
460.41843013959328
 23
-11.128225832484871
 33
0.0
210
0.0
220
0.0
230
-1.0
  0
SOLID
  5
756
  8
0
  6
CONTINUOUS
 10
-549.80424477485462
 20
-11.043153242544969
 30
0.0
 11
-549.7338282677124
 21
-11.146860507316839
 31
0.0
 12
-548.43397797065904
 22
-11.146860507316839
 32
0.0
 13
-548.43397797065904
 23
-11.146860507316839
 33
0.0
210
0.0
220
0.0
230
1.0
  0
SOLID
  5
757
  8
0
  6
CONTINUOUS
 10
549.80424477485462
 20
-11.043153242544969
 30
0.0
 11
548.54357446936433
 21
-11.043153242544969
 31
0.0
 12
548.43397797065904
 22
-11.146860507316839
 32
0.0
 13
548.43397797065904
 23
-11.146860507316839
 33
0.0
210
0.0
220
0.0
230
-1.0
  0
SOLID
  5
758
  8
0
  6
CONTINUOUS
 10
-461.74183889811752
 20
-11.128225832484871
 30
0.0
 11
-461.92500000000018
 21
-11.26877028910754
 31
0.0
 12
-460.5262736941707
 22
-11.26877028910754
 32
0.0
 13
-460.5262736941707
 23
-11.26877028910754
 33
0.0
210
0.0
220
0.0
230
1.0
  0
SOLID
  5
759
  8
0
  6
CONTINUOUS
 10
461.74183889811752
 20
-11.128225832484871
 30
0.0
 11
460.41843013959328
 21
-11.128225832484871
 31
0.0
 12
460.5262736941707
 22
-11.26877028910754
 32
0.0
 13
460.5262736941707
 23
-11.26877028910754
 33
0.0
210
0.0
220
0.0
230
-1.0
  0
SOLID
  5
75A
  8
0
  6
CONTINUOUS
 10
-549.7338282677124
 20
-11.146860507316839
 30
0.0
 11
-549.60153290348694
 21
-11.3417010485852
 31
0.0
 12
-548.10987808020695
 22
-11.3417010485852
 32
0.0
 13
-548.10987808020695
 23
-11.3417010485852
 33
0.0
  0
SOLID
  5
75B
  8
0
  6
CONTINUOUS
 10
549.7338282677124
 20
-11.146860507316839
 30
0.0
 11
548.43397797065904
 21
-11.146860507316839
 31
0.0
 12
548.10987808020695
 22
-11.3417010485852
 32
0.0
 13
548.10987808020695
 23
-11.3417010485852
 33
0.0
210
0.0
220
0.0
230
-1.0
  0
SOLID
  5
75C
  8
0
  6
CONTINUOUS
 10
-461.92500000000018
 20
-11.26877028910754
 30
0.0
 11
-462.34706667107082
 21
-11.443596028490569
 31
0.0
 12
-460.66042220219259
 22
-11.443596028490569
 32
0.0
 13
-460.66042220219259
 23
-11.443596028490569
 33
0.0
210
0.0
220
0.0
230
1.0
  0
SOLID
  5
75D
  8
0
  6
CONTINUOUS
 10
461.92500000000018
 20
-11.26877028910754
 30
0.0
 11
460.5262736941707
 21
-11.26877028910754
 31
0.0
 12
460.66042220219259
 22
-11.443596028490569
 32
0.0
 13
460.66042220219259
 23
-11.443596028490569
 33
0.0
210
0.0
220
0.0
230
-1.0
  0
SOLID
  5
75E
  8
0
  6
CONTINUOUS
 10
-462.34706667107082
 20
-11.443596028490569
 30
0.0
 11
-462.48965142947583
 21
-11.462367668052471
 31
0.0
 12
-460.67482618783708
 22
-11.462367668052471
 32
0.0
 13
-460.67482618783708
 23
-11.462367668052471
 33
0.0
210
0.0
220
0.0
230
1.0
  0
SOLID
  5
75F
  8
0
  6
CONTINUOUS
 10
462.34706667107082
 20
-11.443596028490569
 30
0.0
 11
460.66042220219259
 21
-11.443596028490569
 31
0.0
 12
460.67482618783708
 22
-11.462367668052471
 32
0.0
 13
460.67482618783708
 23
-11.462367668052471
 33
0.0
210
0.0
220
0.0
230
-1.0
  0
SOLID
  5
760
  8
0
  6
CONTINUOUS
 10
-549.60153290348694
 20
-11.3417010485852
 30
0.0
 11
-549.51960111317067
 21
-11.462367668052471
 31
0.0
 12
-547.75148842848819
 22
-11.462367668052471
 32
0.0
 13
-547.75148842848819
 23
-11.462367668052471
 33
0.0
210
0.0
220
0.0
230
1.0
  0
SOLID
  5
761
  8
0
  6
CONTINUOUS
 10
549.60153290348694
 20
-11.3417010485852
 30
0.0
 11
548.10987808020695
 21
-11.3417010485852
 31
0.0
 12
547.75148842848819
 22
-11.462367668052471
 32
0.0
 13
547.75148842848819
 23
-11.462367668052471
 33
0.0
210
0.0
220
0.0
230
-1.0
  0
SOLID
  5
762
  8
0
  6
CONTINUOUS
 10
-462.48965142947583
 20
-11.462367668052471
 30
0.0
 11
-462.80000000000013
 21
-11.50322583248464
 31
0.0
 12
-460.70617776008521
 22
-11.50322583248464
 32
0.0
 13
-460.70617776008521
 23
-11.50322583248464
 33
0.0
210
0.0
220
0.0
230
1.0
  0
SOLID
  5
763
  8
0
  6
CONTINUOUS
 10
462.48965142947583
 20
-11.462367668052471
 30
0.0
 11
460.67482618783708
 21
-11.462367668052471
 31
0.0
 12
460.70617776008521
 22
-11.50322583248464
 32
0.0
 13
460.70617776008521
 23
-11.50322583248464
 33
0.0
210
0.0
220
0.0
230
-1.0
  0
SOLID
  5
764
  8
0
  6
CONTINUOUS
 10
-549.51960111317067
 20
-11.462367668052471
 30
0.0
 11
-549.49185870540498
 21
-11.50322583248464
 31
0.0
 12
-462.80000000000013
 22
-11.50322583248464
 32
0.0
 13
-462.80000000000013
 23
-11.50322583248464
 33
0.0
  0
SOLID
  5
765
  8
0
  6
CONTINUOUS
 10
549.51960111317067
 20
-11.462367668052471
 30
0.0
 11
547.75148842848819
 21
-11.462367668052471
 31
0.0
 12
462.80000000000013
 22
-11.50322583248464
 32
0.0
 13
462.80000000000013
 23
-11.50322583248464
 33
0.0
210
0.0
220
0.0
230
-1.0
  0
SOLID
  5
766
  8
0
  6
CONTINUOUS
 10
-549.49185870540498
 20
-11.50322583248464
 30
0.0
 11
-549.47043150051911
 21
-11.534783160455319
 31
0.0
 12
-460.7303925495055
 22
-11.534783160455319
 32
0.0
 13
-460.7303925495055
 23
-11.534783160455319
 33
0.0
210
0.0
220
0.0
230
1.0
  0
SOLID
  5
767
  8
0
  6
CONTINUOUS
 10
549.49185870540498
 20
-11.50322583248464
 30
0.0
 11
460.70617776008521
 21
-11.50322583248464
 31
0.0
 12
460.7303925495055
 22
-11.534783160455319
 32
0.0
 13
460.7303925495055
 23
-11.534783160455319
 33
0.0
210
0.0
220
0.0
230
-1.0
  0
SOLID
  5
768
  8
0
  6
CONTINUOUS
 10
-549.47043150051911
 20
-11.534783160455319
 30
0.0
 11
-549.29818966114351
 21
-11.69776948074791
 31
0.0
 12
-460.8554563517373
 22
-11.69776948074791
 32
0.0
 13
-460.8554563517373
 23
-11.69776948074791
 33
0.0
210
0.0
220
0.0
230
1.0
  0
SOLID
  5
769
  8
0
  6
CONTINUOUS
 10
549.47043150051911
 20
-11.534783160455319
 30
0.0
 11
460.7303925495055
 21
-11.534783160455319
 31
0.0
 12
460.8554563517373
 22
-11.69776948074791
 32
0.0
 13
460.8554563517373
 23
-11.69776948074791
 33
0.0
210
0.0
220
0.0
230
-1.0
  0
SOLID
  5
76A
  8
0
  6
CONTINUOUS
 10
-549.29818966114351
 20
-11.69776948074791
 30
0.0
 11
-549.03879736164129
 21
-11.94322317864944
 31
0.0
 12
-461.1753378387005
 22
-11.94322317864944
 32
0.0
 13
-461.1753378387005
 23
-11.94322317864944
 33
0.0
210
0.0
220
0.0
230
1.0
  0
SOLID
  5
76B
  8
0
  6
CONTINUOUS
 10
549.29818966114351
 20
-11.69776948074791
 30
0.0
 11
460.8554563517373
 21
-11.69776948074791
 31
0.0
 12
461.1753378387005
 22
-11.94322317864944
 32
0.0
 13
461.1753378387005
 23
-11.94322317864944
 33
0.0
210
0.0
220
0.0
230
-1.0
  0
SOLID
  5
76C
  8
0
  6
CONTINUOUS
 10
-549.03879736164129
 20
-11.94322317864944
 30
0.0
 11
-548.72013354313913
 21
-12.134795692891879
 31
0.0
 12
-461.42500000000041
 22
-12.134795692891879
 32
0.0
 13
-461.42500000000041
 23
-12.134795692891879
 33
0.0
210
0.0
220
0.0
230
1.0
  0
SOLID
  5
76D
  8
0
  6
CONTINUOUS
 10
549.03879736164129
 20
-11.94322317864944
 30
0.0
 11
461.1753378387005
 21
-11.94322317864944
 31
0.0
 12
461.42500000000041
 22
-12.134795692891879
 32
0.0
 13
461.42500000000041
 23
-12.134795692891879
 33
0.0
210
0.0
220
0.0
230
-1.0
  0
SOLID
  5
76E
  8
0
  6
CONTINUOUS
 10
-548.72013354313913
 20
-12.134795692891879
 30
0.0
 11
-548.529497533788
 21
-12.249401172071201
 31
0.0
 12
-461.70168210215718
 22
-12.249401172071201
 32
0.0
 13
-461.70168210215718
 23
-12.249401172071201
 33
0.0
210
0.0
220
0.0
230
1.0
  0
SOLID
  5
76F
  8
0
  6
CONTINUOUS
 10
548.72013354313913
 20
-12.134795692891879
 30
0.0
 11
461.42500000000041
 21
-12.134795692891879
 31
0.0
 12
461.70168210215718
 22
-12.249401172071201
 32
0.0
 13
461.70168210215718
 23
-12.249401172071201
 33
0.0
210
0.0
220
0.0
230
-1.0
  0
SOLID
  5
770
  8
0
  6
CONTINUOUS
 10
-548.529497533788
 20
-12.249401172071201
 30
0.0
 11
-548.05392611260925
 21
-12.40952185477965
 31
0.0
 12
-462.08824762596828
 22
-12.40952185477965
 32
0.0
 13
-462.08824762596828
 23
-12.40952185477965
 33
0.0
210
0.0
220
0.0
230
1.0
  0
SOLID
  5
771
  8
0
  6
CONTINUOUS
 10
548.529497533788
 20
-12.249401172071201
 30
0.0
 11
461.70168210215718
 21
-12.249401172071201
 31
0.0
 12
462.08824762596828
 22
-12.40952185477965
 32
0.0
 13
462.08824762596828
 23
-12.40952185477965
 33
0.0
210
0.0
220
0.0
230
-1.0
  0
SOLID
  5
772
  8
0
  6
CONTINUOUS
 10
-548.05392611260925
 20
-12.40952185477965
 30
0.0
 11
-547.96631379537268
 21
-12.439020145519709
 31
0.0
 12
-462.31230938917548
 22
-12.439020145519709
 32
0.0
 13
-462.31230938917548
 23
-12.439020145519709
 33
0.0
  0
SOLID
  5
773
  8
0
  6
CONTINUOUS
 10
548.05392611260925
 20
-12.40952185477965
 30
0.0
 11
462.08824762596828
 21
-12.40952185477965
 31
0.0
 12
462.31230938917548
 22
-12.439020145519709
 32
0.0
 13
462.31230938917548
 23
-12.439020145519709
 33
0.0
210
0.0
220
0.0
230
-1.0
  0
SOLID
  5
774
  8
0
  6
CONTINUOUS
 10
-547.96631379537268
 20
-12.439020145519709
 30
0.0
 11
-547.37554403644083
 21
-12.50322583248469
 31
0.0
 12
-462.80000000000013
 22
-12.50322583248469
 32
0.0
 13
-462.80000000000013
 23
-12.50322583248469
 33
0.0
210
0.0
220
0.0
230
1.0
  0
SOLID
  5
775
  8
0
  6
CONTINUOUS
 10
547.96631379537268
 20
-12.439020145519709
 30
0.0
 11
462.31230938917548
 21
-12.439020145519709
 31
0.0
 12
462.80000000000013
 22
-12.50322583248469
 32
0.0
 13
462.80000000000013
 23
-12.50322583248469
 33
0.0
210
0.0
220
0.0
230
-1.0
  0
LINE
  5
776
  8
0
  6
CONTINUOUS
 10
-577.46130677724034
 20
80.411464191428948
 30
0.0
 11
-590.69149628925129
 21
80.364864120592785
 31
0.0
  0
LINE
  5
777
  8
0
  6
CONTINUOUS
 10
-577.10734409753275
 20
80.364864120592785
 30
0.0
 11
-577.46130677724034
 21
80.411464191428948
 31
0.0
  0
LINE
  5
778
  8
0
  6
CONTINUOUS
 10
-590.69149628925129
 20
80.364864120592785
 30
0.0
 11
-590.72753385466069
 21
80.351834387434863
 31
0.0
  0
LINE
  5
779
  8
0
  6
CONTINUOUS
 10
-577.10734409753275
 20
80.364864120592785
 30
0.0
 11
-577.00837344831075
 21
80.351834387434863
 31
0.0
  0
LINE
  5
77A
  8
0
  6
CONTINUOUS
 10
-590.72753385466069
 20
80.351834387434863
 30
0.0
 11
-591.07129083749055
 21
80.227545698491696
 31
0.0
  0
LINE
  5
77B
  8
0
  6
CONTINUOUS
 10
-577.00837344831075
 20
80.351834387434863
 30
0.0
 11
-576.70831400981467
 21
80.227545698491696
 31
0.0
  0
LINE
  5
77C
  8
0
  6
CONTINUOUS
 10
-591.07129083749055
 20
80.227545698491696
 30
0.0
 11
-591.14872610085297
 21
80.177008648051711
 31
0.0
  0
LINE
  5
77D
  8
0
  6
CONTINUOUS
 10
-576.70831400981467
 20
80.227545698491696
 30
0.0
 11
-576.58630677724022
 21
80.177008648051711
 31
0.0
  0
LINE
  5
77E
  8
0
  6
CONTINUOUS
 10
-591.14872610085297
 20
80.177008648051711
 30
0.0
 11
-591.40949395866232
 21
80.006822123063145
 31
0.0
  0
LINE
  5
77F
  8
0
  6
CONTINUOUS
 10
-576.58630677724022
 20
80.177008648051711
 30
0.0
 11
-576.36451537975927
 21
80.006822123063145
 31
0.0
  0
LINE
  5
780
  8
0
  6
CONTINUOUS
 10
-591.40949395866232
 20
80.006822123063145
 30
0.0
 11
-591.51233088082938
 21
79.898901058505544
 31
0.0
  0
LINE
  5
781
  8
0
  6
CONTINUOUS
 10
-576.36451537975927
 20
80.006822123063145
 30
0.0
 11
-576.22386991016367
 21
79.898901058505544
 31
0.0
  0
LINE
  5
782
  8
0
  6
CONTINUOUS
 10
-591.51233088082938
 20
79.898901058505544
 30
0.0
 11
-591.68809389344926
 21
79.714448519164023
 31
0.0
  0
LINE
  5
783
  8
0
  6
CONTINUOUS
 10
-576.22386991016367
 20
79.898901058505544
 30
0.0
 11
-576.08233449872569
 21
79.714448519164023
 31
0.0
  0
LINE
  5
784
  8
0
  6
CONTINUOUS
 10
-591.68809389344926
 20
79.714448519164023
 30
0.0
 11
-591.7923753686307
 21
79.536464191429019
 31
0.0
  0
LINE
  5
785
  8
0
  6
CONTINUOUS
 10
-576.08233449872569
 20
79.714448519164023
 30
0.0
 11
-575.9457623206174
 21
79.536464191429019
 31
0.0
  0
LINE
  5
786
  8
0
  6
CONTINUOUS
 10
-591.7923753686307
 20
79.536464191429019
 30
0.0
 11
-591.86561318998008
 21
79.411464191428976
 31
0.0
  0
LINE
  5
787
  8
0
  6
CONTINUOUS
 10
-575.9457623206174
 20
79.536464191429019
 30
0.0
 11
-575.89398562532085
 21
79.411464191428976
 31
0.0
  0
LINE
  5
788
  8
0
  6
CONTINUOUS
 10
-575.89398562532085
 20
79.411464191428976
 30
0.0
 11
-575.88571317617129
 21
79.391492732498136
 31
0.0
  0
LINE
  5
789
  8
0
  6
CONTINUOUS
 10
-591.86561318998008
 20
79.411464191428976
 30
0.0
 11
-591.87731451911031
 21
79.391492732498136
 31
0.0
  0
LINE
  5
78A
  8
0
  6
CONTINUOUS
 10
-580.11288521626818
 20
79.391492732498136
 30
0.0
 11
-577.2671924934134
 21
79.385908561145854
 31
0.0
  0
LINE
  5
78B
  8
0
  6
CONTINUOUS
 10
-575.88571317617129
 20
79.391492732498136
 30
0.0
 11
-575.88340013666266
 21
79.385908561145854
 31
0.0
  0
LINE
  5
78C
  8
0
  6
CONTINUOUS
 10
-591.87731451911031
 20
79.391492732498136
 30
0.0
 11
-591.89225318277101
 21
79.365995893253242
 31
0.0
  0
LINE
  5
78D
  8
0
  6
CONTINUOUS
 10
-590.46226247665254
 20
79.391492732498136
 30
0.0
 11
-590.5133924314664
 21
79.365995893253242
 31
0.0
  0
LINE
  5
78E
  8
0
  6
CONTINUOUS
 10
-591.89225318277101
 20
79.365995893253242
 30
0.0
 11
-591.92621246009173
 21
79.238046162128185
 31
0.0
  0
LINE
  5
78F
  8
0
  6
CONTINUOUS
 10
-590.5133924314664
 20
79.365995893253242
 30
0.0
 11
-590.76997576354324
 21
79.238046162128185
 31
0.0
  0
LINE
  5
790
  8
0
  6
CONTINUOUS
 10
-577.2671924934134
 20
79.385908561145854
 30
0.0
 11
-576.93097669135045
 21
79.191794277318891
 31
0.0
  0
LINE
  5
791
  8
0
  6
CONTINUOUS
 10
-575.88340013666266
 20
79.385908561145854
 30
0.0
 11
-575.80299536765096
 21
79.191794277318891
 31
0.0
  0
LINE
  5
792
  8
0
  6
CONTINUOUS
 10
-576.93097669135045
 20
79.191794277318891
 30
0.0
 11
-576.88629165288478
 21
79.114397520358466
 31
0.0
  0
LINE
  5
793
  8
0
  6
CONTINUOUS
 10
-575.80299536765096
 20
79.191794277318891
 30
0.0
 11
-575.77093658123442
 21
79.114397520358466
 31
0.0
  0
LINE
  5
794
  8
0
  6
CONTINUOUS
 10
-591.92621246009173
 20
79.238046162128185
 30
0.0
 11
-591.99910491155197
 21
78.963406349352169
 31
0.0
  0
LINE
  5
795
  8
0
  6
CONTINUOUS
 10
-590.76997576354324
 20
79.238046162128185
 30
0.0
 11
-590.97687257387565
 21
78.963406349352169
 31
0.0
  0
LINE
  5
796
  8
0
  6
CONTINUOUS
 10
-576.88629165288478
 20
79.114397520358466
 30
0.0
 11
-576.7368624075234
 21
78.855578475255854
 31
0.0
  0
LINE
  5
797
  8
0
  6
CONTINUOUS
 10
-575.77093658123442
 20
79.114397520358466
 30
0.0
 11
-575.73686240752329
 21
78.855578475255854
 31
0.0
  0
LINE
  5
798
  8
0
  6
CONTINUOUS
 10
-591.99910491155197
 20
78.963406349352169
 30
0.0
 11
-592.04892390537782
 21
78.775701328284185
 31
0.0
  0
LINE
  5
799
  8
0
  6
CONTINUOUS
 10
-590.97687257387565
 20
78.963406349352169
 30
0.0
 11
-591.0119758069859
 21
78.775701328284185
 31
0.0
  0
LINE
  5
79A
  8
0
  6
CONTINUOUS
 10
-576.7368624075234
 20
78.855578475255854
 30
0.0
 11
-576.71130677724022
 21
78.661464191429019
 31
0.0
  0
LINE
  5
79B
  8
0
  6
CONTINUOUS
 10
-575.73686240752329
 20
78.855578475255854
 30
0.0
 11
-575.71130677724022
 21
78.661464191429019
 31
0.0
  0
LINE
  5
79C
  8
0
  6
CONTINUOUS
 10
-576.71130677724022
 20
78.661464191429019
 30
0.0
 11
-576.71130677724022
 21
76.000740090304674
 31
0.0
  0
LINE
  5
79D
  8
0
  6
CONTINUOUS
 10
-575.71130677724022
 20
78.661464191429019
 30
0.0
 11
-575.71130677724022
 21
76.000740090304674
 31
0.0
  0
LINE
  5
79E
  8
0
  6
CONTINUOUS
 10
-592.04892390537782
 20
78.775701328284185
 30
0.0
 11
-594.00700361319184
 21
68.198688275643903
 31
0.0
  0
LINE
  5
79F
  8
0
  6
CONTINUOUS
 10
-591.0119758069859
 20
78.775701328284185
 30
0.0
 11
-592.99001215722774
 21
68.198688275643903
 31
0.0
  0
LINE
  5
7A0
  8
0
  6
CONTINUOUS
 10
-594.00700361319184
 20
68.198688275643903
 30
0.0
 11
-594.04612532181693
 21
67.987363465362748
 31
0.0
  0
LINE
  5
7A1
  8
0
  6
CONTINUOUS
 10
-592.99001215722774
 20
68.198688275643903
 30
0.0
 11
-593.01599294923415
 21
67.987363465362748
 31
0.0
  0
LINE
  5
7A2
  8
0
  6
CONTINUOUS
 10
-594.04612532181693
 20
67.987363465362748
 30
0.0
 11
-594.08435155780148
 21
67.390229448232617
 31
0.0
  0
LINE
  5
7A3
  8
0
  6
CONTINUOUS
 10
-593.01599294923415
 20
67.987363465362748
 30
0.0
 11
-593.08940607416912
 21
67.390229448232617
 31
0.0
  0
LINE
  5
7A4
  8
0
  6
CONTINUOUS
 10
-594.08435155780148
 20
67.390229448232617
 30
0.0
 11
-594.08788317976166
 21
67.335061798223563
 31
0.0
  0
LINE
  5
7A5
  8
0
  6
CONTINUOUS
 10
-593.08940607416912
 20
67.390229448232617
 30
0.0
 11
-593.07969062408495
 21
67.335061798223563
 31
0.0
  0
LINE
  5
7A6
  8
0
  6
CONTINUOUS
 10
-594.08788317976166
 20
67.335061798223563
 30
0.0
 11
-594.02545664579054
 21
66.980582577230706
 31
0.0
  0
LINE
  5
7A7
  8
0
  6
CONTINUOUS
 10
-593.07969062408495
 20
67.335061798223563
 30
0.0
 11
-593.01726409011394
 21
66.980582577230706
 31
0.0
  0
LINE
  5
7A8
  8
0
  6
CONTINUOUS
 10
-594.02545664579054
 20
66.980582577230706
 30
0.0
 11
-593.97451720481774
 21
66.691331000934738
 31
0.0
  0
LINE
  5
7A9
  8
0
  6
CONTINUOUS
 10
-593.01726409011394
 20
66.980582577230706
 30
0.0
 11
-592.89066170266324
 21
66.691331000934738
 31
0.0
  0
LINE
  5
7AA
  8
0
  6
CONTINUOUS
 10
-593.97451720481774
 20
66.691331000934738
 30
0.0
 11
-593.93433808171847
 21
66.599532774024041
 31
0.0
  0
LINE
  5
7AB
  8
0
  6
CONTINUOUS
 10
-592.89066170266324
 20
66.691331000934738
 30
0.0
 11
-592.85048257956396
 21
66.599532774024041
 31
0.0
  0
LINE
  5
7AC
  8
0
  6
CONTINUOUS
 10
-593.93433808171847
 20
66.599532774024041
 30
0.0
 11
-593.78949548015987
 21
66.268607333680819
 31
0.0
  0
LINE
  5
7AD
  8
0
  6
CONTINUOUS
 10
-592.85048257956396
 20
66.599532774024041
 30
0.0
 11
-592.59848381425184
 21
66.268607333680819
 31
0.0
  0
LINE
  5
7AE
  8
0
  6
CONTINUOUS
 10
-593.78949548015987
 20
66.268607333680819
 30
0.0
 11
-593.71243197395358
 21
66.092538453038955
 31
0.0
  0
LINE
  5
7AF
  8
0
  6
CONTINUOUS
 10
-592.59848381425184
 20
66.268607333680819
 30
0.0
 11
-592.32368785884807
 21
66.092538453038955
 31
0.0
  0
LINE
  5
7B0
  8
0
  6
CONTINUOUS
 10
-593.71243197395358
 20
66.092538453038955
 30
0.0
 11
-593.31643391417754
 21
65.572512761071138
 31
0.0
  0
LINE
  5
7B1
  8
0
  6
CONTINUOUS
 10
-592.32368785884807
 20
66.092538453038955
 30
0.0
 11
-591.51206824533188
 21
65.572512761071138
 31
0.0
  0
LINE
  5
7B2
  8
0
  6
CONTINUOUS
 10
-593.31643391417754
 20
65.572512761071138
 30
0.0
 11
-592.80889481785744
 21
65.160632621516612
 31
0.0
  0
LINE
  5
7B3
  8
0
  6
CONTINUOUS
 10
-591.51206824533188
 20
65.572512761071138
 30
0.0
 11
-590.86923462221762
 21
65.160632621516612
 31
0.0
  0
LINE
  5
7B4
  8
0
  6
CONTINUOUS
 10
-462.30000000000149
 20
63.996774167516072
 30
0.0
 11
-462.88234285148252
 21
63.920107276666428
 31
0.0
  0
LINE
  5
7B5
  8
0
  6
CONTINUOUS
 10
-461.71765714852052
 20
63.920107276666428
 30
0.0
 11
-462.30000000000149
 21
63.996774167516072
 31
0.0
  0
LINE
  5
7B6
  8
0
  6
CONTINUOUS
 10
-462.88234285148252
 20
63.920107276666428
 30
0.0
 11
-463.42500000000189
 21
63.695331326030889
 31
0.0
  0
LINE
  5
7B7
  8
0
  6
CONTINUOUS
 10
-461.71765714852052
 20
63.920107276666428
 30
0.0
 11
-461.17500000000098
 21
63.695331326030889
 31
0.0
  0
LINE
  5
7B8
  8
0
  6
CONTINUOUS
 10
-463.42500000000189
 20
63.695331326030889
 30
0.0
 11
-463.89099025767177
 21
63.33776442518559
 31
0.0
  0
LINE
  5
7B9
  8
0
  6
CONTINUOUS
 10
-461.17500000000098
 20
63.695331326030889
 30
0.0
 11
-460.70900974233098
 21
63.33776442518559
 31
0.0
  0
LINE
  5
7BA
  8
0
  6
CONTINUOUS
 10
-463.89099025767177
 20
63.33776442518559
 30
0.0
 11
-464.15264128501951
 21
62.996774167516008
 31
0.0
  0
LINE
  5
7BB
  8
0
  6
CONTINUOUS
 10
-460.70900974233098
 20
63.33776442518559
 30
0.0
 11
-460.4473587149833
 21
62.996774167516008
 31
0.0
  0
LINE
  5
7BC
  8
0
  6
CONTINUOUS
 10
-462.30000000000149
 20
62.996774167516008
 30
0.0
 11
-461.976476193623
 21
62.954181450377348
 31
0.0
  0
LINE
  5
7BD
  8
0
  6
CONTINUOUS
 10
-460.4473587149833
 20
62.996774167516008
 30
0.0
 11
-460.41467617363139
 21
62.954181450377348
 31
0.0
  0
LINE
  5
7BE
  8
0
  6
CONTINUOUS
 10
-464.15264128501951
 20
62.996774167516008
 30
0.0
 11
-464.1853238263713
 21
62.954181450377348
 31
0.0
  0
LINE
  5
7BF
  8
0
  6
CONTINUOUS
 10
-462.30000000000149
 20
62.996774167516008
 30
0.0
 11
-462.62352380637981
 21
62.954181450377348
 31
0.0
  0
LINE
  5
7C0
  8
0
  6
CONTINUOUS
 10
-461.976476193623
 20
62.954181450377348
 30
0.0
 11
-461.77752741370011
 21
62.871774167515639
 31
0.0
  0
LINE
  5
7C1
  8
0
  6
CONTINUOUS
 10
-460.41467617363139
 20
62.954181450377348
 30
0.0
 11
-460.35144284148572
 21
62.871774167515639
 31
0.0
  0
LINE
  5
7C2
  8
0
  6
CONTINUOUS
 10
-464.1853238263713
 20
62.954181450377348
 30
0.0
 11
-464.24855715851709
 21
62.871774167515639
 31
0.0
  0
LINE
  5
7C3
  8
0
  6
CONTINUOUS
 10
-462.62352380637981
 20
62.954181450377348
 30
0.0
 11
-462.82247258630281
 21
62.871774167515639
 31
0.0
  0
LINE
  5
7C4
  8
0
  6
CONTINUOUS
 10
-461.77752741370011
 20
62.871774167515639
 30
0.0
 11
-461.67500000000098
 21
62.829305922246419
 31
0.0
  0
LINE
  5
7C5
  8
0
  6
CONTINUOUS
 10
-460.35144284148572
 20
62.871774167515639
 30
0.0
 11
-460.33385191832502
 21
62.829305922246419
 31
0.0
  0
LINE
  5
7C6
  8
0
  6
CONTINUOUS
 10
-464.24855715851709
 20
62.871774167515639
 30
0.0
 11
-464.26614808167778
 21
62.829305922246419
 31
0.0
  0
LINE
  5
7C7
  8
0
  6
CONTINUOUS
 10
-462.82247258630281
 20
62.871774167515639
 30
0.0
 11
-462.925000000002
 21
62.829305922246419
 31
0.0
  0
LINE
  5
7C8
  8
0
  6
CONTINUOUS
 10
-461.67500000000098
 20
62.829305922246419
 30
0.0
 11
-461.41611652351759
 21
62.630657643998859
 31
0.0
  0
LINE
  5
7C9
  8
0
  6
CONTINUOUS
 10
-460.33385191832502
 20
62.829305922246419
 30
0.0
 11
-460.25156910733273
 21
62.630657643998859
 31
0.0
  0
LINE
  5
7CA
  8
0
  6
CONTINUOUS
 10
-464.26614808167778
 20
62.829305922246419
 30
0.0
 11
-464.34843089267008
 21
62.630657643998859
 31
0.0
  0
LINE
  5
7CB
  8
0
  6
CONTINUOUS
 10
-462.925000000002
 20
62.829305922246419
 30
0.0
 11
-463.18388347648528
 21
62.630657643998859
 31
0.0
  0
LINE
  5
7CC
  8
0
  6
CONTINUOUS
 10
-592.80889481785744
 20
65.160632621516612
 30
0.0
 11
-588.71176953181862
 21
62.577056469710357
 31
0.0
  0
LINE
  5
7CD
  8
0
  6
CONTINUOUS
 10
-590.86923462221762
 20
65.160632621516612
 30
0.0
 11
-586.83697023565662
 21
62.577056469710357
 31
0.0
  0
LINE
  5
7CE
  8
0
  6
CONTINUOUS
 10
-461.41611652351759
 20
62.630657643998859
 30
0.0
 11
-461.21746824527008
 21
62.371774167515611
 31
0.0
  0
LINE
  5
7CF
  8
0
  6
CONTINUOUS
 10
-460.25156910733273
 20
62.630657643998859
 30
0.0
 11
-460.14433606029911
 21
62.371774167515611
 31
0.0
  0
LINE
  5
7D0
  8
0
  6
CONTINUOUS
 10
-464.34843089267008
 20
62.630657643998859
 30
0.0
 11
-464.45566393970381
 21
62.371774167515611
 31
0.0
  0
LINE
  5
7D1
  8
0
  6
CONTINUOUS
 10
-463.18388347648528
 20
62.630657643998859
 30
0.0
 11
-463.38253175473278
 21
62.371774167515611
 31
0.0
  0
LINE
  5
7D2
  8
0
  6
CONTINUOUS
 10
-461.21746824527008
 20
62.371774167515611
 30
0.0
 11
-461.19979907582109
 21
62.329117018996058
 31
0.0
  0
LINE
  5
7D3
  8
0
  6
CONTINUOUS
 10
-460.14433606029911
 20
62.371774167515611
 30
0.0
 11
-460.12666689085012
 21
62.329117018996058
 31
0.0
  0
LINE
  5
7D4
  8
0
  6
CONTINUOUS
 10
-464.45566393970381
 20
62.371774167515611
 30
0.0
 11
-464.47333310915269
 21
62.329117018996058
 31
0.0
  0
LINE
  5
7D5
  8
0
  6
CONTINUOUS
 10
-463.38253175473278
 20
62.371774167515611
 30
0.0
 11
-463.40020092418177
 21
62.329117018996058
 31
0.0
  0
LINE
  5
7D6
  8
0
  6
CONTINUOUS
 10
-461.19979907582109
 20
62.329117018996058
 30
0.0
 11
-461.09259271713921
 21
62.07029797389356
 31
0.0
  0
LINE
  5
7D7
  8
0
  6
CONTINUOUS
 10
-460.12666689085012
 20
62.329117018996058
 30
0.0
 11
-460.09259271713933
 21
62.07029797389356
 31
0.0
  0
LINE
  5
7D8
  8
0
  6
CONTINUOUS
 10
-464.47333310915269
 20
62.329117018996058
 30
0.0
 11
-464.50740728286371
 21
62.07029797389356
 31
0.0
  0
LINE
  5
7D9
  8
0
  6
CONTINUOUS
 10
-463.40020092418177
 20
62.329117018996058
 30
0.0
 11
-463.5074072828636
 21
62.07029797389356
 31
0.0
  0
LINE
  5
7DA
  8
0
  6
CONTINUOUS
 10
-461.09259271713921
 20
62.07029797389356
 30
0.0
 11
-461.05000000000058
 21
61.746774167515213
 31
0.0
  0
LINE
  5
7DB
  8
0
  6
CONTINUOUS
 10
-460.09259271713933
 20
62.07029797389356
 30
0.0
 11
-460.05000000000052
 21
61.746774167515213
 31
0.0
  0
LINE
  5
7DC
  8
0
  6
CONTINUOUS
 10
-464.50740728286371
 20
62.07029797389356
 30
0.0
 11
-464.55000000000251
 21
61.746774167515213
 31
0.0
  0
LINE
  5
7DD
  8
0
  6
CONTINUOUS
 10
-463.5074072828636
 20
62.07029797389356
 30
0.0
 11
-463.50999574841268
 21
61.746774167515213
 31
0.0
  0
LINE
  5
7DE
  8
0
  6
CONTINUOUS
 10
-588.71176953181862
 20
62.577056469710357
 30
0.0
 11
-587.3703606641933
 21
61.731187300898959
 31
0.0
  0
LINE
  5
7DF
  8
0
  6
CONTINUOUS
 10
-586.83697023565662
 20
62.577056469710357
 30
0.0
 11
-585.66951618625103
 21
61.731187300898959
 31
0.0
  0
LINE
  5
7E0
  8
0
  6
CONTINUOUS
 10
-587.3703606641933
 20
61.731187300898959
 30
0.0
 11
-585.42109144315168
 21
60.318860420340897
 31
0.0
  0
LINE
  5
7E1
  8
0
  6
CONTINUOUS
 10
-585.66951618625103
 20
61.731187300898959
 30
0.0
 11
-583.72024696520953
 21
60.318860420340897
 31
0.0
  0
LINE
  5
7E2
  8
0
  6
CONTINUOUS
 10
-585.42109144315168
 20
60.318860420340897
 30
0.0
 11
-584.35666956797604
 21
59.547642360599909
 31
0.0
  0
LINE
  5
7E3
  8
0
  6
CONTINUOUS
 10
-583.72024696520953
 20
60.318860420340897
 30
0.0
 11
-582.89544810790107
 21
59.547642360599909
 31
0.0
  0
LINE
  5
7E4
  8
0
  6
CONTINUOUS
 10
-584.35666956797604
 20
59.547642360599909
 30
0.0
 11
-582.41426267394263
 21
57.731418607656451
 31
0.0
  0
LINE
  5
7E5
  8
0
  6
CONTINUOUS
 10
-582.89544810790107
 20
59.547642360599909
 30
0.0
 11
-580.95304121386755
 21
57.731418607656451
 31
0.0
  0
LINE
  5
7E6
  8
0
  6
CONTINUOUS
 10
-582.41426267394263
 20
57.731418607656451
 30
0.0
 11
-581.6809416927116
 21
57.045735814450381
 31
0.0
  0
LINE
  5
7E7
  8
0
  6
CONTINUOUS
 10
-580.95304121386755
 20
57.731418607656451
 30
0.0
 11
-580.38524380978299
 21
57.045735814450381
 31
0.0
  0
LINE
  5
7E8
  8
0
  6
CONTINUOUS
 10
-464.55000000000251
 20
61.746774167515213
 30
0.0
 11
-464.55000000000251
 21
56.746774167515142
 31
0.0
  0
LINE
  5
7E9
  8
0
  6
CONTINUOUS
 10
-463.50999574841268
 20
61.746774167515213
 30
0.0
 11
-463.5500000000024
 21
56.746774167515142
 31
0.0
  0
LINE
  5
7EA
  8
0
  6
CONTINUOUS
 10
-581.6809416927116
 20
57.045735814450381
 30
0.0
 11
-579.81324934043937
 21
54.790275504588081
 31
0.0
  0
LINE
  5
7EB
  8
0
  6
CONTINUOUS
 10
-580.38524380978299
 20
57.045735814450381
 30
0.0
 11
-578.5175514575111
 21
54.790275504588081
 31
0.0
  0
LINE
  5
7EC
  8
0
  6
CONTINUOUS
 10
-579.81324934043937
 20
54.790275504588081
 30
0.0
 11
-579.32596399441616
 21
54.201820582557822
 31
0.0
  0
LINE
  5
7ED
  8
0
  6
CONTINUOUS
 10
-578.5175514575111
 20
54.790275504588081
 30
0.0
 11
-578.14301842901511
 21
54.201820582557822
 31
0.0
  0
LINE
  5
7EE
  8
0
  6
CONTINUOUS
 10
-461.05000000000058
 20
61.746774167515213
 30
0.0
 11
-461.05000000000058
 21
53.30802505108845
 31
0.0
  0
LINE
  5
7EF
  8
0
  6
CONTINUOUS
 10
-460.05000000000052
 20
61.746774167515213
 30
0.0
 11
-460.05000000000052
 21
53.30802505108845
 31
0.0
  0
LINE
  5
7F0
  8
0
  6
CONTINUOUS
 10
-579.32596399441616
 20
54.201820582557822
 30
0.0
 11
-577.65012783390023
 21
51.568797692341761
 31
0.0
  0
LINE
  5
7F1
  8
0
  6
CONTINUOUS
 10
-578.14301842901511
 20
54.201820582557822
 30
0.0
 11
-576.46718226849907
 21
51.568797692341761
 31
0.0
  0
LINE
  5
7F2
  8
0
  6
CONTINUOUS
 10
-577.65012783390023
 20
51.568797692341761
 30
0.0
 11
-577.34337560504105
 21
51.086837904600699
 31
0.0
  0
LINE
  5
7F3
  8
0
  6
CONTINUOUS
 10
-576.46718226849907
 20
51.568797692341761
 30
0.0
 11
-576.24059447058062
 21
51.086837904600699
 31
0.0
  0
LINE
  5
7F4
  8
0
  6
CONTINUOUS
 10
-577.34337560504105
 20
51.086837904600699
 30
0.0
 11
-576.10666276910194
 21
48.456308540788953
 31
0.0
  0
LINE
  5
7F5
  8
0
  6
CONTINUOUS
 10
-576.24059447058062
 20
51.086837904600699
 30
0.0
 11
-575.00388163464152
 21
48.456308540788953
 31
0.0
  0
LINE
  5
7F6
  8
0
  6
CONTINUOUS
 10
-576.10666276910194
 20
48.456308540788953
 30
0.0
 11
-575.78481565653624
 21
47.77172902025778
 31
0.0
  0
LINE
  5
7F7
  8
0
  6
CONTINUOUS
 10
-575.00388163464152
 20
48.456308540788953
 30
0.0
 11
-574.77321098985442
 21
47.77172902025778
 31
0.0
  0
LINE
  5
7F8
  8
0
  6
CONTINUOUS
 10
-575.78481565653624
 20
47.77172902025778
 30
0.0
 11
-574.71366508972449
 21
44.480482156865499
 31
0.0
  0
LINE
  5
7F9
  8
0
  6
CONTINUOUS
 10
-574.77321098985442
 20
47.77172902025778
 30
0.0
 11
-573.66421778546646
 21
44.480482156865499
 31
0.0
  0
LINE
  5
7FA
  8
0
  6
CONTINUOUS
 10
-574.71366508972449
 20
44.480482156865499
 30
0.0
 11
-574.63307110491849
 21
44.232846849635962
 31
0.0
  0
LINE
  5
7FB
  8
0
  6
CONTINUOUS
 10
-573.66421778546646
 20
44.480482156865499
 30
0.0
 11
-573.60092312139761
 21
44.232846849635962
 31
0.0
  0
LINE
  5
7FC
  8
0
  6
CONTINUOUS
 10
-574.63307110491849
 20
44.232846849635962
 30
0.0
 11
-569.34373791779672
 21
23.538754099449172
 31
0.0
  0
LINE
  5
7FD
  8
0
  6
CONTINUOUS
 10
-573.60092312139761
 20
44.232846849635962
 30
0.0
 11
-568.31158993427573
 21
23.538754099449172
 31
0.0
  0
LINE
  5
7FE
  8
0
  6
CONTINUOUS
 10
-569.34373791779672
 20
23.538754099449172
 30
0.0
 11
-569.18550125762454
 21
22.91966583137507
 31
0.0
  0
LINE
  5
7FF
  8
0
  6
CONTINUOUS
 10
-568.31158993427573
 20
23.538754099449172
 30
0.0
 11
-568.08835855907034
 21
22.91966583137507
 31
0.0
  0
LINE
  5
800
  8
0
  6
CONTINUOUS
 10
-569.18550125762454
 20
22.91966583137507
 30
0.0
 11
-567.18912495653456
 21
17.486544773822981
 31
0.0
  0
LINE
  5
801
  8
0
  6
CONTINUOUS
 10
-568.08835855907034
 20
22.91966583137507
 30
0.0
 11
-566.12927913876899
 21
17.486544773822981
 31
0.0
  0
LINE
  5
802
  8
0
  6
CONTINUOUS
 10
-567.18912495653456
 20
17.486544773822981
 30
0.0
 11
-567.02796880109838
 21
17.047959672819442
 31
0.0
  0
LINE
  5
803
  8
0
  6
CONTINUOUS
 10
-566.12927913876899
 20
17.486544773822981
 30
0.0
 11
-565.85679722226826
 21
17.047959672819442
 31
0.0
  0
LINE
  5
804
  8
0
  6
CONTINUOUS
 10
-567.02796880109838
 20
17.047959672819442
 30
0.0
 11
-564.10661818503252
 21
12.34577293151704
 31
0.0
  0
LINE
  5
805
  8
0
  6
CONTINUOUS
 10
-565.85679722226826
 20
17.047959672819442
 30
0.0
 11
-562.93544660620216
 21
12.34577293151704
 31
0.0
  0
LINE
  5
806
  8
0
  6
CONTINUOUS
 10
-564.10661818503252
 20
12.34577293151704
 30
0.0
 11
-563.72678055315134
 21
11.7343887769905
 31
0.0
  0
LINE
  5
807
  8
0
  6
CONTINUOUS
 10
-562.93544660620216
 20
12.34577293151704
 30
0.0
 11
-562.35470349060222
 21
11.7343887769905
 31
0.0
  0
LINE
  5
808
  8
0
  6
CONTINUOUS
 10
-563.72678055315134
 20
11.7343887769905
 30
0.0
 11
-560.13940340392082
 21
7.9577352335664191
 31
0.0
  0
LINE
  5
809
  8
0
  6
CONTINUOUS
 10
-562.35470349060222
 20
11.7343887769905
 30
0.0
 11
-558.76732634137159
 21
7.9577352335664191
 31
0.0
  0
LINE
  5
80A
  8
0
  6
CONTINUOUS
 10
-560.13940340392082
 20
7.9577352335664191
 30
0.0
 11
-559.41855540546919
 21
7.1988540135624826
 31
0.0
  0
LINE
  5
80B
  8
0
  6
CONTINUOUS
 10
-558.76732634137159
 20
7.9577352335664191
 30
0.0
 11
-557.88299740425191
 21
7.1988540135624826
 31
0.0
  0
LINE
  5
80C
  8
0
  6
CONTINUOUS
 10
-559.41855540546919
 20
7.1988540135624826
 30
0.0
 11
-556.40982853723267
 21
4.6169342995445009
 31
0.0
  0
LINE
  5
80D
  8
0
  6
CONTINUOUS
 10
-557.88299740425191
 20
7.1988540135624826
 30
0.0
 11
-554.87427053601539
 21
4.6169342995445009
 31
0.0
  0
LINE
  5
80E
  8
0
  6
CONTINUOUS
 10
-556.40982853723267
 20
4.6169342995445009
 30
0.0
 11
-555.52549960011288
 21
3.8580530795404311
 31
0.0
  0
LINE
  5
80F
  8
0
  6
CONTINUOUS
 10
-554.87427053601539
 20
4.6169342995445009
 30
0.0
 11
-554.08631069543856
 21
3.8580530795404311
 31
0.0
  0
LINE
  5
810
  8
0
  6
CONTINUOUS
 10
-555.52549960011288
 20
3.8580530795404311
 30
0.0
 11
-554.89356305433205
 21
3.246127752762539
 31
0.0
  0
LINE
  5
811
  8
0
  6
CONTINUOUS
 10
-554.08631069543856
 20
3.8580530795404311
 30
0.0
 11
-553.45093776720864
 21
3.246127752762539
 31
0.0
  0
LINE
  5
812
  8
0
  6
CONTINUOUS
 10
-554.89356305433205
 20
3.246127752762539
 30
0.0
 11
-553.90064184144535
 21
2.28464888005443
 31
0.0
  0
LINE
  5
813
  8
0
  6
CONTINUOUS
 10
-553.45093776720864
 20
3.246127752762539
 30
0.0
 11
-552.63399644702019
 21
2.28464888005443
 31
0.0
  0
LINE
  5
814
  8
0
  6
CONTINUOUS
 10
-553.90064184144535
 20
2.28464888005443
 30
0.0
 11
-553.01679938559971
 21
1.2124448834022981
 31
0.0
  0
LINE
  5
815
  8
0
  6
CONTINUOUS
 10
-552.63399644702019
 20
2.28464888005443
 30
0.0
 11
-551.72297513037995
 21
1.2124448834022981
 31
0.0
  0
LINE
  5
816
  8
0
  6
CONTINUOUS
 10
-553.01679938559971
 20
1.2124448834022981
 30
0.0
 11
-552.52982372068175
 21
0.6216865975288073
 31
0.0
  0
LINE
  5
817
  8
0
  6
CONTINUOUS
 10
-551.72297513037995
 20
1.2124448834022981
 30
0.0
 11
-551.29043381281031
 21
0.6216865975288073
 31
0.0
  0
LINE
  5
818
  8
0
  6
CONTINUOUS
 10
-552.52982372068175
 20
0.6216865975288073
 30
0.0
 11
-552.25099161407945
 21
0.2181559307878516
 31
0.0
  0
LINE
  5
819
  8
0
  6
CONTINUOUS
 10
-551.29043381281031
 20
0.6216865975288073
 30
0.0
 11
-550.99497678673799
 21
0.2181559307878516
 31
0.0
  0
LINE
  5
81A
  8
0
  6
CONTINUOUS
 10
-552.25099161407945
 20
0.2181559307878516
 30
0.0
 11
-551.89517232271885
 21
-0.2967919266583596
 31
0.0
  0
LINE
  5
81B
  8
0
  6
CONTINUOUS
 10
-550.99497678673799
 20
0.2181559307878516
 30
0.0
 11
-550.71289155138231
 21
-0.2967919266583596
 31
0.0
  0
LINE
  5
81C
  8
0
  6
CONTINUOUS
 10
-551.89517232271885
 20
-0.2967919266583596
 30
0.0
 11
-551.64511135739758
 21
-0.6586844981113434
 31
0.0
  0
LINE
  5
81D
  8
0
  6
CONTINUOUS
 10
-550.71289155138231
 20
-0.2967919266583596
 30
0.0
 11
-550.62454257538434
 21
-0.6586844981113434
 31
0.0
  0
LINE
  5
81E
  8
0
  6
CONTINUOUS
 10
-551.64511135739758
 20
-0.6586844981113434
 30
0.0
 11
-551.59420914381838
 21
-0.8671887026795985
 31
0.0
  0
LINE
  5
81F
  8
0
  6
CONTINUOUS
 10
-550.62454257538434
 20
-0.6586844981113434
 30
0.0
 11
-550.57364036180502
 21
-0.8671887026795985
 31
0.0
  0
LINE
  5
820
  8
0
  6
CONTINUOUS
 10
-551.59420914381838
 20
-0.8671887026795985
 30
0.0
 11
-551.56774958541041
 21
-0.9755715959007549
 31
0.0
  0
LINE
  5
821
  8
0
  6
CONTINUOUS
 10
-550.57364036180502
 20
-0.8671887026795985
 30
0.0
 11
-550.57605274686523
 21
-0.9755715959007549
 31
0.0
  0
LINE
  5
822
  8
0
  6
CONTINUOUS
 10
-551.56774958541041
 20
-0.9755715959007549
 30
0.0
 11
-551.57852967747237
 21
-1.3245048683582781
 31
0.0
  0
LINE
  5
823
  8
0
  6
CONTINUOUS
 10
-550.57605274686523
 20
-0.9755715959007549
 30
0.0
 11
-550.58381929920995
 21
-1.3245048683582781
 31
0.0
  0
LINE
  5
824
  8
0
  6
CONTINUOUS
 10
-551.57852967747237
 20
-1.3245048683582781
 30
0.0
 11
-552.04990586115423
 21
-4.3791909279641397
 31
0.0
  0
LINE
  5
825
  8
0
  6
CONTINUOUS
 10
-550.58381929920995
 20
-1.3245048683582781
 30
0.0
 11
-551.03888409491685
 21
-4.3791909279641397
 31
0.0
  0
LINE
  5
826
  8
0
  6
CONTINUOUS
 10
-552.04990586115423
 20
-4.3791909279641397
 30
0.0
 11
-552.05695908776852
 21
-4.5316983123817396
 31
0.0
  0
LINE
  5
827
  8
0
  6
CONTINUOUS
 10
-551.03888409491685
 20
-4.3791909279641397
 30
0.0
 11
-551.06160353003384
 21
-4.5316983123817396
 31
0.0
  0
LINE
  5
828
  8
0
  6
CONTINUOUS
 10
-552.05695908776852
 20
-4.5316983123817396
 30
0.0
 11
-552.10378257093691
 21
-5.544132385157333
 31
0.0
  0
LINE
  5
829
  8
0
  6
CONTINUOUS
 10
-551.06160353003384
 20
-4.5316983123817396
 30
0.0
 11
-551.10842701320223
 21
-5.544132385157333
 31
0.0
  0
LINE
  5
82A
  8
0
  6
CONTINUOUS
 10
-552.10378257093691
 20
-5.544132385157333
 30
0.0
 11
-552.10658691972662
 21
-5.604769016060926
 31
0.0
  0
LINE
  5
82B
  8
0
  6
CONTINUOUS
 10
-551.10842701320223
 20
-5.544132385157333
 30
0.0
 11
-551.09817037197536
 21
-5.604769016060926
 31
0.0
  0
LINE
  5
82C
  8
0
  6
CONTINUOUS
 10
-552.10658691972662
 20
-5.604769016060926
 30
0.0
 11
-551.94780914552734
 21
-6.5434534330165954
 31
0.0
  0
LINE
  5
82D
  8
0
  6
CONTINUOUS
 10
-551.09817037197536
 20
-5.604769016060926
 30
0.0
 11
-550.9393925977763
 21
-6.5434534330165954
 31
0.0
  0
LINE
  5
82E
  8
0
  6
CONTINUOUS
 10
-551.94780914552734
 20
-6.5434534330165954
 30
0.0
 11
-551.90196631157926
 21
-6.8144734424169018
 31
0.0
  0
LINE
  5
82F
  8
0
  6
CONTINUOUS
 10
-550.9393925977763
 20
-6.5434534330165954
 30
0.0
 11
-550.83072183541015
 21
-6.8144734424169018
 31
0.0
  0
LINE
  5
830
  8
0
  6
CONTINUOUS
 10
-551.90196631157926
 20
-6.8144734424169018
 30
0.0
 11
-551.63344048155204
 21
-7.4841648239223284
 31
0.0
  0
LINE
  5
831
  8
0
  6
CONTINUOUS
 10
-550.83072183541015
 20
-6.8144734424169018
 30
0.0
 11
-550.56219600538282
 21
-7.4841648239223284
 31
0.0
  0
LINE
  5
832
  8
0
  6
CONTINUOUS
 10
-551.63344048155204
 20
-7.4841648239223284
 30
0.0
 11
-551.44535991026089
 21
-7.9532293366712317
 31
0.0
  0
LINE
  5
833
  8
0
  6
CONTINUOUS
 10
-550.56219600538282
 20
-7.4841648239223284
 30
0.0
 11
-550.31306725826687
 21
-7.9532293366712317
 31
0.0
  0
LINE
  5
834
  8
0
  6
CONTINUOUS
 10
-461.05000000000058
 20
52.3080250510884
 30
0.0
 11
-461.05000000000058
 21
-9.7532258324851782
 31
0.0
  0
LINE
  5
835
  8
0
  6
CONTINUOUS
 10
-460.05000000000052
 20
52.3080250510884
 30
0.0
 11
-460.05000000000052
 21
-9.7532258324851782
 31
0.0
  0
LINE
  5
836
  8
0
  6
CONTINUOUS
 10
-461.05000000000058
 20
-9.7532258324851782
 30
0.0
 11
-461.10962980399461
 21
-10.20615916141443
 31
0.0
  0
LINE
  5
837
  8
0
  6
CONTINUOUS
 10
-460.05000000000052
 20
-9.7532258324851782
 30
0.0
 11
-460.10962980399472
 21
-10.20615916141443
 31
0.0
  0
LINE
  5
838
  8
0
  6
CONTINUOUS
 10
-551.44535991026089
 20
-7.9532293366712317
 30
0.0
 11
-550.21395194822662
 21
-10.271748505547951
 31
0.0
  0
LINE
  5
839
  8
0
  6
CONTINUOUS
 10
-550.31306725826687
 20
-7.9532293366712317
 30
0.0
 11
-549.08165929623237
 21
-10.271748505547951
 31
0.0
  0
LINE
  5
83A
  8
0
  6
CONTINUOUS
 10
-461.10962980399461
 20
-10.20615916141443
 30
0.0
 11
-461.21683616267649
 21
-10.464978206516919
 31
0.0
  0
LINE
  5
83B
  8
0
  6
CONTINUOUS
 10
-460.10962980399472
 20
-10.20615916141443
 30
0.0
 11
-460.14370397770563
 21
-10.464978206516919
 31
0.0
  0
LINE
  5
83C
  8
0
  6
CONTINUOUS
 10
-461.21683616267649
 20
-10.464978206516919
 30
0.0
 11
-461.2844555433777
 21
-10.628225832484979
 31
0.0
  0
LINE
  5
83D
  8
0
  6
CONTINUOUS
 10
-460.14370397770563
 20
-10.464978206516919
 30
0.0
 11
-460.21132335840679
 21
-10.628225832484979
 31
0.0
  0
LINE
  5
83E
  8
0
  6
CONTINUOUS
 10
-550.21395194822662
 20
-10.271748505547951
 30
0.0
 11
-549.88721029220869
 21
-10.88694413210254
 31
0.0
  0
LINE
  5
83F
  8
0
  6
CONTINUOUS
 10
-549.08165929623237
 20
-10.271748505547951
 30
0.0
 11
-548.70865424085389
 21
-10.88694413210254
 31
0.0
  0
LINE
  5
840
  8
0
  6
CONTINUOUS
 10
-461.2844555433777
 20
-10.628225832484979
 30
0.0
 11
-461.56256313292391
 21
-10.990662699561179
 31
0.0
  0
LINE
  5
841
  8
0
  6
CONTINUOUS
 10
-460.21132335840679
 20
-10.628225832484979
 30
0.0
 11
-460.36144962425379
 21
-10.990662699561179
 31
0.0
  0
LINE
  5
842
  8
0
  6
CONTINUOUS
 10
-549.88721029220869
 20
-10.88694413210254
 30
0.0
 11
-549.80424477485462
 21
-11.043153242544969
 31
0.0
  0
LINE
  5
843
  8
0
  6
CONTINUOUS
 10
-548.70865424085389
 20
-10.88694413210254
 30
0.0
 11
-548.54357446936433
 21
-11.043153242544969
 31
0.0
  0
LINE
  5
844
  8
0
  6
CONTINUOUS
 10
-461.56256313292391
 20
-10.990662699561179
 30
0.0
 11
-461.74183889811752
 21
-11.128225832484871
 31
0.0
  0
LINE
  5
845
  8
0
  6
CONTINUOUS
 10
-460.36144962425379
 20
-10.990662699561179
 30
0.0
 11
-460.41843013959328
 21
-11.128225832484871
 31
0.0
  0
LINE
  5
846
  8
0
  6
CONTINUOUS
 10
-549.80424477485462
 20
-11.043153242544969
 30
0.0
 11
-549.7338282677124
 21
-11.146860507316839
 31
0.0
  0
LINE
  5
847
  8
0
  6
CONTINUOUS
 10
-548.54357446936433
 20
-11.043153242544969
 30
0.0
 11
-548.43397797065904
 21
-11.146860507316839
 31
0.0
  0
LINE
  5
848
  8
0
  6
CONTINUOUS
 10
-461.74183889811752
 20
-11.128225832484871
 30
0.0
 11
-461.92500000000018
 21
-11.26877028910754
 31
0.0
  0
LINE
  5
849
  8
0
  6
CONTINUOUS
 10
-460.41843013959328
 20
-11.128225832484871
 30
0.0
 11
-460.5262736941707
 21
-11.26877028910754
 31
0.0
  0
LINE
  5
84A
  8
0
  6
CONTINUOUS
 10
-549.7338282677124
 20
-11.146860507316839
 30
0.0
 11
-549.60153290348694
 21
-11.3417010485852
 31
0.0
  0
LINE
  5
84B
  8
0
  6
CONTINUOUS
 10
-548.43397797065904
 20
-11.146860507316839
 30
0.0
 11
-548.10987808020695
 21
-11.3417010485852
 31
0.0
  0
LINE
  5
84C
  8
0
  6
CONTINUOUS
 10
-461.92500000000018
 20
-11.26877028910754
 30
0.0
 11
-462.34706667107082
 21
-11.443596028490569
 31
0.0
  0
LINE
  5
84D
  8
0
  6
CONTINUOUS
 10
-460.5262736941707
 20
-11.26877028910754
 30
0.0
 11
-460.66042220219259
 21
-11.443596028490569
 31
0.0
  0
LINE
  5
84E
  8
0
  6
CONTINUOUS
 10
-462.34706667107082
 20
-11.443596028490569
 30
0.0
 11
-462.48965142947583
 21
-11.462367668052471
 31
0.0
  0
LINE
  5
84F
  8
0
  6
CONTINUOUS
 10
-460.66042220219259
 20
-11.443596028490569
 30
0.0
 11
-460.67482618783708
 21
-11.462367668052471
 31
0.0
  0
LINE
  5
850
  8
0
  6
CONTINUOUS
 10
-549.60153290348694
 20
-11.3417010485852
 30
0.0
 11
-549.51960111317067
 21
-11.462367668052471
 31
0.0
  0
LINE
  5
851
  8
0
  6
CONTINUOUS
 10
-548.10987808020695
 20
-11.3417010485852
 30
0.0
 11
-547.75148842848819
 21
-11.462367668052471
 31
0.0
  0
LINE
  5
852
  8
0
  6
CONTINUOUS
 10
-460.67482618783708
 20
-11.462367668052471
 30
0.0
 11
-460.70617776008521
 21
-11.50322583248464
 31
0.0
  0
LINE
  5
853
  8
0
  6
CONTINUOUS
 10
-549.51960111317067
 20
-11.462367668052471
 30
0.0
 11
-549.49185870540498
 21
-11.50322583248464
 31
0.0
  0
LINE
  5
854
  8
0
  6
CONTINUOUS
 10
-549.49185870540498
 20
-11.50322583248464
 30
0.0
 11
-549.47043150051911
 21
-11.534783160455319
 31
0.0
  0
LINE
  5
855
  8
0
  6
CONTINUOUS
 10
-460.70617776008521
 20
-11.50322583248464
 30
0.0
 11
-460.7303925495055
 21
-11.534783160455319
 31
0.0
  0
LINE
  5
856
  8
0
  6
CONTINUOUS
 10
-549.47043150051911
 20
-11.534783160455319
 30
0.0
 11
-549.29818966114351
 21
-11.69776948074791
 31
0.0
  0
LINE
  5
857
  8
0
  6
CONTINUOUS
 10
-460.7303925495055
 20
-11.534783160455319
 30
0.0
 11
-460.8554563517373
 21
-11.69776948074791
 31
0.0
  0
LINE
  5
858
  8
0
  6
CONTINUOUS
 10
-549.29818966114351
 20
-11.69776948074791
 30
0.0
 11
-549.03879736164129
 21
-11.94322317864944
 31
0.0
  0
LINE
  5
859
  8
0
  6
CONTINUOUS
 10
-460.8554563517373
 20
-11.69776948074791
 30
0.0
 11
-461.1753378387005
 21
-11.94322317864944
 31
0.0
  0
LINE
  5
85A
  8
0
  6
CONTINUOUS
 10
-549.03879736164129
 20
-11.94322317864944
 30
0.0
 11
-548.72013354313913
 21
-12.134795692891879
 31
0.0
  0
LINE
  5
85B
  8
0
  6
CONTINUOUS
 10
-461.1753378387005
 20
-11.94322317864944
 30
0.0
 11
-461.42500000000041
 21
-12.134795692891879
 31
0.0
  0
LINE
  5
85C
  8
0
  6
CONTINUOUS
 10
-548.72013354313913
 20
-12.134795692891879
 30
0.0
 11
-548.529497533788
 21
-12.249401172071201
 31
0.0
  0
LINE
  5
85D
  8
0
  6
CONTINUOUS
 10
-461.42500000000041
 20
-12.134795692891879
 30
0.0
 11
-461.70168210215718
 21
-12.249401172071201
 31
0.0
  0
LINE
  5
85E
  8
0
  6
CONTINUOUS
 10
-548.529497533788
 20
-12.249401172071201
 30
0.0
 11
-548.05392611260925
 21
-12.40952185477965
 31
0.0
  0
LINE
  5
85F
  8
0
  6
CONTINUOUS
 10
-461.70168210215718
 20
-12.249401172071201
 30
0.0
 11
-462.08824762596828
 21
-12.40952185477965
 31
0.0
  0
LINE
  5
860
  8
0
  6
CONTINUOUS
 10
-548.05392611260925
 20
-12.40952185477965
 30
0.0
 11
-547.96631379537268
 21
-12.439020145519709
 31
0.0
  0
LINE
  5
861
  8
0
  6
CONTINUOUS
 10
-462.08824762596828
 20
-12.40952185477965
 30
0.0
 11
-462.31230938917548
 21
-12.439020145519709
 31
0.0
  0
LINE
  5
862
  8
0
  6
CONTINUOUS
 10
-547.96631379537268
 20
-12.439020145519709
 30
0.0
 11
-547.37554403644083
 21
-12.50322583248469
 31
0.0
  0
LINE
  5
863
  8
0
  6
CONTINUOUS
 10
-462.31230938917548
 20
-12.439020145519709
 30
0.0
 11
-462.80000000000013
 21
-12.50322583248469
 31
0.0
  0
ENDBLK
  5
865
  8
0
  0
BLOCK
  8
0
  2
*X47
 70
     1
 10
0.0
 20
0.0
 30
0.0
  3
*X47
  1

  0
LINE
  5
867
  8
0
 62
     0
 10
-65.000000000000554
 20
-269.99954087428648
 30
0.0
 11
-25.000000000000728
 21
-269.99954087428648
 31
0.0
  0
LINE
  5
868
  8
0
 62
     0
 10
-65.000000000000625
 20
-254.99954087428651
 30
0.0
 11
-25.000000000000782
 21
-254.99954087428651
 31
0.0
  0
LINE
  5
869
  8
0
 62
     0
 10
-65.000000000000696
 20
-239.99954087428651
 30
0.0
 11
-25.000000000000821
 21
-239.99954087428651
 31
0.0
  0
LINE
  5
86A
  8
0
 62
     0
 10
-65.000000000000767
 20
-224.99954087428651
 30
0.0
 11
-25.00000000000087
 21
-224.99954087428651
 31
0.0
  0
LINE
  5
86B
  8
0
 62
     0
 10
-65.000000000000824
 20
-209.99954087428659
 30
0.0
 11
-25.000000000000909
 21
-209.99954087428659
 31
0.0
  0
LINE
  5
86C
  8
0
 62
     0
 10
-65.000000000000895
 20
-194.99954087428651
 30
0.0
 11
-25.000000000000959
 21
-194.99954087428651
 31
0.0
  0
LINE
  5
86D
  8
0
 62
     0
 10
-65.000000000000952
 20
-179.99954087428651
 30
0.0
 11
-25.000000000001009
 21
-179.99954087428651
 31
0.0
  0
LINE
  5
86E
  8
0
 62
     0
 10
-65.000000000001023
 20
-164.99954087428651
 30
0.0
 11
-25.000000000001052
 21
-164.99954087428651
 31
0.0
  0
LINE
  5
86F
  8
0
 62
     0
 10
-65.000000000001094
 20
-149.99954087428651
 30
0.0
 11
-25.000000000001101
 21
-149.99954087428651
 31
0.0
  0
LINE
  5
870
  8
0
 62
     0
 10
-65.000000000001151
 20
-134.99954087428651
 30
0.0
 11
-25.000000000001151
 21
-134.99954087428651
 31
0.0
  0
LINE
  5
871
  8
0
 62
     0
 10
-65.000000000001222
 20
-119.9995408742865
 30
0.0
 11
-25.00000000000119
 21
-119.9995408742865
 31
0.0
  0
LINE
  5
872
  8
0
 62
     0
 10
-65.000000000001265
 20
-104.9995408742865
 30
0.0
 11
-25.00000000000124
 21
-104.9995408742865
 31
0.0
  0
LINE
  5
873
  8
0
 62
     0
 10
-65.00000000000135
 20
-89.999540874286524
 30
0.0
 11
-25.000000000001279
 21
-89.999540874286524
 31
0.0
  0
LINE
  5
874
  8
0
 62
     0
 10
-65.000000000001407
 20
-74.999540874286538
 30
0.0
 11
-25.000000000001329
 21
-74.999540874286538
 31
0.0
  0
LINE
  5
875
  8
0
 62
     0
 10
-65.000000000001478
 20
-59.999540874286538
 30
0.0
 11
-25.000000000001378
 21
-59.999540874286538
 31
0.0
  0
ENDBLK
  5
877
  8
0
  0
BLOCK
  8
0
  2
*U48
 70
     1
 10
0.0
 20
0.0
 30
0.0
  3
*U48
  1

  0
SOLID
  5
879
  8
0
  6
CONTINUOUS
 10
183.6423656488173
 20
376.1754039981181
 30
0.0
 11
180.05440722521311
 21
375.10694855443148
 31
0.0
 12
183.55821923020321
 22
375.10694855443148
 32
0.0
 13
183.55821923020321
 23
375.10694855443148
 33
0.0
  0
SOLID
  5
87A
  8
0
  6
CONTINUOUS
 10
180.05440722521311
 20
375.10694855443148
 30
0.0
 11
40.039725303755262
 21
333.41208160423008
 31
0.0
 12
43.543537308748398
 22
333.41208160423008
 32
0.0
 13
43.543537308748398
 23
333.41208160423008
 33
0.0
  0
SOLID
  5
87B
  8
0
  6
CONTINUOUS
 10
-180.05440722521311
 20
375.10694855443148
 30
0.0
 11
-183.55821923020321
 21
375.10694855443148
 31
0.0
 12
-43.543537308748398
 22
333.41208160423008
 32
0.0
 13
-43.543537308748398
 23
333.41208160423008
 33
0.0
210
0.0
220
0.0
230
-1.0
  0
SOLID
  5
87C
  8
0
  6
CONTINUOUS
 10
40.039725303755262
 20
333.41208160423008
 30
0.0
 11
36.125258028443469
 21
332.4468696451205
 31
0.0
 12
40.302278724018088
 22
332.4468696451205
 32
0.0
 13
40.302278724018088
 23
332.4468696451205
 33
0.0
210
0.0
220
0.0
230
1.0
  0
SOLID
  5
87D
  8
0
  6
CONTINUOUS
 10
-40.039725303755262
 20
333.41208160423008
 30
0.0
 11
-43.543537308748398
 21
333.41208160423008
 31
0.0
 12
-40.302278724018088
 22
332.4468696451205
 32
0.0
 13
-40.302278724018088
 23
332.4468696451205
 33
0.0
210
0.0
220
0.0
230
-1.0
  0
SOLID
  5
87E
  8
0
  6
CONTINUOUS
 10
36.125258028443469
 20
332.4468696451205
 30
0.0
 11
-132.3189616782137
 21
290.91264190251752
 31
0.0
 12
-128.1419409826392
 22
290.91264190251752
 32
0.0
 13
-128.1419409826392
 23
290.91264190251752
 33
0.0
210
0.0
220
0.0
230
1.0
  0
SOLID
  5
87F
  8
0
  6
CONTINUOUS
 10
-36.125258028443469
 20
332.4468696451205
 30
0.0
 11
-40.302278724018109
 21
332.4468696451205
 31
0.0
 12
128.1419409826392
 22
290.91264190251752
 32
0.0
 13
128.1419409826392
 23
290.91264190251752
 33
0.0
210
0.0
220
0.0
230
-1.0
  0
SOLID
  5
880
  8
0
  6
CONTINUOUS
 10
-132.3189616782137
 20
290.91264190251752
 30
0.0
 11
-133.3184860672695
 21
290.00245685442837
 31
0.0
 12
-131.83324375981289
 22
290.00245685442837
 32
0.0
 13
-131.83324375981289
 23
290.00245685442837
 33
0.0
210
0.0
220
0.0
230
1.0
  0
SOLID
  5
881
  8
0
  6
CONTINUOUS
 10
132.3189616782137
 20
290.91264190251752
 30
0.0
 11
128.1419409826392
 21
290.91264190251752
 31
0.0
 12
131.83324375981289
 22
290.00245685442837
 32
0.0
 13
131.83324375981289
 23
290.00245685442837
 33
0.0
210
0.0
220
0.0
230
-1.0
  0
SOLID
  5
882
  8
0
  6
CONTINUOUS
 10
-133.3184860672695
 20
290.00245685442837
 30
0.0
 11
-139.63543753141201
 21
284.25012621085199
 31
0.0
 12
-138.15019522395531
 22
284.25012621085199
 32
0.0
 13
-138.15019522395531
 23
284.25012621085199
 33
0.0
210
0.0
220
0.0
230
1.0
  0
SOLID
  5
883
  8
0
  6
CONTINUOUS
 10
133.3184860672695
 20
290.00245685442837
 30
0.0
 11
131.83324375981289
 21
290.00245685442837
 31
0.0
 12
138.15019522395531
 22
284.25012621085199
 32
0.0
 13
138.15019522395531
 23
284.25012621085199
 33
0.0
210
0.0
220
0.0
230
-1.0
  0
SOLID
  5
884
  8
0
  6
CONTINUOUS
 10
-139.63543753141201
 20
284.25012621085199
 30
0.0
 11
-139.84361172713281
 21
283.67687340778861
 31
0.0
 12
-138.77971573625041
 22
283.67687340778861
 32
0.0
 13
-138.77971573625041
 23
283.67687340778861
 33
0.0
  0
SOLID
  5
885
  8
0
  6
CONTINUOUS
 10
139.63543753141201
 20
284.25012621085199
 30
0.0
 11
138.15019522395531
 21
284.25012621085199
 31
0.0
 12
138.77971573625041
 22
283.67687340778861
 32
0.0
 13
138.77971573625041
 23
283.67687340778861
 33
0.0
210
0.0
220
0.0
230
-1.0
  0
SOLID
  5
886
  8
0
  6
CONTINUOUS
 10
-139.84361172713281
 20
283.67687340778861
 30
0.0
 11
-142.42673156546121
 21
276.56369262741907
 31
0.0
 12
-141.3628355745787
 22
276.56369262741907
 32
0.0
 13
-141.3628355745787
 23
276.56369262741907
 33
0.0
210
0.0
220
0.0
230
1.0
  0
SOLID
  5
887
  8
0
  6
CONTINUOUS
 10
139.84361172713281
 20
283.67687340778861
 30
0.0
 11
138.77971573625041
 21
283.67687340778861
 31
0.0
 12
141.3628355745787
 22
276.56369262741907
 32
0.0
 13
141.3628355745787
 23
276.56369262741907
 33
0.0
210
0.0
220
0.0
230
-1.0
  0
SOLID
  5
888
  8
0
  6
CONTINUOUS
 10
-142.42673156546121
 20
276.56369262741907
 30
0.0
 11
-142.4109626083067
 21
276.4694302722279
 31
0.0
 12
-141.39706652796229
 22
276.4694302722279
 32
0.0
 13
-141.39706652796229
 23
276.4694302722279
 33
0.0
  0
SOLID
  5
889
  8
0
  6
CONTINUOUS
 10
142.42673156546121
 20
276.56369262741907
 30
0.0
 11
141.3628355745787
 21
276.56369262741907
 31
0.0
 12
141.39706652796229
 22
276.4694302722279
 32
0.0
 13
141.39706652796229
 23
276.4694302722279
 33
0.0
210
0.0
220
0.0
230
-1.0
  0
SOLID
  5
88A
  8
0
  6
CONTINUOUS
 10
-142.4109626083067
 20
276.4694302722279
 30
0.0
 11
-141.2958097125464
 21
269.80336241987209
 31
0.0
 12
-140.28191363220211
 22
269.80336241987209
 32
0.0
 13
-140.28191363220211
 23
269.80336241987209
 33
0.0
210
0.0
220
0.0
230
1.0
  0
SOLID
  5
88B
  8
0
  6
CONTINUOUS
 10
142.4109626083067
 20
276.4694302722279
 30
0.0
 11
141.39706652796229
 21
276.4694302722279
 31
0.0
 12
140.28191363220211
 22
269.80336241987209
 32
0.0
 13
140.28191363220211
 23
269.80336241987209
 33
0.0
210
0.0
220
0.0
230
-1.0
  0
SOLID
  5
88C
  8
0
  6
CONTINUOUS
 10
141.10977620948839
 20
268.69130688119992
 30
0.0
 11
140.09588012914401
 21
268.69130688119992
 31
0.0
 12
141.08329893715191
 22
268.53303325377982
 32
0.0
 13
141.08329893715191
 23
268.53303325377982
 33
0.0
210
0.0
220
0.0
230
-1.0
  0
SOLID
  5
88D
  8
0
  6
CONTINUOUS
 10
-141.2958097125464
 20
269.80336241987209
 30
0.0
 11
-141.10977620948839
 21
268.69130688119992
 31
0.0
 12
-140.09588012914401
 22
268.69130688119992
 32
0.0
 13
-140.09588012914401
 23
268.69130688119992
 33
0.0
210
0.0
220
0.0
230
1.0
  0
SOLID
  5
88E
  8
0
  6
CONTINUOUS
 10
141.2958097125464
 20
269.80336241987209
 30
0.0
 11
140.28191363220211
 21
269.80336241987209
 31
0.0
 12
140.09588012914401
 22
268.69130688119992
 32
0.0
 13
140.09588012914401
 23
268.69130688119992
 33
0.0
210
0.0
220
0.0
230
-1.0
  0
SOLID
  5
88F
  8
0
  6
CONTINUOUS
 10
-139.93088112337921
 20
267.70498960382878
 30
0.0
 11
-140.91829993138711
 21
267.54671597640862
 31
0.0
 12
-139.9044038510427
 22
267.54671597640862
 32
0.0
 13
-139.9044038510427
 23
267.54671597640862
 33
0.0
210
0.0
220
0.0
230
1.0
  0
SOLID
  5
890
  8
0
  6
CONTINUOUS
 10
-140.91829993138711
 20
267.54671597640862
 30
0.0
 11
-140.90271859851879
 21
267.45357518600599
 31
0.0
 12
-139.88882251817429
 22
267.45357518600599
 32
0.0
 13
-139.88882251817429
 23
267.45357518600599
 33
0.0
210
0.0
220
0.0
230
1.0
  0
SOLID
  5
891
  8
0
  6
CONTINUOUS
 10
140.91829993138711
 20
267.54671597640862
 30
0.0
 11
139.9044038510427
 21
267.54671597640862
 31
0.0
 12
139.88882251817429
 22
267.45357518600599
 32
0.0
 13
139.88882251817429
 23
267.45357518600599
 33
0.0
210
0.0
220
0.0
230
-1.0
  0
SOLID
  5
892
  8
0
  6
CONTINUOUS
 10
139.43362839174151
 20
258.67177043363318
 30
0.0
 11
138.4197323113969
 21
258.67177043363318
 31
0.0
 12
139.40602668553109
 22
258.50677525930439
 32
0.0
 13
139.40602668553109
 23
258.50677525930439
 33
0.0
210
0.0
220
0.0
230
-1.0
  0
SOLID
  5
893
  8
0
  6
CONTINUOUS
 10
-140.90271859851879
 20
267.45357518600599
 30
0.0
 11
-139.43362839174151
 21
258.67177043363318
 31
0.0
 12
-138.4197323113969
 22
258.67177043363318
 32
0.0
 13
-138.4197323113969
 23
258.67177043363318
 33
0.0
210
0.0
220
0.0
230
1.0
  0
SOLID
  5
894
  8
0
  6
CONTINUOUS
 10
140.90271859851879
 20
267.45357518600599
 30
0.0
 11
139.88882251817429
 21
267.45357518600599
 31
0.0
 12
138.4197323113969
 22
258.67177043363318
 32
0.0
 13
138.4197323113969
 23
258.67177043363318
 33
0.0
210
0.0
220
0.0
230
-1.0
  0
LINE
  5
895
  8
0
  6
CONTINUOUS
 10
183.6423656488173
 20
376.1754039981181
 30
0.0
 11
180.05440722521311
 21
375.10694855443148
 31
0.0
  0
LINE
  5
896
  8
0
  6
CONTINUOUS
 10
183.55821923020321
 20
375.10694855443148
 30
0.0
 11
183.6423656488173
 21
376.1754039981181
 31
0.0
  0
LINE
  5
897
  8
0
  6
CONTINUOUS
 10
180.05440722521311
 20
375.10694855443148
 30
0.0
 11
40.039725303755262
 21
333.41208160423008
 31
0.0
  0
LINE
  5
898
  8
0
  6
CONTINUOUS
 10
183.55821923020321
 20
375.10694855443148
 30
0.0
 11
43.543537308748398
 21
333.41208160423008
 31
0.0
  0
LINE
  5
899
  8
0
  6
CONTINUOUS
 10
40.039725303755262
 20
333.41208160423008
 30
0.0
 11
36.125258028443469
 21
332.4468696451205
 31
0.0
  0
LINE
  5
89A
  8
0
  6
CONTINUOUS
 10
43.543537308748398
 20
333.41208160423008
 30
0.0
 11
40.302278724018088
 21
332.4468696451205
 31
0.0
  0
LINE
  5
89B
  8
0
  6
CONTINUOUS
 10
36.125258028443469
 20
332.4468696451205
 30
0.0
 11
-132.3189616782137
 21
290.91264190251752
 31
0.0
  0
LINE
  5
89C
  8
0
  6
CONTINUOUS
 10
40.302278724018109
 20
332.4468696451205
 30
0.0
 11
-128.1419409826392
 21
290.91264190251752
 31
0.0
  0
LINE
  5
89D
  8
0
  6
CONTINUOUS
 10
-132.3189616782137
 20
290.91264190251752
 30
0.0
 11
-133.3184860672695
 21
290.00245685442837
 31
0.0
  0
LINE
  5
89E
  8
0
  6
CONTINUOUS
 10
-128.1419409826392
 20
290.91264190251752
 30
0.0
 11
-131.83324375981289
 21
290.00245685442837
 31
0.0
  0
LINE
  5
89F
  8
0
  6
CONTINUOUS
 10
-133.3184860672695
 20
290.00245685442837
 30
0.0
 11
-139.63543753141201
 21
284.25012621085199
 31
0.0
  0
LINE
  5
8A0
  8
0
  6
CONTINUOUS
 10
-131.83324375981289
 20
290.00245685442837
 30
0.0
 11
-138.15019522395531
 21
284.25012621085199
 31
0.0
  0
LINE
  5
8A1
  8
0
  6
CONTINUOUS
 10
-139.63543753141201
 20
284.25012621085199
 30
0.0
 11
-139.84361172713281
 21
283.67687340778861
 31
0.0
  0
LINE
  5
8A2
  8
0
  6
CONTINUOUS
 10
-138.15019522395531
 20
284.25012621085199
 30
0.0
 11
-138.77971573625041
 21
283.67687340778861
 31
0.0
  0
LINE
  5
8A3
  8
0
  6
CONTINUOUS
 10
-139.84361172713281
 20
283.67687340778861
 30
0.0
 11
-142.42673156546121
 21
276.56369262741907
 31
0.0
  0
LINE
  5
8A4
  8
0
  6
CONTINUOUS
 10
-138.77971573625041
 20
283.67687340778861
 30
0.0
 11
-141.3628355745787
 21
276.56369262741907
 31
0.0
  0
LINE
  5
8A5
  8
0
  6
CONTINUOUS
 10
-142.42673156546121
 20
276.56369262741907
 30
0.0
 11
-142.4109626083067
 21
276.4694302722279
 31
0.0
  0
LINE
  5
8A6
  8
0
  6
CONTINUOUS
 10
-141.3628355745787
 20
276.56369262741907
 30
0.0
 11
-141.39706652796229
 21
276.4694302722279
 31
0.0
  0
LINE
  5
8A7
  8
0
  6
CONTINUOUS
 10
-142.4109626083067
 20
276.4694302722279
 30
0.0
 11
-141.2958097125464
 21
269.80336241987209
 31
0.0
  0
LINE
  5
8A8
  8
0
  6
CONTINUOUS
 10
-141.39706652796229
 20
276.4694302722279
 30
0.0
 11
-140.28191363220211
 21
269.80336241987209
 31
0.0
  0
LINE
  5
8A9
  8
0
  6
CONTINUOUS
 10
-140.09588012914401
 20
268.69130688119992
 30
0.0
 11
-141.08329893715191
 21
268.53303325377982
 31
0.0
  0
LINE
  5
8AA
  8
0
  6
CONTINUOUS
 10
-141.08329893715191
 20
268.53303325377982
 30
0.0
 11
-141.10977620948839
 21
268.69130688119992
 31
0.0
  0
LINE
  5
8AB
  8
0
  6
CONTINUOUS
 10
-141.2958097125464
 20
269.80336241987209
 30
0.0
 11
-141.10977620948839
 21
268.69130688119992
 31
0.0
  0
LINE
  5
8AC
  8
0
  6
CONTINUOUS
 10
-140.28191363220211
 20
269.80336241987209
 30
0.0
 11
-140.09588012914401
 21
268.69130688119992
 31
0.0
  0
LINE
  5
8AD
  8
0
  6
CONTINUOUS
 10
-139.93088112337921
 20
267.70498960382878
 30
0.0
 11
-140.91829993138711
 21
267.54671597640862
 31
0.0
  0
LINE
  5
8AE
  8
0
  6
CONTINUOUS
 10
-139.9044038510427
 20
267.54671597640862
 30
0.0
 11
-139.93088112337921
 21
267.70498960382878
 31
0.0
  0
LINE
  5
8AF
  8
0
  6
CONTINUOUS
 10
-140.91829993138711
 20
267.54671597640862
 30
0.0
 11
-140.90271859851879
 21
267.45357518600599
 31
0.0
  0
LINE
  5
8B0
  8
0
  6
CONTINUOUS
 10
-139.9044038510427
 20
267.54671597640862
 30
0.0
 11
-139.88882251817429
 21
267.45357518600599
 31
0.0
  0
LINE
  5
8B1
  8
0
  6
CONTINUOUS
 10
-138.4197323113969
 20
258.67177043363318
 30
0.0
 11
-139.40602668553109
 21
258.50677525930439
 31
0.0
  0
LINE
  5
8B2
  8
0
  6
CONTINUOUS
 10
-139.40602668553109
 20
258.50677525930439
 30
0.0
 11
-139.43362839174151
 21
258.67177043363318
 31
0.0
  0
LINE
  5
8B3
  8
0
  6
CONTINUOUS
 10
-140.90271859851879
 20
267.45357518600599
 30
0.0
 11
-139.43362839174151
 21
258.67177043363318
 31
0.0
  0
LINE
  5
8B4
  8
0
  6
CONTINUOUS
 10
-139.88882251817429
 20
267.45357518600599
 30
0.0
 11
-138.4197323113969
 21
258.67177043363318
 31
0.0
  0
ENDBLK
  5
8B6
  8
0
  0
BLOCK
  8
0
  2
*U49
 70
     1
 10
0.0
 20
0.0
 30
0.0
  3
*U49
  1

  0
SOLID
  5
8B8
  8
0
  6
CONTINUOUS
 10
-111.22440200233881
 20
286.36325899789932
 30
0.0
 11
-114.8059730987647
 21
285.39772864351511
 31
0.0
 12
-110.9641115208328
 22
285.39772864351511
 32
0.0
 13
-110.9641115208328
 23
285.39772864351511
 33
0.0
210
0.0
220
0.0
230
1.0
  0
SOLID
  5
8B9
  8
0
  6
CONTINUOUS
 10
-114.8059730987647
 20
285.39772864351511
 30
0.0
 11
-135.24877864803901
 21
279.8866976587347
 31
0.0
 12
-131.4069170701066
 22
279.8866976587347
 32
0.0
 13
-131.4069170701066
 23
279.8866976587347
 33
0.0
210
0.0
220
0.0
230
1.0
  0
SOLID
  5
8BA
  8
0
  6
CONTINUOUS
 10
114.8059730987647
 20
285.39772864351511
 30
0.0
 11
110.9641115208328
 21
285.39772864351511
 31
0.0
 12
131.4069170701066
 22
279.8866976587347
 32
0.0
 13
131.4069170701066
 23
279.8866976587347
 33
0.0
210
0.0
220
0.0
230
-1.0
  0
SOLID
  5
8BB
  8
0
  6
CONTINUOUS
 10
-135.24877864803901
 20
279.8866976587347
 30
0.0
 11
-136.19009631300841
 21
278.98751734570499
 31
0.0
 12
-134.74236706916591
 22
278.98751734570499
 32
0.0
 13
-134.74236706916591
 23
278.98751734570499
 33
0.0
210
0.0
220
0.0
230
1.0
  0
SOLID
  5
8BC
  8
0
  6
CONTINUOUS
 10
135.24877864803901
 20
279.8866976587347
 30
0.0
 11
131.4069170701066
 21
279.8866976587347
 31
0.0
 12
134.74236706916591
 22
278.98751734570499
 32
0.0
 13
134.74236706916591
 23
278.98751734570499
 33
0.0
210
0.0
220
0.0
230
-1.0
  0
SOLID
  5
8BD
  8
0
  6
CONTINUOUS
 10
-136.19009631300841
 20
278.98751734570499
 30
0.0
 11
-138.0824030388207
 21
277.17991825627371
 31
0.0
 12
-136.6346737949782
 22
277.17991825627371
 32
0.0
 13
-136.6346737949782
 23
277.17991825627371
 33
0.0
210
0.0
220
0.0
230
1.0
  0
SOLID
  5
8BE
  8
0
  6
CONTINUOUS
 10
136.19009631300841
 20
278.98751734570499
 30
0.0
 11
134.74236706916591
 21
278.98751734570499
 31
0.0
 12
136.6346737949782
 22
277.17991825627371
 32
0.0
 13
136.6346737949782
 23
277.17991825627371
 33
0.0
210
0.0
220
0.0
230
-1.0
  0
SOLID
  5
8BF
  8
0
  6
CONTINUOUS
 10
-138.0824030388207
 20
277.17991825627371
 30
0.0
 11
-138.01763513795439
 21
276.83035822824161
 31
0.0
 12
-137.00061489109169
 22
276.83035822824161
 32
0.0
 13
-137.00061489109169
 23
276.83035822824161
 33
0.0
210
0.0
220
0.0
230
1.0
  0
SOLID
  5
8C0
  8
0
  6
CONTINUOUS
 10
138.0824030388207
 20
277.17991825627371
 30
0.0
 11
136.6346737949782
 21
277.17991825627371
 31
0.0
 12
137.00061489109169
 22
276.83035822824161
 32
0.0
 13
137.00061489109169
 23
276.83035822824161
 33
0.0
210
0.0
220
0.0
230
-1.0
  0
SOLID
  5
8C1
  8
0
  6
CONTINUOUS
 10
-138.01763513795439
 20
276.83035822824161
 30
0.0
 11
-137.2843126080476
 21
272.87252972551079
 31
0.0
 12
-136.2672923611849
 22
272.87252972551079
 32
0.0
 13
-136.2672923611849
 23
272.87252972551079
 33
0.0
210
0.0
220
0.0
230
1.0
  0
SOLID
  5
8C2
  8
0
  6
CONTINUOUS
 10
138.01763513795439
 20
276.83035822824161
 30
0.0
 11
137.00061489109169
 21
276.83035822824161
 31
0.0
 12
136.2672923611849
 22
272.87252972551079
 32
0.0
 13
136.2672923611849
 23
272.87252972551079
 33
0.0
210
0.0
220
0.0
230
-1.0
  0
SOLID
  5
8C3
  8
0
  6
CONTINUOUS
 10
136.6423699863621
 20
269.40788940476841
 30
0.0
 11
135.6253497394996
 21
269.40788940476841
 31
0.0
 12
136.61303644974649
 22
269.24957283522588
 32
0.0
 13
136.61303644974649
 23
269.24957283522588
 33
0.0
210
0.0
220
0.0
230
-1.0
  0
SOLID
  5
8C4
  8
0
  6
CONTINUOUS
 10
-137.2843126080476
 20
272.87252972551079
 30
0.0
 11
-136.6423699863621
 21
269.40788940476841
 31
0.0
 12
-135.6253497394996
 22
269.40788940476841
 32
0.0
 13
-135.6253497394996
 23
269.40788940476841
 33
0.0
210
0.0
220
0.0
230
1.0
  0
SOLID
  5
8C5
  8
0
  6
CONTINUOUS
 10
137.2843126080476
 20
272.87252972551079
 30
0.0
 11
136.2672923611849
 21
272.87252972551079
 31
0.0
 12
135.6253497394996
 22
269.40788940476841
 32
0.0
 13
135.6253497394996
 23
269.40788940476841
 33
0.0
210
0.0
220
0.0
230
-1.0
  0
SOLID
  5
8C6
  8
0
  6
CONTINUOUS
 10
-135.44311282355409
 20
268.42433519667571
 30
0.0
 11
-136.43079953380101
 21
268.26601862713318
 31
0.0
 12
-135.41377928693851
 22
268.26601862713318
 32
0.0
 13
-135.41377928693851
 23
268.26601862713318
 33
0.0
  0
SOLID
  5
8C7
  8
0
  6
CONTINUOUS
 10
-136.43079953380101
 20
268.26601862713318
 30
0.0
 11
-134.6838289837724
 21
258.8374117667754
 31
0.0
 12
-133.66680873690979
 22
258.8374117667754
 32
0.0
 13
-133.66680873690979
 23
258.8374117667754
 33
0.0
210
0.0
220
0.0
230
1.0
  0
SOLID
  5
8C8
  8
0
  6
CONTINUOUS
 10
136.43079953380101
 20
268.26601862713318
 30
0.0
 11
135.41377928693851
 21
268.26601862713318
 31
0.0
 12
133.66680873690979
 22
258.8374117667754
 32
0.0
 13
133.66680873690979
 23
258.8374117667754
 33
0.0
210
0.0
220
0.0
230
-1.0
  0
SOLID
  5
8C9
  8
0
  6
CONTINUOUS
 10
-134.6838289837724
 20
258.8374117667754
 30
0.0
 11
-134.69330497049901
 21
258.80096657649727
 31
0.0
 12
-133.66005602412309
 22
258.80096657649727
 32
0.0
 13
-133.66005602412309
 23
258.80096657649727
 33
0.0
210
0.0
220
0.0
230
1.0
  0
SOLID
  5
8CA
  8
0
  6
CONTINUOUS
 10
134.6838289837724
 20
258.8374117667754
 30
0.0
 11
133.66680873690979
 21
258.8374117667754
 31
0.0
 12
133.66005602412309
 22
258.80096657649727
 32
0.0
 13
133.66005602412309
 23
258.80096657649727
 33
0.0
210
0.0
220
0.0
230
-1.0
  0
SOLID
  5
8CB
  8
0
  6
CONTINUOUS
 10
-134.69330497049901
 20
258.80096657649727
 30
0.0
 11
-135.2366404512307
 21
256.71126704952968
 31
0.0
 12
-134.20339150485501
 22
256.71126704952968
 32
0.0
 13
-134.20339150485501
 23
256.71126704952968
 33
0.0
210
0.0
220
0.0
230
1.0
  0
SOLID
  5
8CC
  8
0
  6
CONTINUOUS
 10
134.69330497049901
 20
258.80096657649727
 30
0.0
 11
133.66005602412309
 21
258.80096657649727
 31
0.0
 12
134.20339150485501
 22
256.71126704952968
 32
0.0
 13
134.20339150485501
 23
256.71126704952968
 33
0.0
210
0.0
220
0.0
230
-1.0
  0
SOLID
  5
8CD
  8
0
  6
CONTINUOUS
 10
-135.2366404512307
 20
256.71126704952968
 30
0.0
 11
-138.73146788129611
 21
255.87794141917379
 31
0.0
 12
-134.4200615936081
 22
255.87794141917379
 32
0.0
 13
-134.4200615936081
 23
255.87794141917379
 33
0.0
  0
SOLID
  5
8CE
  8
0
  6
CONTINUOUS
 10
135.2366404512307
 20
256.71126704952968
 30
0.0
 11
134.20339150485501
 21
256.71126704952968
 31
0.0
 12
134.4200615936081
 22
255.87794141917379
 32
0.0
 13
134.4200615936081
 23
255.87794141917379
 33
0.0
210
0.0
220
0.0
230
-1.0
  0
SOLID
  5
8CF
  8
0
  6
CONTINUOUS
 10
-138.73146788129611
 20
255.87794141917379
 30
0.0
 11
-201.00791936783261
 21
241.02840614745
 31
0.0
 12
-196.69651308014551
 22
241.02840614745
 32
0.0
 13
-196.69651308014551
 23
241.02840614745
 33
0.0
210
0.0
220
0.0
230
1.0
  0
SOLID
  5
8D0
  8
0
  6
CONTINUOUS
 10
138.73146788129611
 20
255.87794141917379
 30
0.0
 11
134.4200615936081
 21
255.87794141917379
 31
0.0
 12
196.69651308014551
 22
241.02840614745
 32
0.0
 13
196.69651308014551
 23
241.02840614745
 33
0.0
210
0.0
220
0.0
230
-1.0
  0
SOLID
  5
8D1
  8
0
  6
CONTINUOUS
 10
-201.00791936783261
 20
241.02840614745
 30
0.0
 11
-204.12701277163021
 21
240.0633326179028
 31
0.0
 12
-200.74386902388511
 22
240.0633326179028
 32
0.0
 13
-200.74386902388511
 23
240.0633326179028
 33
0.0
210
0.0
220
0.0
230
1.0
  0
SOLID
  5
8D2
  8
0
  6
CONTINUOUS
 10
201.00791936783261
 20
241.02840614745
 30
0.0
 11
196.69651308014551
 21
241.02840614745
 31
0.0
 12
200.74386902388511
 22
240.0633326179028
 32
0.0
 13
200.74386902388511
 23
240.0633326179028
 33
0.0
210
0.0
220
0.0
230
-1.0
  0
SOLID
  5
8D3
  8
0
  6
CONTINUOUS
 10
-204.12701277163021
 20
240.0633326179028
 30
0.0
 11
-305.98860314559619
 21
208.54650646970339
 31
0.0
 12
-302.60545939784828
 22
208.54650646970339
 32
0.0
 13
-302.60545939784828
 23
208.54650646970339
 33
0.0
210
0.0
220
0.0
230
1.0
  0
SOLID
  5
8D4
  8
0
  6
CONTINUOUS
 10
204.12701277163021
 20
240.0633326179028
 30
0.0
 11
200.74386902388511
 21
240.0633326179028
 31
0.0
 12
302.60545939784828
 22
208.54650646970339
 32
0.0
 13
302.60545939784828
 23
208.54650646970339
 33
0.0
210
0.0
220
0.0
230
-1.0
  0
SOLID
  5
8D5
  8
0
  6
CONTINUOUS
 10
-305.98860314559619
 20
208.54650646970339
 30
0.0
 11
-309.72027465092708
 21
207.5841422379811
 31
0.0
 12
-305.71579641913661
 22
207.5841422379811
 32
0.0
 13
-305.71579641913661
 23
207.5841422379811
 33
0.0
210
0.0
220
0.0
230
1.0
  0
SOLID
  5
8D6
  8
0
  6
CONTINUOUS
 10
305.98860314559619
 20
208.54650646970339
 30
0.0
 11
302.60545939784828
 21
208.54650646970339
 31
0.0
 12
305.71579641913661
 22
207.5841422379811
 32
0.0
 13
305.71579641913661
 23
207.5841422379811
 33
0.0
210
0.0
220
0.0
230
-1.0
  0
SOLID
  5
8D7
  8
0
  6
CONTINUOUS
 10
-309.72027465092708
 20
207.5841422379811
 30
0.0
 11
-477.88541718754431
 21
164.21587738172701
 31
0.0
 12
-473.88093895575389
 22
164.21587738172701
 32
0.0
 13
-473.88093895575389
 23
164.21587738172701
 33
0.0
210
0.0
220
0.0
230
1.0
  0
SOLID
  5
8D8
  8
0
  6
CONTINUOUS
 10
309.72027465092708
 20
207.5841422379811
 30
0.0
 11
305.71579641913661
 21
207.5841422379811
 31
0.0
 12
473.88093895575389
 22
164.21587738172701
 32
0.0
 13
473.88093895575389
 23
164.21587738172701
 33
0.0
210
0.0
220
0.0
230
-1.0
  0
SOLID
  5
8D9
  8
0
  6
CONTINUOUS
 10
-477.88541718754431
 20
164.21587738172701
 30
0.0
 11
-478.85821751141299
 21
163.3109110262927
 31
0.0
 12
-477.39004398121131
 22
163.3109110262927
 32
0.0
 13
-477.39004398121131
 23
163.3109110262927
 33
0.0
210
0.0
220
0.0
230
1.0
  0
SOLID
  5
8DA
  8
0
  6
CONTINUOUS
 10
477.88541718754431
 20
164.21587738172701
 30
0.0
 11
473.88093895575389
 21
164.21587738172701
 31
0.0
 12
477.39004398121131
 22
163.3109110262927
 32
0.0
 13
477.39004398121131
 23
163.3109110262927
 33
0.0
210
0.0
220
0.0
230
-1.0
  0
SOLID
  5
8DB
  8
0
  6
CONTINUOUS
 10
-478.85821751141299
 20
163.3109110262927
 30
0.0
 11
-485.13060152833049
 21
157.4759042274668
 31
0.0
 12
-483.66242799812858
 22
157.4759042274668
 32
0.0
 13
-483.66242799812858
 23
157.4759042274668
 33
0.0
210
0.0
220
0.0
230
1.0
  0
SOLID
  5
8DC
  8
0
  6
CONTINUOUS
 10
478.85821751141299
 20
163.3109110262927
 30
0.0
 11
477.39004398121131
 21
163.3109110262927
 31
0.0
 12
483.66242799812858
 22
157.4759042274668
 32
0.0
 13
483.66242799812858
 23
157.4759042274668
 33
0.0
210
0.0
220
0.0
230
-1.0
  0
SOLID
  5
8DD
  8
0
  6
CONTINUOUS
 10
-485.13060152833049
 20
157.4759042274668
 30
0.0
 11
-485.32869122676232
 21
156.91178724355731
 31
0.0
 12
-484.26882975146628
 22
156.91178724355731
 32
0.0
 13
-484.26882975146628
 23
156.91178724355731
 33
0.0
210
0.0
220
0.0
230
1.0
  0
SOLID
  5
8DE
  8
0
  6
CONTINUOUS
 10
485.13060152833049
 20
157.4759042274668
 30
0.0
 11
483.66242799812858
 21
157.4759042274668
 31
0.0
 12
484.26882975146628
 22
156.91178724355731
 32
0.0
 13
484.26882975146628
 23
156.91178724355731
 33
0.0
210
0.0
220
0.0
230
-1.0
  0
SOLID
  5
8DF
  8
0
  6
CONTINUOUS
 10
-485.32869122676232
 20
156.91178724355731
 30
0.0
 11
-487.83996742810831
 21
149.7602111258613
 31
0.0
 12
-486.78010595281228
 22
149.7602111258613
 32
0.0
 13
-486.78010595281228
 23
149.7602111258613
 33
0.0
210
0.0
220
0.0
230
1.0
  0
SOLID
  5
8E0
  8
0
  6
CONTINUOUS
 10
485.32869122676232
 20
156.91178724355731
 30
0.0
 11
484.26882975146628
 21
156.91178724355731
 31
0.0
 12
486.78010595281228
 22
149.7602111258613
 32
0.0
 13
486.78010595281228
 23
149.7602111258613
 33
0.0
210
0.0
220
0.0
230
-1.0
  0
SOLID
  5
8E1
  8
0
  6
CONTINUOUS
 10
-487.83996742810831
 20
149.7602111258613
 30
0.0
 11
-487.82511913101899
 21
149.67690793605601
 31
0.0
 12
-486.80935787079682
 22
149.67690793605601
 32
0.0
 13
-486.80935787079682
 23
149.67690793605601
 33
0.0
210
0.0
220
0.0
230
1.0
  0
SOLID
  5
8E2
  8
0
  6
CONTINUOUS
 10
487.83996742810831
 20
149.7602111258613
 30
0.0
 11
486.78010595281228
 21
149.7602111258613
 31
0.0
 12
486.80935787079682
 22
149.67690793605601
 32
0.0
 13
486.80935787079682
 23
149.67690793605601
 33
0.0
210
0.0
220
0.0
230
-1.0
  0
SOLID
  5
8E3
  8
0
  6
CONTINUOUS
 10
484.658617488625
 20
131.91192884470419
 30
0.0
 11
483.64285622840271
 21
131.91192884470419
 31
0.0
 12
484.62733953088792
 22
131.7364505636323
 32
0.0
 13
484.62733953088792
 23
131.7364505636323
 33
0.0
210
0.0
220
0.0
230
-1.0
  0
SOLID
  5
8E4
  8
0
  6
CONTINUOUS
 10
-487.82511913101899
 20
149.67690793605601
 30
0.0
 11
-484.658617488625
 21
131.91192884470419
 31
0.0
 12
-483.64285622840271
 22
131.91192884470419
 32
0.0
 13
-483.64285622840271
 23
131.91192884470419
 33
0.0
210
0.0
220
0.0
230
1.0
  0
SOLID
  5
8E5
  8
0
  6
CONTINUOUS
 10
487.82511913101899
 20
149.67690793605601
 30
0.0
 11
486.80935787079682
 21
149.67690793605601
 31
0.0
 12
483.64285622840271
 22
131.91192884470419
 32
0.0
 13
483.64285622840271
 23
131.91192884470419
 33
0.0
210
0.0
220
0.0
230
-1.0
  0
LINE
  5
8E6
  8
0
  6
CONTINUOUS
 10
-111.22440200233881
 20
286.36325899789932
 30
0.0
 11
-114.8059730987647
 21
285.39772864351511
 31
0.0
  0
LINE
  5
8E7
  8
0
  6
CONTINUOUS
 10
-110.9641115208328
 20
285.39772864351511
 30
0.0
 11
-111.22440200233881
 21
286.36325899789932
 31
0.0
  0
LINE
  5
8E8
  8
0
  6
CONTINUOUS
 10
-114.8059730987647
 20
285.39772864351511
 30
0.0
 11
-135.24877864803901
 21
279.8866976587347
 31
0.0
  0
LINE
  5
8E9
  8
0
  6
CONTINUOUS
 10
-110.9641115208328
 20
285.39772864351511
 30
0.0
 11
-131.4069170701066
 21
279.8866976587347
 31
0.0
  0
LINE
  5
8EA
  8
0
  6
CONTINUOUS
 10
-135.24877864803901
 20
279.8866976587347
 30
0.0
 11
-136.19009631300841
 21
278.98751734570499
 31
0.0
  0
LINE
  5
8EB
  8
0
  6
CONTINUOUS
 10
-131.4069170701066
 20
279.8866976587347
 30
0.0
 11
-134.74236706916591
 21
278.98751734570499
 31
0.0
  0
LINE
  5
8EC
  8
0
  6
CONTINUOUS
 10
-136.19009631300841
 20
278.98751734570499
 30
0.0
 11
-138.0824030388207
 21
277.17991825627371
 31
0.0
  0
LINE
  5
8ED
  8
0
  6
CONTINUOUS
 10
-134.74236706916591
 20
278.98751734570499
 30
0.0
 11
-136.6346737949782
 21
277.17991825627371
 31
0.0
  0
LINE
  5
8EE
  8
0
  6
CONTINUOUS
 10
-138.0824030388207
 20
277.17991825627371
 30
0.0
 11
-138.01763513795439
 21
276.83035822824161
 31
0.0
  0
LINE
  5
8EF
  8
0
  6
CONTINUOUS
 10
-136.6346737949782
 20
277.17991825627371
 30
0.0
 11
-137.00061489109169
 21
276.83035822824161
 31
0.0
  0
LINE
  5
8F0
  8
0
  6
CONTINUOUS
 10
-138.01763513795439
 20
276.83035822824161
 30
0.0
 11
-137.2843126080476
 21
272.87252972551079
 31
0.0
  0
LINE
  5
8F1
  8
0
  6
CONTINUOUS
 10
-137.00061489109169
 20
276.83035822824161
 30
0.0
 11
-136.2672923611849
 21
272.87252972551079
 31
0.0
  0
LINE
  5
8F2
  8
0
  6
CONTINUOUS
 10
-135.6253497394996
 20
269.40788940476841
 30
0.0
 11
-136.61303644974649
 21
269.24957283522588
 31
0.0
  0
LINE
  5
8F3
  8
0
  6
CONTINUOUS
 10
-136.61303644974649
 20
269.24957283522588
 30
0.0
 11
-136.6423699863621
 21
269.40788940476841
 31
0.0
  0
LINE
  5
8F4
  8
0
  6
CONTINUOUS
 10
-137.2843126080476
 20
272.87252972551079
 30
0.0
 11
-136.6423699863621
 21
269.40788940476841
 31
0.0
  0
LINE
  5
8F5
  8
0
  6
CONTINUOUS
 10
-136.2672923611849
 20
272.87252972551079
 30
0.0
 11
-135.6253497394996
 21
269.40788940476841
 31
0.0
  0
LINE
  5
8F6
  8
0
  6
CONTINUOUS
 10
-135.44311282355409
 20
268.42433519667571
 30
0.0
 11
-136.43079953380101
 21
268.26601862713318
 31
0.0
  0
LINE
  5
8F7
  8
0
  6
CONTINUOUS
 10
-135.41377928693851
 20
268.26601862713318
 30
0.0
 11
-135.44311282355409
 21
268.42433519667571
 31
0.0
  0
LINE
  5
8F8
  8
0
  6
CONTINUOUS
 10
-136.43079953380101
 20
268.26601862713318
 30
0.0
 11
-134.6838289837724
 21
258.8374117667754
 31
0.0
  0
LINE
  5
8F9
  8
0
  6
CONTINUOUS
 10
-135.41377928693851
 20
268.26601862713318
 30
0.0
 11
-133.66680873690979
 21
258.8374117667754
 31
0.0
  0
LINE
  5
8FA
  8
0
  6
CONTINUOUS
 10
-134.6838289837724
 20
258.8374117667754
 30
0.0
 11
-134.69330497049901
 21
258.80096657649727
 31
0.0
  0
LINE
  5
8FB
  8
0
  6
CONTINUOUS
 10
-133.66680873690979
 20
258.8374117667754
 30
0.0
 11
-133.66005602412309
 21
258.80096657649727
 31
0.0
  0
LINE
  5
8FC
  8
0
  6
CONTINUOUS
 10
-134.69330497049901
 20
258.80096657649727
 30
0.0
 11
-135.2366404512307
 21
256.71126704952968
 31
0.0
  0
LINE
  5
8FD
  8
0
  6
CONTINUOUS
 10
-133.66005602412309
 20
258.80096657649727
 30
0.0
 11
-134.20339150485501
 21
256.71126704952968
 31
0.0
  0
LINE
  5
8FE
  8
0
  6
CONTINUOUS
 10
-135.2366404512307
 20
256.71126704952968
 30
0.0
 11
-138.73146788129611
 21
255.87794141917379
 31
0.0
  0
LINE
  5
8FF
  8
0
  6
CONTINUOUS
 10
-134.20339150485501
 20
256.71126704952968
 30
0.0
 11
-134.4200615936081
 21
255.87794141917379
 31
0.0
  0
LINE
  5
900
  8
0
  6
CONTINUOUS
 10
-138.73146788129611
 20
255.87794141917379
 30
0.0
 11
-201.00791936783261
 21
241.02840614745
 31
0.0
  0
LINE
  5
901
  8
0
  6
CONTINUOUS
 10
-134.4200615936081
 20
255.87794141917379
 30
0.0
 11
-196.69651308014551
 21
241.02840614745
 31
0.0
  0
LINE
  5
902
  8
0
  6
CONTINUOUS
 10
-201.00791936783261
 20
241.02840614745
 30
0.0
 11
-204.12701277163021
 21
240.0633326179028
 31
0.0
  0
LINE
  5
903
  8
0
  6
CONTINUOUS
 10
-196.69651308014551
 20
241.02840614745
 30
0.0
 11
-200.74386902388511
 21
240.0633326179028
 31
0.0
  0
LINE
  5
904
  8
0
  6
CONTINUOUS
 10
-204.12701277163021
 20
240.0633326179028
 30
0.0
 11
-305.98860314559619
 21
208.54650646970339
 31
0.0
  0
LINE
  5
905
  8
0
  6
CONTINUOUS
 10
-200.74386902388511
 20
240.0633326179028
 30
0.0
 11
-302.60545939784828
 21
208.54650646970339
 31
0.0
  0
LINE
  5
906
  8
0
  6
CONTINUOUS
 10
-305.98860314559619
 20
208.54650646970339
 30
0.0
 11
-309.72027465092708
 21
207.5841422379811
 31
0.0
  0
LINE
  5
907
  8
0
  6
CONTINUOUS
 10
-302.60545939784828
 20
208.54650646970339
 30
0.0
 11
-305.71579641913661
 21
207.5841422379811
 31
0.0
  0
LINE
  5
908
  8
0
  6
CONTINUOUS
 10
-309.72027465092708
 20
207.5841422379811
 30
0.0
 11
-477.88541718754431
 21
164.21587738172701
 31
0.0
  0
LINE
  5
909
  8
0
  6
CONTINUOUS
 10
-305.71579641913661
 20
207.5841422379811
 30
0.0
 11
-473.88093895575389
 21
164.21587738172701
 31
0.0
  0
LINE
  5
90A
  8
0
  6
CONTINUOUS
 10
-477.88541718754431
 20
164.21587738172701
 30
0.0
 11
-478.85821751141299
 21
163.3109110262927
 31
0.0
  0
LINE
  5
90B
  8
0
  6
CONTINUOUS
 10
-473.88093895575389
 20
164.21587738172701
 30
0.0
 11
-477.39004398121131
 21
163.3109110262927
 31
0.0
  0
LINE
  5
90C
  8
0
  6
CONTINUOUS
 10
-478.85821751141299
 20
163.3109110262927
 30
0.0
 11
-485.13060152833049
 21
157.4759042274668
 31
0.0
  0
LINE
  5
90D
  8
0
  6
CONTINUOUS
 10
-477.39004398121131
 20
163.3109110262927
 30
0.0
 11
-483.66242799812858
 21
157.4759042274668
 31
0.0
  0
LINE
  5
90E
  8
0
  6
CONTINUOUS
 10
-485.13060152833049
 20
157.4759042274668
 30
0.0
 11
-485.32869122676232
 21
156.91178724355731
 31
0.0
  0
LINE
  5
90F
  8
0
  6
CONTINUOUS
 10
-483.66242799812858
 20
157.4759042274668
 30
0.0
 11
-484.26882975146628
 21
156.91178724355731
 31
0.0
  0
LINE
  5
910
  8
0
  6
CONTINUOUS
 10
-485.32869122676232
 20
156.91178724355731
 30
0.0
 11
-487.83996742810831
 21
149.7602111258613
 31
0.0
  0
LINE
  5
911
  8
0
  6
CONTINUOUS
 10
-484.26882975146628
 20
156.91178724355731
 30
0.0
 11
-486.78010595281228
 21
149.7602111258613
 31
0.0
  0
LINE
  5
912
  8
0
  6
CONTINUOUS
 10
-487.83996742810831
 20
149.7602111258613
 30
0.0
 11
-487.82511913101899
 21
149.67690793605601
 31
0.0
  0
LINE
  5
913
  8
0
  6
CONTINUOUS
 10
-486.78010595281228
 20
149.7602111258613
 30
0.0
 11
-486.80935787079682
 21
149.67690793605601
 31
0.0
  0
LINE
  5
914
  8
0
  6
CONTINUOUS
 10
-483.64285622840271
 20
131.91192884470419
 30
0.0
 11
-484.62733953088792
 21
131.7364505636323
 31
0.0
  0
LINE
  5
915
  8
0
  6
CONTINUOUS
 10
-484.62733953088792
 20
131.7364505636323
 30
0.0
 11
-484.658617488625
 21
131.91192884470419
 31
0.0
  0
LINE
  5
916
  8
0
  6
CONTINUOUS
 10
-487.82511913101899
 20
149.67690793605601
 30
0.0
 11
-484.658617488625
 21
131.91192884470419
 31
0.0
  0
LINE
  5
917
  8
0
  6
CONTINUOUS
 10
-486.80935787079682
 20
149.67690793605601
 30
0.0
 11
-483.64285622840271
 21
131.91192884470419
 31
0.0
  0
ENDBLK
  5
919
  8
0
  0
ENDSEC
  0
SECTION
  2
ENTITIES
  0
LINE
  5
14A
  8
0
  6
DASH
 10
-201.16518339091451
 20
31.09999999999954
 30
0.0
 11
-399.99999999999989
 21
31.100000000000179
 31
0.0
1001
REVIT
1002
{
1070
     1
1000
669443
1002
}
1002
{
1070
     2
1000
-2000051
1002
}
1002
{
1070
     3
1000
118704
1002
}
  0
CIRCLE
  5
288
  8
0
 10
155.23796610192281
 20
369.3001838547633
 30
0.0
 40
2.5
1001
REVIT
1002
{
1070
     1
1000
669449
1002
}
1002
{
1070
     5
1000
515860
1002
}
1002
{
1070
     2
1000
-2005028
1002
}
  0
INSERT
  5
289
  8
0
  6
CONTINUOUS
  2
*U24
 10
0.0
 20
0.0
 30
0.0
1001
REVIT
1002
{
1070
     1
1000
669449
1002
}
1002
{
1070
     5
1000
515860
1002
}
1002
{
1070
     2
1000
-2005028
1002
}
1001
ACAD
1002
{
1000
R14_HATCH_DATA
1000
289
1011
1.0
1021
0.0
1031
0.0
1021
0.0
1031
0.0
1011
0.0
1021
0.0
1031
0.0
1021
1.0
1031
0.0
1011
0.0
1021
0.0
1031
0.0
1021
0.0
1031
1.0
1040
0.0
1010
0.0
1020
0.0
1030
1.0
1000
SOLID
1070
     1
1070
     0
1071
        1
1071
        0
1071
        1
1070
     2
1040
155.23796610192281
1040
369.3001838547633
1040
2.5
1040
0.0
1040
6.2831853071795862
1070
     1
1071
        0
1070
     0
1070
     1
1071
        1
1040
0.0
1040
0.0
1040
0.0
1002
}
  0
LINE
  5
28A
  8
0
 10
155.23796610192281
 20
455.38742953815409
 30
0.0
 11
58.061512661868342
 21
455.38742953815409
 31
0.0
1001
REVIT
1002
{
1070
     1
1000
669449
1002
}
1002
{
1070
     5
1000
515860
1002
}
1002
{
1070
     2
1000
-2005028
1002
}
  0
LINE
  5
28B
  8
0
 10
155.23796610192281
 20
369.3001838547633
 30
0.0
 11
155.23796610192281
 21
455.38742953815409
 31
0.0
1001
REVIT
1002
{
1070
     1
1000
669449
1002
}
1002
{
1070
     5
1000
515860
1002
}
1002
{
1070
     2
1000
-2005028
1002
}
  0
INSERT
  5
28D
  8
0
  2
*U25
 10
0.0
 20
0.0
 30
0.0
  0
INSERT
  5
28F
  8
0
  2
*U26
 10
0.0
 20
0.0
 30
0.0
  0
CIRCLE
  5
290
  8
0
 10
36.142075474568713
 20
185.35344479111299
 30
0.0
 40
2.5
1001
REVIT
1002
{
1070
     1
1000
669451
1002
}
1002
{
1070
     5
1000
233013
1002
}
1002
{
1070
     2
1000
-2005028
1002
}
  0
INSERT
  5
291
  8
0
  6
CONTINUOUS
  2
*U27
 10
0.0
 20
0.0
 30
0.0
1001
REVIT
1002
{
1070
     1
1000
669451
1002
}
1002
{
1070
     5
1000
233013
1002
}
1002
{
1070
     2
1000
-2005028
1002
}
1001
ACAD
1002
{
1000
R14_HATCH_DATA
1000
291
1011
1.0
1021
0.0
1031
0.0
1021
0.0
1031
0.0
1011
0.0
1021
0.0
1031
0.0
1021
1.0
1031
0.0
1011
0.0
1021
0.0
1031
0.0
1021
0.0
1031
1.0
1040
0.0
1010
0.0
1020
0.0
1030
1.0
1000
SOLID
1070
     1
1070
     0
1071
        1
1071
        0
1071
        1
1070
     2
1040
36.142075474568713
1040
185.35344479111299
1040
2.5
1040
0.0
1040
6.2831853071795862
1070
     1
1071
        0
1070
     0
1070
     1
1071
        1
1040
0.0
1040
0.0
1040
0.0
1002
}
  0
LINE
  5
292
  8
0
 10
36.142075474568713
 20
358.23651358731712
 30
0.0
 11
-23.443528884248369
 21
358.23651358731701
 31
0.0
1001
REVIT
1002
{
1070
     1
1000
669451
1002
}
1002
{
1070
     5
1000
233013
1002
}
1002
{
1070
     2
1000
-2005028
1002
}
  0
LINE
  5
293
  8
0
 10
36.142075474568713
 20
185.35344479111299
 30
0.0
 11
36.142075474568713
 21
358.23651358731712
 31
0.0
1001
REVIT
1002
{
1070
     1
1000
669451
1002
}
1002
{
1070
     5
1000
233013
1002
}
1002
{
1070
     2
1000
-2005028
1002
}
  0
INSERT
  5
294
  8
0
  2
*U28
 10
0.0
 20
0.0
 30
0.0
  0
CIRCLE
  5
295
  8
0
 10
-498.74805997483082
 20
-12.723590621372679
 30
0.0
 40
2.4999999999999432
1001
REVIT
1002
{
1070
     1
1000
669452
1002
}
1002
{
1070
     5
1000
233011
1002
}
1002
{
1070
     2
1000
-2005028
1002
}
  0
INSERT
  5
296
  8
0
  6
CONTINUOUS
  2
*U29
 10
0.0
 20
0.0
 30
0.0
1001
REVIT
1002
{
1070
     1
1000
669452
1002
}
1002
{
1070
     5
1000
233011
1002
}
1002
{
1070
     2
1000
-2005028
1002
}
1001
ACAD
1002
{
1000
R14_HATCH_DATA
1000
296
1011
1.0
1021
0.0
1031
0.0
1021
0.0
1031
0.0
1011
0.0
1021
0.0
1031
0.0
1021
1.0
1031
0.0
1011
0.0
1021
0.0
1031
0.0
1021
0.0
1031
1.0
1040
0.0
1010
0.0
1020
0.0
1030
1.0
1000
SOLID
1070
     1
1070
     0
1071
        1
1071
        0
1071
        1
1070
     2
1040
-498.74805997483082
1040
-12.723590621372679
1040
2.4999999999999432
1040
0.0
1040
6.2831853071795862
1070
     1
1071
        0
1070
     0
1070
     1
1071
        1
1040
0.0
1040
0.0
1040
0.0
1002
}
  0
LINE
  5
297
  8
0
 10
-498.74805997483082
 20
-80.011387151596949
 30
0.0
 11
-533.81928458741777
 21
-80.011387151596935
 31
0.0
1001
REVIT
1002
{
1070
     1
1000
669452
1002
}
1002
{
1070
     5
1000
233011
1002
}
1002
{
1070
     2
1000
-2005028
1002
}
  0
LINE
  5
298
  8
0
 10
-498.74805997483082
 20
-12.723590621372679
 30
0.0
 11
-498.74805997483082
 21
-80.011387151596949
 31
0.0
1001
REVIT
1002
{
1070
     1
1000
669452
1002
}
1002
{
1070
     5
1000
233011
1002
}
1002
{
1070
     2
1000
-2005028
1002
}
  0
INSERT
  5
299
  8
0
  2
*U30
 10
0.0
 20
0.0
 30
0.0
  0
CIRCLE
  5
29A
  8
0
 10
-97.992596134563996
 20
272.96011717671229
 30
0.0
 40
2.5000000000000142
1001
REVIT
1002
{
1070
     1
1000
669453
1002
}
1002
{
1070
     5
1000
233013
1002
}
1002
{
1070
     2
1000
-2005028
1002
}
  0
INSERT
  5
29B
  8
0
  6
CONTINUOUS
  2
*U31
 10
0.0
 20
0.0
 30
0.0
1001
REVIT
1002
{
1070
     1
1000
669453
1002
}
1002
{
1070
     5
1000
233013
1002
}
1002
{
1070
     2
1000
-2005028
1002
}
1001
ACAD
1002
{
1000
R14_HATCH_DATA
1000
29B
1011
1.0
1021
0.0
1031
0.0
1021
0.0
1031
0.0
1011
0.0
1021
0.0
1031
0.0
1021
1.0
1031
0.0
1011
0.0
1021
0.0
1031
0.0
1021
0.0
1031
1.0
1040
0.0
1010
0.0
1020
0.0
1030
1.0
1000
SOLID
1070
     1
1070
     0
1071
        1
1071
        0
1071
        1
1070
     2
1040
-97.992596134563996
1040
272.96011717671229
1040
2.5000000000000142
1040
0.0
1040
6.2831853071795862
1070
     1
1071
        0
1070
     0
1070
     1
1071
        1
1040
0.0
1040
0.0
1040
0.0
1002
}
  0
LINE
  5
29C
  8
0
 10
-97.992596134563996
 20
447.00121306712259
 30
0.0
 11
-139.02420835795681
 21
447.00121306712259
 31
0.0
1001
REVIT
1002
{
1070
     1
1000
669453
1002
}
1002
{
1070
     5
1000
233013
1002
}
1002
{
1070
     2
1000
-2005028
1002
}
  0
LINE
  5
29D
  8
0
 10
-97.992596134563996
 20
272.96011717671229
 30
0.0
 11
-97.992596134563996
 21
447.00121306712259
 31
0.0
1001
REVIT
1002
{
1070
     1
1000
669453
1002
}
1002
{
1070
     5
1000
233013
1002
}
1002
{
1070
     2
1000
-2005028
1002
}
  0
INSERT
  5
29E
  8
0
  2
*U32
 10
0.0
 20
0.0
 30
0.0
  0
CIRCLE
  5
29F
  8
0
 10
-371.36066987241207
 20
-48.51259839030056
 30
0.0
 40
2.4999999999999432
1001
REVIT
1002
{
1070
     1
1000
669454
1002
}
1002
{
1070
     5
1000
233013
1002
}
1002
{
1070
     2
1000
-2005028
1002
}
  0
INSERT
  5
2A0
  8
0
  6
CONTINUOUS
  2
*U33
 10
0.0
 20
0.0
 30
0.0
1001
REVIT
1002
{
1070
     1
1000
669454
1002
}
1002
{
1070
     5
1000
233013
1002
}
1002
{
1070
     2
1000
-2005028
1002
}
1001
ACAD
1002
{
1000
R14_HATCH_DATA
1000
2A0
1011
1.0
1021
0.0
1031
0.0
1021
0.0
1031
0.0
1011
0.0
1021
0.0
1031
0.0
1021
1.0
1031
0.0
1011
0.0
1021
0.0
1031
0.0
1021
0.0
1031
1.0
1040
0.0
1010
0.0
1020
0.0
1030
1.0
1000
SOLID
1070
     1
1070
     0
1071
        1
1071
        0
1071
        1
1070
     2
1040
-371.36066987241207
1040
-48.51259839030056
1040
2.4999999999999432
1040
0.0
1040
6.2831853071795862
1070
     1
1071
        0
1070
     0
1070
     1
1071
        1
1040
0.0
1040
0.0
1040
0.0
1002
}
  0
LINE
  5
2A1
  8
0
 10
-371.36066987241207
 20
-188.52882235170691
 30
0.0
 11
-648.44428458741766
 21
-188.52882235170691
 31
0.0
1001
REVIT
1002
{
1070
     1
1000
669454
1002
}
1002
{
1070
     5
1000
233013
1002
}
1002
{
1070
     2
1000
-2005028
1002
}
  0
LINE
  5
2A2
  8
0
 10
-371.36066987241207
 20
-48.51259839030056
 30
0.0
 11
-371.36066987241207
 21
-188.52882235170691
 31
0.0
1001
REVIT
1002
{
1070
     1
1000
669454
1002
}
1002
{
1070
     5
1000
233013
1002
}
1002
{
1070
     2
1000
-2005028
1002
}
  0
INSERT
  5
2A3
  8
0
  2
*U34
 10
0.0
 20
0.0
 30
0.0
  0
CIRCLE
  5
2A4
  8
0
 10
-431.28179687252208
 20
-74.626038278913654
 30
0.0
 40
2.5
1001
REVIT
1002
{
1070
     1
1000
669456
1002
}
1002
{
1070
     5
1000
233011
1002
}
1002
{
1070
     2
1000
-2005028
1002
}
  0
INSERT
  5
2A5
  8
0
  6
CONTINUOUS
  2
*U35
 10
0.0
 20
0.0
 30
0.0
1001
REVIT
1002
{
1070
     1
1000
669456
1002
}
1002
{
1070
     5
1000
233011
1002
}
1002
{
1070
     2
1000
-2005028
1002
}
1001
ACAD
1002
{
1000
R14_HATCH_DATA
1000
2A5
1011
1.0
1021
0.0
1031
0.0
1021
0.0
1031
0.0
1011
0.0
1021
0.0
1031
0.0
1021
1.0
1031
0.0
1011
0.0
1021
0.0
1031
0.0
1021
0.0
1031
1.0
1040
0.0
1010
0.0
1020
0.0
1030
1.0
1000
SOLID
1070
     1
1070
     0
1071
        1
1071
        0
1071
        1
1070
     2
1040
-431.28179687252208
1040
-74.626038278913654
1040
2.5
1040
0.0
1040
6.2831853071795862
1070
     1
1071
        0
1070
     0
1070
     1
1071
        1
1040
0.0
1040
0.0
1040
0.0
1002
}
  0
LINE
  5
2A6
  8
0
 10
-431.28179687252208
 20
-150.75219158032479
 30
0.0
 11
-575.44428458741766
 21
-150.75219158032479
 31
0.0
1001
REVIT
1002
{
1070
     1
1000
669456
1002
}
1002
{
1070
     5
1000
233011
1002
}
1002
{
1070
     2
1000
-2005028
1002
}
  0
LINE
  5
2A7
  8
0
 10
-431.28179687252208
 20
-74.626038278913654
 30
0.0
 11
-431.28179687252208
 21
-150.75219158032479
 31
0.0
1001
REVIT
1002
{
1070
     1
1000
669456
1002
}
1002
{
1070
     5
1000
233011
1002
}
1002
{
1070
     2
1000
-2005028
1002
}
  0
INSERT
  5
2A8
  8
0
  2
*U36
 10
0.0
 20
0.0
 30
0.0
  0
CIRCLE
  5
2A9
  8
0
 10
-442.10053408952308
 20
143.67765229619181
 30
0.0
 40
2.4999999999999432
1001
REVIT
1002
{
1070
     1
1000
669460
1002
}
1002
{
1070
     5
1000
233013
1002
}
1002
{
1070
     2
1000
-2005028
1002
}
  0
INSERT
  5
2AA
  8
0
  6
CONTINUOUS
  2
*U37
 10
0.0
 20
0.0
 30
0.0
1001
REVIT
1002
{
1070
     1
1000
669460
1002
}
1002
{
1070
     5
1000
233013
1002
}
1002
{
1070
     2
1000
-2005028
1002
}
1001
ACAD
1002
{
1000
R14_HATCH_DATA
1000
2AA
1011
1.0
1021
0.0
1031
0.0
1021
0.0
1031
0.0
1011
0.0
1021
0.0
1031
0.0
1021
1.0
1031
0.0
1011
0.0
1021
0.0
1031
0.0
1021
0.0
1031
1.0
1040
0.0
1010
0.0
1020
0.0
1030
1.0
1000
SOLID
1070
     1
1070
     0
1071
        1
1071
        0
1071
        1
1070
     2
1040
-442.10053408952308
1040
143.67765229619181
1040
2.4999999999999432
1040
0.0
1040
6.2831853071795862
1070
     1
1071
        0
1070
     0
1070
     1
1071
        1
1040
0.0
1040
0.0
1040
0.0
1002
}
  0
LINE
  5
2AB
  8
0
 10
-442.10053408952308
 20
267.30243442263952
 30
0.0
 11
-524.81928458741766
 21
267.30243442263952
 31
0.0
1001
REVIT
1002
{
1070
     1
1000
669460
1002
}
1002
{
1070
     5
1000
233013
1002
}
1002
{
1070
     2
1000
-2005028
1002
}
  0
LINE
  5
2AC
  8
0
 10
-442.10053408952308
 20
143.67765229619181
 30
0.0
 11
-442.10053408952308
 21
267.30243442263952
 31
0.0
1001
REVIT
1002
{
1070
     1
1000
669460
1002
}
1002
{
1070
     5
1000
233013
1002
}
1002
{
1070
     2
1000
-2005028
1002
}
  0
INSERT
  5
2AD
  8
0
  2
*U38
 10
0.0
 20
0.0
 30
0.0
  0
CIRCLE
  5
2AE
  8
0
 10
-471.63321071726318
 20
125.321881516353
 30
0.0
 40
2.4999999999999432
1001
REVIT
1002
{
1070
     1
1000
680501
1002
}
1002
{
1070
     5
1000
233013
1002
}
1002
{
1070
     2
1000
-2005028
1002
}
  0
INSERT
  5
2AF
  8
0
  6
CONTINUOUS
  2
*U39
 10
0.0
 20
0.0
 30
0.0
1001
REVIT
1002
{
1070
     1
1000
680501
1002
}
1002
{
1070
     5
1000
233013
1002
}
1002
{
1070
     2
1000
-2005028
1002
}
1001
ACAD
1002
{
1000
R14_HATCH_DATA
1000
2AF
1011
1.0
1021
0.0
1031
0.0
1021
0.0
1031
0.0
1011
0.0
1021
0.0
1031
0.0
1021
1.0
1031
0.0
1011
0.0
1021
0.0
1031
0.0
1021
0.0
1031
1.0
1040
0.0
1010
0.0
1020
0.0
1030
1.0
1000
SOLID
1070
     1
1070
     0
1071
        1
1071
        0
1071
        1
1070
     2
1040
-471.63321071726318
1040
125.321881516353
1040
2.4999999999999432
1040
0.0
1040
6.2831853071795862
1070
     1
1071
        0
1070
     0
1070
     1
1071
        1
1040
0.0
1040
0.0
1040
0.0
1002
}
  0
LINE
  5
2B0
  8
0
 10
-471.63321071726318
 20
125.321881516353
 30
0.0
 11
-623.06928458741754
 21
125.321881516353
 31
0.0
1001
REVIT
1002
{
1070
     1
1000
680501
1002
}
1002
{
1070
     5
1000
233013
1002
}
1002
{
1070
     2
1000
-2005028
1002
}
  0
INSERT
  5
2B1
  8
0
  2
*U40
 10
0.0
 20
0.0
 30
0.0
  0
CIRCLE
  5
2B2
  8
0
 10
-228.5238264457214
 20
147.477786183468
 30
0.0
 40
2.5
1001
REVIT
1002
{
1070
     1
1000
687641
1002
}
1002
{
1070
     5
1000
233013
1002
}
1002
{
1070
     2
1000
-2005028
1002
}
  0
INSERT
  5
2B3
  8
0
  6
CONTINUOUS
  2
*U41
 10
0.0
 20
0.0
 30
0.0
1001
REVIT
1002
{
1070
     1
1000
687641
1002
}
1002
{
1070
     5
1000
233013
1002
}
1002
{
1070
     2
1000
-2005028
1002
}
1001
ACAD
1002
{
1000
R14_HATCH_DATA
1000
2B3
1011
1.0
1021
0.0
1031
0.0
1021
0.0
1031
0.0
1011
0.0
1021
0.0
1031
0.0
1021
1.0
1031
0.0
1011
0.0
1021
0.0
1031
0.0
1021
0.0
1031
1.0
1040
0.0
1010
0.0
1020
0.0
1030
1.0
1000
SOLID
1070
     1
1070
     0
1071
        1
1071
        0
1071
        1
1070
     2
1040
-228.5238264457214
1040
147.477786183468
1040
2.5
1040
0.0
1040
6.2831853071795862
1070
     1
1071
        0
1070
     0
1070
     1
1071
        1
1040
0.0
1040
0.0
1040
0.0
1002
}
  0
LINE
  5
2B4
  8
0
 10
-228.5238264457214
 20
-221.87422882602431
 30
0.0
 11
-624.81928458741777
 21
-221.87422882602431
 31
0.0
1001
REVIT
1002
{
1070
     1
1000
687641
1002
}
1002
{
1070
     5
1000
233013
1002
}
1002
{
1070
     2
1000
-2005028
1002
}
  0
LINE
  5
2B5
  8
0
 10
-228.5238264457214
 20
147.477786183468
 30
0.0
 11
-228.5238264457214
 21
-221.87422882602431
 31
0.0
1001
REVIT
1002
{
1070
     1
1000
687641
1002
}
1002
{
1070
     5
1000
233013
1002
}
1002
{
1070
     2
1000
-2005028
1002
}
  0
INSERT
  5
2B6
  8
0
  2
*U42
 10
0.0
 20
0.0
 30
0.0
  0
CIRCLE
  5
2B7
  8
0
 10
-371.30225065802381
 20
128.2808057133243
 30
0.0
 40
2.5
1001
REVIT
1002
{
1070
     1
1000
694407
1002
}
1002
{
1070
     5
1000
233013
1002
}
1002
{
1070
     2
1000
-2005028
1002
}
  0
INSERT
  5
2B8
  8
0
  6
CONTINUOUS
  2
*U43
 10
0.0
 20
0.0
 30
0.0
1001
REVIT
1002
{
1070
     1
1000
694407
1002
}
1002
{
1070
     5
1000
233013
1002
}
1002
{
1070
     2
1000
-2005028
1002
}
1001
ACAD
1002
{
1000
R14_HATCH_DATA
1000
2B8
1011
1.0
1021
0.0
1031
0.0
1021
0.0
1031
0.0
1011
0.0
1021
0.0
1031
0.0
1021
1.0
1031
0.0
1011
0.0
1021
0.0
1031
0.0
1021
0.0
1031
1.0
1040
0.0
1010
0.0
1020
0.0
1030
1.0
1000
SOLID
1070
     1
1070
     0
1071
        1
1071
        0
1071
        1
1070
     2
1040
-371.30225065802381
1040
128.2808057133243
1040
2.5
1040
0.0
1040
6.2831853071795862
1070
     1
1071
        0
1070
     0
1070
     1
1071
        1
1040
0.0
1040
0.0
1040
0.0
1002
}
  0
LINE
  5
2B9
  8
0
 10
-371.30225065802381
 20
317.9625442007133
 30
0.0
 11
-595.31928458741766
 21
317.9625442007133
 31
0.0
1001
REVIT
1002
{
1070
     1
1000
694407
1002
}
1002
{
1070
     5
1000
233013
1002
}
1002
{
1070
     2
1000
-2005028
1002
}
  0
LINE
  5
2BA
  8
0
 10
-371.30225065802381
 20
128.2808057133243
 30
0.0
 11
-371.30225065802381
 21
317.9625442007133
 31
0.0
1001
REVIT
1002
{
1070
     1
1000
694407
1002
}
1002
{
1070
     5
1000
233013
1002
}
1002
{
1070
     2
1000
-2005028
1002
}
  0
INSERT
  5
2BB
  8
0
  2
*U44
 10
0.0
 20
0.0
 30
0.0
  0
LINE
  5
320
  8
0
 10
179.1724723870642
 20
407.0763392636045
 30
0.0
 11
179.17247238706449
 21
285.63033240520468
 31
0.0
  0
LINE
  5
321
  8
0
 10
179.17247238706469
 20
157.0763392636045
 30
0.0
 11
179.17247238706449
 21
278.52234612200448
 31
0.0
  0
LINE
  5
322
  8
0
 10
179.1724723870642
 20
407.0763392636045
 30
0.0
 11
179.17247238706449
 21
285.63033240520468
 31
0.0
  0
LINE
  5
323
  8
0
 10
179.17247238706449
 20
285.63033240520468
 30
0.0
 11
168.86485322618361
 21
283.81282104027389
 31
0.0
  0
LINE
  5
324
  8
0
 10
168.8648532261835
 20
283.81282104027389
 30
0.0
 11
189.48009154794531
 21
280.33985748693527
 31
0.0
  0
LINE
  5
325
  8
0
 10
189.48009154794531
 20
280.33985748693527
 30
0.0
 11
179.17247238706449
 21
278.52234612200448
 31
0.0
  0
LINE
  5
326
  8
0
 10
179.17247238706449
 20
278.52234612200448
 30
0.0
 11
179.17247238706469
 21
157.0763392636045
 31
0.0
  0
LINE
  5
327
  8
0
 10
119.99999999999849
 20
-272.68154087428587
 30
0.0
 11
23.55399314159861
 21
-272.68154087428587
 31
0.0
  0
LINE
  5
328
  8
0
 10
-80.000000000001492
 20
-272.68154087428587
 30
0.0
 11
16.446006858398409
 21
-272.68154087428587
 31
0.0
  0
LINE
  5
329
  8
0
 10
119.99999999999849
 20
-272.68154087428587
 30
0.0
 11
23.55399314159861
 21
-272.68154087428587
 31
0.0
  0
LINE
  5
32A
  8
0
 10
23.55399314159861
 20
-272.68154087428587
 30
0.0
 11
21.736481776667819
 21
-262.37392171340503
 31
0.0
  0
LINE
  5
32B
  8
0
 10
21.736481776667819
 20
-262.37392171340503
 30
0.0
 11
18.263518223329189
 21
-282.98916003516672
 31
0.0
  0
LINE
  5
32C
  8
0
 10
18.263518223329189
 20
-282.98916003516672
 30
0.0
 11
16.446006858398409
 21
-272.68154087428587
 31
0.0
  0
LINE
  5
32D
  8
0
 10
16.446006858398409
 20
-272.68154087428587
 30
0.0
 11
-80.000000000001492
 21
-272.68154087428587
 31
0.0
  0
ARC
  5
32E
  8
0
 10
237.2036576373535
 20
304.402452543138
 30
0.0
 40
1.999999999999992
 50
289.99999999999648
 51
19.999999999996469
1001
REVIT
1002
{
1070
     3
1000
224526
1002
}
  0
ARC
  5
32F
  8
0
 10
146.9931660419042
 20
271.5685187838796
 30
0.0
 40
2.0000000000000031
 50
199.99999999999639
 51
289.99999999999648
1001
REVIT
1002
{
1070
     3
1000
224526
1002
}
  0
ARC
  5
330
  8
0
 10
139.81074303206651
 20
291.30206382038421
 30
0.0
 40
1.9999999999999889
 50
109.9999999999964
 51
199.99999999999639
1001
REVIT
1002
{
1070
     3
1000
224526
1002
}
  0
ARC
  5
331
  8
0
 10
230.02123462751581
 20
324.13599757964249
 30
0.0
 40
2.0000000000000071
 50
19.999999999996469
 51
109.9999999999964
1001
REVIT
1002
{
1070
     3
1000
224526
1002
}
  0
LINE
  5
332
  8
0
 10
237.8876979240047
 20
302.52306730156607
 30
0.0
 11
147.6772063285554
 21
269.68913354230767
 31
0.0
1001
REVIT
1002
{
1070
     3
1000
224526
1002
}
  0
LINE
  5
333
  8
0
 10
145.11378080033239
 20
270.88447849722837
 30
0.0
 11
137.93135779049459
 21
290.61802353373292
 31
0.0
1001
REVIT
1002
{
1070
     3
1000
224526
1002
}
  0
LINE
  5
334
  8
0
 10
139.1267027454152
 20
293.18144906195602
 30
0.0
 11
229.3371943408645
 21
326.01538282121442
 31
0.0
1001
REVIT
1002
{
1070
     3
1000
224526
1002
}
  0
LINE
  5
335
  8
0
 10
231.90061986908759
 20
324.82003786629377
 30
0.0
 11
239.0830428789254
 21
305.08649282978928
 31
0.0
1001
REVIT
1002
{
1070
     3
1000
224526
1002
}
  0
LINE
  5
336
  8
0
 10
146.99316604190409
 20
271.56851878387931
 30
0.0
 11
230.02123462751581
 21
324.13599757964249
 31
0.0
  0
LINE
  5
337
  8
0
 10
237.20365763735359
 20
304.40245254313783
 30
0.0
 11
139.81074303206651
 21
291.30206382038421
 31
0.0
  0
ARC
  5
338
  8
0
 10
49.265133480167258
 20
235.99842387801669
 30
0.0
 40
1.999999999999992
 50
289.99999999999591
 51
19.999999999996469
1001
REVIT
1002
{
1070
     3
1000
224526
1002
}
  0
ARC
  5
339
  8
0
 10
-40.945358115281977
 20
203.16449011875821
 30
0.0
 40
2.0000000000000031
 50
199.9999999999965
 51
289.99999999999591
1001
REVIT
1002
{
1070
     3
1000
224526
1002
}
  0
ARC
  5
33A
  8
0
 10
-48.127781125119739
 20
222.89803515526279
 30
0.0
 40
1.9999999999999889
 50
109.99999999999611
 51
199.9999999999965
1001
REVIT
1002
{
1070
     3
1000
224526
1002
}
  0
ARC
  5
33B
  8
0
 10
42.082710470329559
 20
255.73196891452119
 30
0.0
 40
2.0000000000000071
 50
19.99999999999655
 51
109.99999999999621
1001
REVIT
1002
{
1070
     3
1000
224526
1002
}
  0
LINE
  5
33C
  8
0
 10
49.949173766818497
 20
234.11903863644471
 30
0.0
 11
-40.261317828630759
 21
201.28510487718631
 31
0.0
1001
REVIT
1002
{
1070
     3
1000
224526
1002
}
  0
LINE
  5
33D
  8
0
 10
-42.824743356853837
 20
202.48044983210701
 30
0.0
 11
-50.007166366691607
 21
222.21399486861159
 31
0.0
1001
REVIT
1002
{
1070
     3
1000
224526
1002
}
  0
LINE
  5
33E
  8
0
 10
-48.811821411770993
 20
224.7774203968346
 30
0.0
 11
41.398670183678327
 21
257.61135415609311
 31
0.0
1001
REVIT
1002
{
1070
     3
1000
224526
1002
}
  0
LINE
  5
33F
  8
0
 10
43.962095711901419
 20
256.41600920117241
 30
0.0
 11
51.144518721739189
 21
236.68246416466789
 31
0.0
1001
REVIT
1002
{
1070
     3
1000
224526
1002
}
  0
LINE
  5
340
  8
0
 10
-40.945358115282069
 20
203.16449011875801
 30
0.0
 11
42.082710470329609
 21
255.7319689145211
 31
0.0
  0
LINE
  5
341
  8
0
 10
49.265133480167428
 20
235.99842387801641
 30
0.0
 11
-48.127781125119711
 21
222.89803515526279
 31
0.0
  0
LINE
  5
342
  8
0
 10
-474.21203177262203
 20
139.06894158504261
 30
0.0
 11
-474.21203177262203
 21
143.068941585044
 31
0.0
1001
REVIT
1002
{
1070
     3
1000
211597
1002
}
  0
LINE
  5
343
  8
0
 10
-445.46203177262203
 20
140.5689415850421
 30
0.0
 11
-473.46203177262203
 21
140.56894158504221
 31
0.0
1001
REVIT
1002
{
1070
     3
1000
211597
1002
}
  0
LINE
  5
344
  8
0
 10
-443.46203177262203
 20
141.06894158504329
 30
0.0
 11
-445.46203177262203
 21
140.5689415850421
 31
0.0
1001
REVIT
1002
{
1070
     3
1000
211597
1002
}
  0
LINE
  5
345
  8
0
 10
-445.46203177262203
 20
141.5689415850421
 30
0.0
 11
-443.46203177262203
 21
141.06894158504329
 31
0.0
1001
REVIT
1002
{
1070
     3
1000
211597
1002
}
  0
LINE
  5
346
  8
0
 10
-473.46203177262203
 20
141.56894158504221
 30
0.0
 11
-445.46203177262203
 21
141.5689415850421
 31
0.0
1001
REVIT
1002
{
1070
     3
1000
211597
1002
}
  0
LINE
  5
347
  8
0
 10
-473.46203177262203
 20
142.76880512615361
 30
0.0
 11
-473.46203177262203
 21
141.56894158504221
 31
0.0
1001
REVIT
1002
{
1070
     3
1000
211597
1002
}
  0
LINE
  5
348
  8
0
 10
-473.46203177262203
 20
140.56894158504221
 30
0.0
 11
-473.46203177262203
 21
139.36907804393121
 31
0.0
1001
REVIT
1002
{
1070
     3
1000
211597
1002
}
  0
LINE
  5
349
  8
0
 10
-474.21203177262203
 20
139.06894158504261
 30
0.0
 11
-473.46203177262203
 21
139.36907804393121
 31
0.0
1001
REVIT
1002
{
1070
     3
1000
211597
1002
}
  0
LINE
  5
34A
  8
0
 10
-474.21203177262203
 20
143.068941585044
 30
0.0
 11
-473.46203177262203
 21
142.76880512615361
 31
0.0
1001
REVIT
1002
{
1070
     3
1000
211597
1002
}
  0
LINE
  5
34B
  8
0
 10
-454.12545573413951
 20
113.4754497185266
 30
0.0
 11
-445.4381440936678
 21
89.607257150564294
 31
0.0
1001
REVIT
1002
{
1070
     3
1000
211597
1002
}
  0
LINE
  5
34C
  8
0
 10
-445.4381440936678
 20
89.607257150564294
 30
0.0
 11
243.13039454999051
 21
340.22570946902169
 31
0.0
1001
REVIT
1002
{
1070
     3
1000
211597
1002
}
  0
LINE
  5
34D
  8
0
 10
234.44308290951881
 20
364.0939020369841
 30
0.0
 11
-454.12545573413951
 21
113.4754497185266
 31
0.0
1001
REVIT
1002
{
1070
     3
1000
211597
1002
}
  0
LINE
  5
34E
  8
0
 10
-474.21203177262203
 20
50.808025051088748
 30
0.0
 11
-474.21203177262203
 21
54.808025051090119
 31
0.0
1001
REVIT
1002
{
1070
     3
1000
211597
1002
}
  0
LINE
  5
34F
  8
0
 10
-445.46203177262203
 20
52.308025051088272
 30
0.0
 11
-473.46203177262203
 21
52.3080250510883
 31
0.0
1001
REVIT
1002
{
1070
     3
1000
211597
1002
}
  0
LINE
  5
350
  8
0
 10
-443.46203177262203
 20
52.808025051089402
 30
0.0
 11
-445.46203177262203
 21
52.308025051088272
 31
0.0
1001
REVIT
1002
{
1070
     3
1000
211597
1002
}
  0
LINE
  5
351
  8
0
 10
-445.46203177262203
 20
53.308025051088272
 30
0.0
 11
-443.46203177262203
 21
52.808025051089402
 31
0.0
1001
REVIT
1002
{
1070
     3
1000
211597
1002
}
  0
LINE
  5
352
  8
0
 10
-473.46203177262203
 20
53.3080250510883
 30
0.0
 11
-445.46203177262203
 21
53.308025051088272
 31
0.0
1001
REVIT
1002
{
1070
     3
1000
211597
1002
}
  0
LINE
  5
353
  8
0
 10
-473.46203177262203
 20
54.50788859219972
 30
0.0
 11
-473.46203177262203
 21
53.3080250510883
 31
0.0
1001
REVIT
1002
{
1070
     3
1000
211597
1002
}
  0
LINE
  5
354
  8
0
 10
-473.46203177262203
 20
52.3080250510883
 30
0.0
 11
-473.46203177262203
 21
51.108161509977329
 31
0.0
1001
REVIT
1002
{
1070
     3
1000
211597
1002
}
  0
LINE
  5
355
  8
0
 10
-474.21203177262203
 20
50.808025051088748
 30
0.0
 11
-473.46203177262203
 21
51.108161509977329
 31
0.0
1001
REVIT
1002
{
1070
     3
1000
211597
1002
}
  0
LINE
  5
356
  8
0
 10
-474.21203177262203
 20
54.808025051090119
 30
0.0
 11
-473.46203177262203
 21
54.50788859219972
 31
0.0
1001
REVIT
1002
{
1070
     3
1000
211597
1002
}
  0
INSERT
  5
357
  8
0
  6
CONTINUOUS
  2
*U45
 10
0.0
 20
0.0
 30
0.0
1001
ACAD
1002
{
1000
R14_HATCH_DATA
1000
357
1011
1.0
1021
0.0
1031
0.0
1021
0.0
1031
0.0
1011
0.0
1021
0.0
1031
0.0
1021
1.0
1031
0.0
1011
0.0
1021
0.0
1031
0.0
1021
0.0
1031
1.0
1040
0.0
1010
0.0
1020
0.0
1030
1.0
1000
SOLID
1070
     1
1070
     0
1071
        3
1071
        0
1071
        5
1070
     1
1040
-471.46203177262282
1040
30.146146506741712
1040
-469.46203177262282
1040
30.146146506741701
1070
     1
1040
-469.46203177262282
1040
30.146146506741701
1040
-469.46203177262259
1040
52.308025051088578
1070
     1
1040
-469.46203177262259
1040
52.308025051088578
1040
-471.46203177262259
1040
52.308025051088592
1070
     1
1040
-471.46203177262259
1040
52.308025051088592
1040
-471.46203177262271
1040
34.78412847032056
1070
     1
1040
-471.46203177262271
1040
34.78412847032056
1040
-471.46203177262282
1040
30.146146506741701
1071
        0
1071
        0
1071
        4
1070
     1
1040
-469.46203177262259
1040
53.30802505108862
1040
-469.46203177262208
1040
140.5689415850425
1070
     1
1040
-469.46203177262208
1040
140.5689415850425
1040
-471.46203177262208
1040
140.5689415850425
1070
     1
1040
-471.46203177262208
1040
140.5689415850425
1040
-471.46203177262259
1040
53.308025051088627
1070
     1
1040
-471.46203177262259
1040
53.308025051088627
1040
-469.46203177262259
1040
53.30802505108862
1071
        0
1071
        0
1071
        4
1070
     1
1040
-471.46203177262208
1040
141.5689415850425
1040
-469.46203177262208
1040
141.5689415850425
1070
     1
1040
-469.46203177262208
1040
141.5689415850425
1040
-469.46203177262203
1040
160.1461465067417
1070
     1
1040
-469.46203177262203
1040
160.1461465067417
1040
-471.46203177262191
1040
160.1461465067417
1070
     1
1040
-471.46203177262191
1040
160.1461465067417
1040
-471.46203177262208
1040
141.5689415850425
1071
        0
1070
     0
1070
     1
1071
        1
1040
-471.46203177262208
1040
30.146146506741442
1040
0.0
1002
}
  0
LINE
  5
358
  8
0
 10
-471.46203177262129
 20
160.1461465067415
 30
0.0
 11
-471.4620317726214
 21
141.5689415850423
 31
0.0
  0
LINE
  5
359
  8
0
 10
-471.4620317726214
 20
140.5689415850423
 30
0.0
 11
-471.46203177262191
 21
53.308025051088357
 31
0.0
  0
LINE
  5
35A
  8
0
 10
-471.46203177262191
 20
52.30802505108835
 30
0.0
 11
-471.46203177262208
 21
30.146146506741442
 31
0.0
  0
LINE
  5
35B
  8
0
 10
-471.46203177262208
 20
30.146146506741442
 30
0.0
 11
-469.46203177262208
 21
30.14614650674142
 31
0.0
  0
LINE
  5
35C
  8
0
 10
-469.46203177262208
 20
30.14614650674142
 30
0.0
 11
-469.46203177262203
 21
52.308025051088343
 31
0.0
  0
LINE
  5
35D
  8
0
 10
-469.46203177262203
 20
53.30802505108835
 30
0.0
 11
-469.46203177262129
 21
140.56894158504221
 31
0.0
  0
LINE
  5
35E
  8
0
 10
-469.46203177262129
 20
141.56894158504221
 30
0.0
 11
-469.46203177262117
 21
160.1461465067415
 31
0.0
  0
LINE
  5
35F
  8
0
 10
-469.46203177262117
 20
160.1461465067415
 30
0.0
 11
-471.46203177262129
 21
160.1461465067415
 31
0.0
  0
LINE
  5
360
  8
0
  6
DASH
 10
-466.4620317726222
 20
77.638725990319614
 30
0.0
 11
-466.4620317726222
 21
53.30802505108835
 31
0.0
1001
REVIT
1002
{
1070
     3
1000
217411
1002
}
  0
LINE
  5
361
  8
0
  6
DASH
 10
-466.4620317726222
 20
52.308025051088343
 30
0.0
 11
-466.4620317726222
 21
37.638725990319607
 31
0.0
1001
REVIT
1002
{
1070
     3
1000
217411
1002
}
  0
ARC
  5
362
  8
0
 10
-138.673390677019
 20
167.59439521289519
 30
0.0
 40
1.999999999999992
 50
289.99999999999648
 51
19.999999999996469
1001
REVIT
1002
{
1070
     3
1000
224526
1002
}
  0
ARC
  5
363
  8
0
 10
-228.88388227246821
 20
134.76046145363679
 30
0.0
 40
2.0000000000000031
 50
199.99999999999639
 51
289.99999999999648
1001
REVIT
1002
{
1070
     3
1000
224526
1002
}
  0
ARC
  5
364
  8
0
 10
-236.06630528230599
 20
154.49400649014129
 30
0.0
 40
1.9999999999999889
 50
109.9999999999964
 51
199.99999999999639
1001
REVIT
1002
{
1070
     3
1000
224526
1002
}
  0
ARC
  5
365
  8
0
 10
-145.85581368685669
 20
187.32794024939969
 30
0.0
 40
2.0000000000000071
 50
19.999999999996469
 51
109.9999999999964
1001
REVIT
1002
{
1070
     3
1000
224526
1002
}
  0
LINE
  5
366
  8
0
 10
-137.98935039036769
 20
165.7150099713233
 30
0.0
 11
-228.19984198581699
 21
132.8810762120649
 31
0.0
1001
REVIT
1002
{
1070
     3
1000
224526
1002
}
  0
LINE
  5
367
  8
0
 10
-230.76326751404011
 20
134.0764211669856
 30
0.0
 11
-237.94569052387789
 21
153.80996620349009
 31
0.0
1001
REVIT
1002
{
1070
     3
1000
224526
1002
}
  0
LINE
  5
368
  8
0
 10
-236.75034556895719
 20
156.37339173171321
 30
0.0
 11
-146.53985397350789
 21
189.20732549097161
 31
0.0
1001
REVIT
1002
{
1070
     3
1000
224526
1002
}
  0
LINE
  5
369
  8
0
 10
-143.9764284452848
 20
188.01198053605091
 30
0.0
 11
-136.79400543544699
 21
168.2784354995465
 31
0.0
1001
REVIT
1002
{
1070
     3
1000
224526
1002
}
  0
LINE
  5
36A
  8
0
 10
-228.8838822724683
 20
134.76046145363659
 30
0.0
 11
-145.85581368685661
 21
187.32794024939969
 31
0.0
  0
LINE
  5
36B
  8
0
 10
-138.6733906770188
 20
167.59439521289499
 30
0.0
 11
-236.06630528230599
 21
154.4940064901414
 31
0.0
  0
ARC
  5
36C
  8
0
 10
-326.61191483420521
 20
99.190366547773721
 30
0.0
 40
1.999999999999992
 50
289.99999999999648
 51
19.999999999995708
1001
REVIT
1002
{
1070
     3
1000
224526
1002
}
  0
ARC
  5
36D
  8
0
 10
-416.82240642965439
 20
66.356432788515292
 30
0.0
 40
2.0000000000000031
 50
199.99999999999639
 51
289.99999999999648
1001
REVIT
1002
{
1070
     3
1000
224526
1002
}
  0
ARC
  5
36E
  8
0
 10
-424.0048294394922
 20
86.089977825019844
 30
0.0
 40
1.9999999999999889
 50
109.9999999999964
 51
199.99999999999639
1001
REVIT
1002
{
1070
     3
1000
224526
1002
}
  0
ARC
  5
36F
  8
0
 10
-333.7943378440429
 20
118.9239115842782
 30
0.0
 40
2.0000000000000071
 50
19.999999999996469
 51
109.9999999999964
1001
REVIT
1002
{
1070
     3
1000
224526
1002
}
  0
LINE
  5
370
  8
0
 10
-325.92787454755398
 20
97.310981306201782
 30
0.0
 11
-416.13836614300322
 21
64.477047546943425
 31
0.0
1001
REVIT
1002
{
1070
     3
1000
224526
1002
}
  0
LINE
  5
371
  8
0
 10
-418.70179167122632
 20
65.672392501864067
 30
0.0
 11
-425.88421468106401
 21
85.405937538368619
 31
0.0
1001
REVIT
1002
{
1070
     3
1000
224526
1002
}
  0
LINE
  5
372
  8
0
 10
-424.68886972614342
 20
87.969363066591711
 30
0.0
 11
-334.47837813069413
 21
120.8032968258501
 31
0.0
1001
REVIT
1002
{
1070
     3
1000
224526
1002
}
  0
LINE
  5
373
  8
0
 10
-331.91495260247098
 20
119.6079518709294
 30
0.0
 11
-324.73252959263328
 21
99.87440683442496
 31
0.0
1001
REVIT
1002
{
1070
     3
1000
224526
1002
}
  0
LINE
  5
374
  8
0
 10
-416.82240642965451
 20
66.356432788515065
 30
0.0
 11
-333.79433784404279
 21
118.9239115842781
 31
0.0
  0
LINE
  5
375
  8
0
 10
-326.61191483420498
 20
99.190366547773522
 30
0.0
 11
-424.0048294394922
 21
86.089977825019844
 31
0.0
  0
ARC
  5
376
  8
0
 10
-422.94151964865188
 20
168.14090068176421
 30
0.0
 40
1.9999999999999969
 50
19.999999999999531
 51
110.0000000000001
1001
REVIT
1002
{
1070
     3
1000
224526
1002
}
  0
ARC
  5
377
  8
0
 10
-466.16738020480381
 20
152.40797408878359
 30
0.0
 40
2.0
 50
110.0000000000001
 51
199.99999999999949
1001
REVIT
1002
{
1070
     3
1000
224526
1002
}
  0
ARC
  5
378
  8
0
 10
-453.85465504507982
 20
118.5790397404909
 30
0.0
 40
1.999999999999996
 50
199.99999999999949
 51
290.00000000000011
1001
REVIT
1002
{
1070
     3
1000
224526
1002
}
  0
ARC
  5
379
  8
0
 10
-410.62879448892789
 20
134.31196633347159
 30
0.0
 40
2.0
 50
290.00000000000011
 51
19.999999999999531
1001
REVIT
1002
{
1070
     3
1000
224526
1002
}
  0
LINE
  5
37A
  8
0
 10
-423.62555993530327
 20
170.0202859233361
 30
0.0
 11
-466.85142049145509
 21
154.2873593303554
 31
0.0
1001
REVIT
1002
{
1070
     3
1000
224526
1002
}
  0
LINE
  5
37B
  8
0
 10
-468.04676544637562
 20
151.72393380213231
 30
0.0
 11
-464.35065055014979
 21
141.56894158504221
 31
0.0
1001
REVIT
1002
{
1070
     3
1000
224526
1002
}
  0
LINE
  5
37C
  8
0
 10
-463.98668031588358
 20
140.56894158504221
 30
0.0
 11
-455.73404028665158
 21
117.8949994538395
 31
0.0
1001
REVIT
1002
{
1070
     3
1000
224526
1002
}
  0
LINE
  5
37D
  8
0
 10
-453.17061475842843
 20
116.699654498919
 30
0.0
 11
-409.9447542022765
 21
132.43258109189969
 31
0.0
1001
REVIT
1002
{
1070
     3
1000
224526
1002
}
  0
LINE
  5
37E
  8
0
 10
-408.74940924735608
 20
134.9960066201229
 30
0.0
 11
-421.06213440708001
 21
168.8249409684156
 31
0.0
1001
REVIT
1002
{
1070
     3
1000
224526
1002
}
  0
LINE
  5
37F
  8
0
 10
-466.16738020480392
 20
152.4079740887837
 30
0.0
 11
-410.62879448892789
 21
134.31196633347159
 31
0.0
  0
LINE
  5
380
  8
0
 10
-422.94151964865188
 20
168.14090068176449
 30
0.0
 11
-453.85465504507971
 21
118.5790397404909
 31
0.0
  0
LINE
  5
381
  8
0
 10
-455.0500000000003
 20
63.418815368226703
 30
0.0
 11
-404.24999999999989
 21
63.418815368226703
 31
0.0
  0
LINE
  5
382
  8
0
 10
-455.0500000000003
 20
-88.981184631772706
 30
0.0
 11
-455.0500000000003
 21
52.308025051088329
 31
0.0
  0
LINE
  5
383
  8
0
 10
-455.0500000000003
 20
53.308025051088222
 30
0.0
 11
-455.0500000000003
 21
63.418815368226703
 31
0.0
  0
LINE
  5
384
  8
0
 10
-404.24999999999989
 20
-88.981184631772706
 30
0.0
 11
-455.0500000000003
 21
-88.981184631772706
 31
0.0
  0
LINE
  5
385
  8
0
 10
-404.24999999999989
 20
63.418815368226703
 30
0.0
 11
-404.24999999999989
 21
-88.981184631772706
 31
0.0
  0
LINE
  5
386
  8
0
 10
-455.0500000000003
 20
63.418815368226703
 30
0.0
 11
-451.6797365609541
 21
53.308025051088222
 31
0.0
1001
REVIT
1002
{
1070
     3
1000
41944
1002
}
  0
LINE
  5
387
  8
0
 10
-451.34640322762078
 20
52.308025051088329
 30
0.0
 11
-404.24999999999989
 21
-88.981184631772706
 31
0.0
1001
REVIT
1002
{
1070
     3
1000
41944
1002
}
  0
LINE
  5
388
  8
0
 10
-404.24999999999989
 20
63.418815368226703
 30
0.0
 11
-455.0500000000003
 21
-88.981184631772706
 31
0.0
1001
REVIT
1002
{
1070
     3
1000
41944
1002
}
  0
LINE
  5
389
  8
0
 10
-142.00251767188709
 20
265.85377890310269
 30
0.0
 11
-142.63559748050341
 21
269.80336241987169
 31
0.0
1001
REVIT
1002
{
1070
     3
1000
211597
1002
}
  0
LINE
  5
38A
  8
0
 10
-113.8522910733507
 20
271.88513384631852
 30
0.0
 11
-141.49937569072409
 21
267.45357518600559
 31
0.0
1001
REVIT
1002
{
1070
     3
1000
211597
1002
}
  0
LINE
  5
38B
  8
0
 10
-111.9566342910441
 20
272.69537169022368
 30
0.0
 11
-113.8522910733507
 21
271.88513384631852
 31
0.0
1001
REVIT
1002
{
1070
     3
1000
211597
1002
}
  0
LINE
  5
38C
  8
0
 10
-114.0105610255047
 20
272.87252972551039
 30
0.0
 11
-111.9566342910441
 21
272.69537169022368
 31
0.0
1001
REVIT
1002
{
1070
     3
1000
211597
1002
}
  0
LINE
  5
38D
  8
0
 10
-141.65764564287809
 20
268.44097106519757
 30
0.0
 11
-114.0105610255047
 21
272.87252972551039
 31
0.0
1001
REVIT
1002
{
1070
     3
1000
211597
1002
}
  0
LINE
  5
38E
  8
0
 10
-141.84754798812119
 20
269.62571138128362
 30
0.0
 11
-141.65764564287809
 21
268.44097106519757
 31
0.0
1001
REVIT
1002
{
1070
     3
1000
211597
1002
}
  0
LINE
  5
38F
  8
0
 10
-141.49937569072409
 20
267.45357518600559
 30
0.0
 11
-141.30947334548111
 21
266.26883486992011
 31
0.0
1001
REVIT
1002
{
1070
     3
1000
211597
1002
}
  0
LINE
  5
390
  8
0
 10
-142.00251767188709
 20
265.85377890310269
 30
0.0
 11
-141.30947334548111
 21
266.26883486992011
 31
0.0
1001
REVIT
1002
{
1070
     3
1000
211597
1002
}
  0
LINE
  5
391
  8
0
 10
-142.63559748050341
 20
269.80336241987169
 30
0.0
 11
-141.84754798812119
 21
269.62571138128362
 31
0.0
1001
REVIT
1002
{
1070
     3
1000
211597
1002
}
  0
INSERT
  5
392
  8
0
  6
CONTINUOUS
  2
*U46
 10
0.0
 20
0.0
 30
0.0
1001
ACAD
1002
{
1000
R14_HATCH_DATA
1000
392
1011
1.0
1021
0.0
1031
0.0
1021
0.0
1031
0.0
1011
0.0
1021
0.0
1031
0.0
1021
1.0
1031
0.0
1011
0.0
1021
0.0
1031
0.0
1021
0.0
1031
1.0
1040
0.0
1010
0.0
1020
0.0
1030
1.0
1000
SOLID
1070
     1
1070
     0
1071
        2
1071
        0
1071
      105
1070
     1
1040
-534.50889032600651
1040
-12.50322583248469
1040
-462.80000000000013
1040
-12.50322583248469
1070
     1
1040
-462.80000000000013
1040
-12.50322583248469
1040
-462.08824762596828
1040
-12.40952185477965
1070
     1
1040
-462.08824762596828
1040
-12.40952185477965
1040
-461.42500000000041
1040
-12.134795692891879
1070
     1
1040
-461.42500000000041
1040
-12.134795692891879
1040
-460.8554563517373
1040
-11.69776948074791
1070
     1
1040
-460.8554563517373
1040
-11.69776948074791
1040
-460.4184301395934
1040
-11.128225832484871
1070
     1
1040
-460.41843013959328
1040
-11.128225832484871
1040
-460.14370397770563
1040
-10.464978206516919
1070
     1
1040
-460.14370397770563
1040
-10.464978206516919
1040
-460.05000000000052
1040
-9.7532258324851782
1070
     1
1040
-460.05000000000052
1040
-9.7532258324851782
1040
-460.05000000000052
1040
52.3080250510884
1070
     1
1040
-460.05000000000052
1040
52.3080250510884
1040
-461.05000000000058
1040
52.3080250510884
1070
     1
1040
-461.05000000000058
1040
52.3080250510884
1040
-461.05000000000058
1040
-9.7532258324851782
1070
     1
1040
-461.05000000000058
1040
-9.7532258324851782
1040
-461.10962980399461
1040
-10.20615916141443
1070
     1
1040
-461.10962980399461
1040
-10.20615916141443
1040
-461.2844555433777
1040
-10.628225832484979
1070
     1
1040
-461.2844555433777
1040
-10.628225832484979
1040
-461.56256313292391
1040
-10.990662699561179
1070
     1
1040
-461.56256313292391
1040
-10.990662699561179
1040
-461.92500000000018
1040
-11.26877028910754
1070
     1
1040
-461.92500000000018
1040
-11.26877028910754
1040
-462.34706667107082
1040
-11.443596028490569
1070
     1
1040
-462.34706667107082
1040
-11.443596028490569
1040
-462.80000000000018
1040
-11.50322583248464
1070
     1
1040
-462.80000000000013
1040
-11.50322583248464
1040
-547.75148842848819
1040
-11.462367668052471
1070
     1
1040
-547.75148842848819
1040
-11.462367668052471
1040
-548.10987808020695
1040
-11.3417010485852
1070
     1
1040
-548.10987808020695
1040
-11.3417010485852
1040
-548.43397797065904
1040
-11.146860507316839
1070
     1
1040
-548.43397797065904
1040
-11.146860507316839
1040
-548.70865424085389
1040
-10.88694413210254
1070
     1
1040
-548.70865424085389
1040
-10.88694413210254
1040
-549.08165929623237
1040
-10.271748505547951
1070
     1
1040
-549.08165929623237
1040
-10.271748505547951
1040
-550.56219600538282
1040
-7.4841648239223266
1070
     1
1040
-550.56219600538282
1040
-7.4841648239223284
1040
-550.9393925977763
1040
-6.5434534330165954
1070
     1
1040
-550.9393925977763
1040
-6.5434534330165954
1040
-551.10842701320223
1040
-5.544132385157333
1070
     1
1040
-551.10842701320223
1040
-5.544132385157333
1040
-551.06160353003372
1040
-4.5316983123817396
1070
     1
1040
-551.06160353003384
1040
-4.5316983123817396
1040
-550.58381929921018
1040
-1.3245048683582781
1070
     1
1040
-550.58381929920995
1040
-1.3245048683582781
1040
-550.57364036180502
1040
-0.8671887026795985
1070
     1
1040
-550.57364036180502
1040
-0.8671887026795985
1040
-550.71289155138231
1040
-0.2967919266583596
1070
     1
1040
-550.71289155138231
1040
-0.2967919266583596
1040
-550.99497678673788
1040
0.2181559307878516
1070
     1
1040
-550.99497678673799
1040
0.2181559307878516
1040
-551.72297513037995
1040
1.2124448834022981
1070
     1
1040
-551.72297513037995
1040
1.2124448834022981
1040
-553.45093776720864
1040
3.246127752762539
1070
     1
1040
-553.45093776720864
1040
3.246127752762539
1040
-554.87427053601539
1040
4.6169342995445009
1070
     1
1040
-554.87427053601539
1040
4.6169342995445009
1040
-558.76732634137159
1040
7.9577352335664191
1070
     1
1040
-558.76732634137159
1040
7.9577352335664191
1040
-562.93544660620216
1040
12.34577293151704
1070
     1
1040
-562.93544660620216
1040
12.34577293151704
1040
-566.12927913876888
1040
17.486544773822981
1070
     1
1040
-566.12927913876899
1040
17.486544773822981
1040
-568.31158993427573
1040
23.538754099449172
1070
     1
1040
-568.31158993427573
1040
23.538754099449172
1040
-573.66421778546646
1040
44.480482156865499
1070
     1
1040
-573.66421778546646
1040
44.480482156865499
1040
-575.00388163464152
1040
48.456308540788953
1070
     1
1040
-575.00388163464152
1040
48.456308540788953
1040
-576.46718226849907
1040
51.568797692341761
1070
     1
1040
-576.46718226849907
1040
51.568797692341761
1040
-578.5175514575111
1040
54.790275504588081
1070
     1
1040
-578.5175514575111
1040
54.790275504588081
1040
-580.95304121386755
1040
57.731418607656451
1070
     1
1040
-580.95304121386755
1040
57.731418607656451
1040
-583.72024696520953
1040
60.318860420340897
1070
     1
1040
-583.72024696520953
1040
60.318860420340897
1040
-586.83697023565662
1040
62.577056469710357
1070
     1
1040
-586.83697023565662
1040
62.577056469710357
1040
-592.59848381425184
1040
66.268607333680819
1070
     1
1040
-592.59848381425184
1040
66.268607333680819
1040
-592.85048257956396
1040
66.599532774024041
1070
     1
1040
-592.85048257956396
1040
66.599532774024041
1040
-593.01726409011394
1040
66.980582577230706
1070
     1
1040
-593.01726409011394
1040
66.980582577230706
1040
-593.08940607416912
1040
67.390229448232617
1070
     1
1040
-593.08940607416912
1040
67.390229448232617
1040
-592.99001215722774
1040
68.198688275643903
1070
     1
1040
-592.99001215722774
1040
68.198688275643903
1040
-590.97687257387565
1040
78.963406349352169
1070
     1
1040
-590.97687257387565
1040
78.963406349352169
1040
-590.76997576354324
1040
79.238046162128185
1070
     1
1040
-590.76997576354324
1040
79.238046162128185
1040
-590.46226247665265
1040
79.391492732498136
1070
     1
1040
-590.46226247665254
1040
79.391492732498136
1040
-590.29033711720285
1040
79.411464191428976
1070
     1
1040
-590.29033711720285
1040
79.411464191428976
1040
-577.2671924934134
1040
79.385908561145854
1070
     1
1040
-577.2671924934134
1040
79.385908561145854
1040
-576.93097669135045
1040
79.191794277318891
1070
     1
1040
-576.93097669135045
1040
79.191794277318891
1040
-576.73686240752352
1040
78.855578475255854
1070
     1
1040
-576.7368624075234
1040
78.855578475255854
1040
-576.71130677724022
1040
78.661464191429019
1070
     1
1040
-576.71130677724022
1040
78.661464191429019
1040
-576.71130677724022
1040
76.000740090304674
1070
     1
1040
-576.71130677724022
1040
76.000740090304674
1040
-575.71130677724022
1040
76.000740090304674
1070
     1
1040
-575.71130677724022
1040
76.000740090304674
1040
-575.71130677724022
1040
78.661464191429019
1070
     1
1040
-575.71130677724022
1040
78.661464191429019
1040
-575.77093658123431
1040
79.114397520358466
1070
     1
1040
-575.77093658123442
1040
79.114397520358466
1040
-575.9457623206174
1040
79.536464191429019
1070
     1
1040
-575.9457623206174
1040
79.536464191429019
1040
-576.22386991016367
1040
79.898901058505544
1070
     1
1040
-576.22386991016367
1040
79.898901058505544
1040
-576.58630677724022
1040
80.177008648051711
1070
     1
1040
-576.58630677724022
1040
80.177008648051711
1040
-577.00837344831075
1040
80.351834387434863
1070
     1
1040
-577.00837344831075
1040
80.351834387434863
1040
-577.46130677724022
1040
80.411464191428948
1070
     1
1040
-577.46130677724034
1040
80.411464191428948
1040
-590.69149628925152
1040
80.364864120592785
1070
     1
1040
-590.69149628925129
1040
80.364864120592785
1040
-591.07129083749044
1040
80.227545698491696
1070
     1
1040
-591.07129083749055
1040
80.227545698491696
1040
-591.40949395866232
1040
80.006822123063145
1070
     1
1040
-591.40949395866232
1040
80.006822123063145
1040
-591.68809389344926
1040
79.714448519164023
1070
     1
1040
-591.68809389344926
1040
79.714448519164023
1040
-591.89225318277101
1040
79.365995893253242
1070
     1
1040
-591.89225318277101
1040
79.365995893253242
1040
-592.04892390537782
1040
78.775701328284185
1070
     1
1040
-592.04892390537782
1040
78.775701328284185
1040
-594.04612532181693
1040
67.987363465362748
1070
     1
1040
-594.04612532181693
1040
67.987363465362748
1040
-594.08788317976166
1040
67.335061798223563
1070
     1
1040
-594.08788317976166
1040
67.335061798223563
1040
-593.97451720481786
1040
66.691331000934738
1070
     1
1040
-593.97451720481774
1040
66.691331000934738
1040
-593.71243197395358
1040
66.092538453038955
1070
     1
1040
-593.71243197395358
1040
66.092538453038955
1040
-593.31643391417754
1040
65.572512761071138
1070
     1
1040
-593.31643391417754
1040
65.572512761071138
1040
-592.80889481785744
1040
65.160632621516612
1070
     1
1040
-592.80889481785744
1040
65.160632621516612
1040
-587.3703606641933
1040
61.731187300898959
1070
     1
1040
-587.3703606641933
1040
61.731187300898959
1040
-584.35666956797616
1040
59.547642360599909
1070
     1
1040
-584.35666956797604
1040
59.547642360599909
1040
-581.6809416927116
1040
57.045735814450381
1070
     1
1040
-581.6809416927116
1040
57.045735814450381
1040
-579.32596399441616
1040
54.201820582557822
1070
     1
1040
-579.32596399441616
1040
54.201820582557822
1040
-577.34337560504093
1040
51.086837904600699
1070
     1
1040
-577.34337560504105
1040
51.086837904600699
1040
-575.78481565653624
1040
47.77172902025778
1070
     1
1040
-575.78481565653624
1040
47.77172902025778
1040
-574.63307110491849
1040
44.232846849635962
1070
     1
1040
-574.63307110491849
1040
44.232846849635962
1040
-569.18550125762442
1040
22.91966583137507
1070
     1
1040
-569.18550125762454
1040
22.91966583137507
1040
-567.02796880109838
1040
17.047959672819442
1070
     1
1040
-567.02796880109838
1040
17.047959672819442
1040
-563.72678055315146
1040
11.7343887769905
1070
     1
1040
-563.72678055315134
1040
11.7343887769905
1040
-559.41855540546919
1040
7.1988540135624826
1070
     1
1040
-559.41855540546919
1040
7.1988540135624826
1040
-555.52549960011288
1040
3.8580530795404311
1070
     1
1040
-555.52549960011288
1040
3.8580530795404311
1040
-553.90064184144535
1040
2.28464888005443
1070
     1
1040
-553.90064184144535
1040
2.28464888005443
1040
-552.52982372068175
1040
0.6216865975288073
1070
     1
1040
-552.52982372068175
1040
0.6216865975288073
1040
-551.64511135739758
1040
-0.6586844981113434
1070
     1
1040
-551.64511135739758
1040
-0.6586844981113434
1040
-551.56774958541041
1040
-0.9755715959007549
1070
     1
1040
-551.56774958541041
1040
-0.9755715959007549
1040
-551.57852967747237
1040
-1.3245048683582781
1070
     1
1040
-551.57852967747237
1040
-1.3245048683582781
1040
-552.04990586115423
1040
-4.3791909279641397
1070
     1
1040
-552.04990586115423
1040
-4.3791909279641397
1040
-552.10658691972662
1040
-5.604769016060926
1070
     1
1040
-552.10658691972662
1040
-5.604769016060926
1040
-551.90196631157926
1040
-6.8144734424169018
1070
     1
1040
-551.90196631157926
1040
-6.8144734424169018
1040
-551.44535991026112
1040
-7.9532293366712317
1070
     1
1040
-551.44535991026089
1040
-7.9532293366712317
1040
-549.80424477485462
1040
-11.043153242544969
1070
     1
1040
-549.80424477485462
1040
-11.043153242544969
1040
-549.470431500519
1040
-11.534783160455319
1070
     1
1040
-549.47043150051911
1040
-11.534783160455319
1040
-549.03879736164129
1040
-11.94322317864944
1070
     1
1040
-549.03879736164129
1040
-11.94322317864944
1040
-548.529497533788
1040
-12.249401172071201
1070
     1
1040
-548.529497533788
1040
-12.249401172071201
1040
-547.96631379537268
1040
-12.439020145519709
1070
     1
1040
-547.96631379537268
1040
-12.439020145519709
1040
-547.37554403644083
1040
-12.50322583248469
1070
     1
1040
-547.37554403644083
1040
-12.50322583248469
1040
-534.50889032600651
1040
-12.50322583248469
1071
        0
1071
        0
1071
       30
1070
     1
1040
-460.16802446316728
1040
53.30802505108845
1040
-460.05000000000052
1040
53.30802505108845
1070
     1
1040
-460.05000000000052
1040
53.30802505108845
1040
-460.05000000000052
1040
61.746774167515213
1070
     1
1040
-460.05000000000052
1040
61.746774167515213
1040
-460.12666689085017
1040
62.329117018996058
1070
     1
1040
-460.12666689085012
1040
62.329117018996058
1040
-460.35144284148572
1040
62.871774167515639
1070
     1
1040
-460.35144284148572
1040
62.871774167515639
1040
-460.70900974233098
1040
63.33776442518559
1070
     1
1040
-460.70900974233098
1040
63.33776442518559
1040
-461.17500000000098
1040
63.695331326030889
1070
     1
1040
-461.17500000000098
1040
63.695331326030889
1040
-461.71765714852052
1040
63.920107276666428
1070
     1
1040
-461.71765714852052
1040
63.920107276666428
1040
-462.30000000000149
1040
63.996774167516072
1070
     1
1040
-462.30000000000149
1040
63.996774167516072
1040
-462.88234285148252
1040
63.920107276666428
1070
     1
1040
-462.88234285148252
1040
63.920107276666428
1040
-463.425000000002
1040
63.695331326030889
1070
     1
1040
-463.42500000000189
1040
63.695331326030889
1040
-463.89099025767177
1040
63.33776442518559
1070
     1
1040
-463.89099025767177
1040
63.33776442518559
1040
-464.24855715851709
1040
62.871774167515639
1070
     1
1040
-464.24855715851709
1040
62.871774167515639
1040
-464.47333310915269
1040
62.329117018996058
1070
     1
1040
-464.47333310915269
1040
62.329117018996058
1040
-464.55000000000251
1040
61.746774167515213
1070
     1
1040
-464.55000000000251
1040
61.746774167515213
1040
-464.55000000000251
1040
56.746774167515142
1070
     1
1040
-464.55000000000251
1040
56.746774167515142
1040
-463.5500000000024
1040
56.746774167515142
1070
     1
1040
-463.5500000000024
1040
56.746774167515142
1040
-463.5074072828636
1040
62.07029797389356
1070
     1
1040
-463.5074072828636
1040
62.07029797389356
1040
-463.38253175473278
1040
62.371774167515611
1070
     1
1040
-463.38253175473278
1040
62.371774167515611
1040
-463.18388347648528
1040
62.630657643998859
1070
     1
1040
-463.18388347648528
1040
62.630657643998859
1040
-462.925000000002
1040
62.829305922246419
1070
     1
1040
-462.925000000002
1040
62.829305922246419
1040
-462.62352380637981
1040
62.954181450377348
1070
     1
1040
-462.62352380637981
1040
62.954181450377348
1040
-462.30000000000138
1040
62.996774167516008
1070
     1
1040
-462.30000000000149
1040
62.996774167516008
1040
-461.976476193623
1040
62.954181450377348
1070
     1
1040
-461.976476193623
1040
62.954181450377348
1040
-461.67500000000092
1040
62.829305922246419
1070
     1
1040
-461.67500000000098
1040
62.829305922246419
1040
-461.41611652351759
1040
62.630657643998859
1070
     1
1040
-461.41611652351759
1040
62.630657643998859
1040
-461.21746824527008
1040
62.371774167515611
1070
     1
1040
-461.21746824527008
1040
62.371774167515611
1040
-461.09259271713921
1040
62.07029797389356
1070
     1
1040
-461.09259271713921
1040
62.07029797389356
1040
-461.05000000000058
1040
61.746774167515213
1070
     1
1040
-461.05000000000058
1040
61.746774167515213
1040
-461.05000000000058
1040
53.30802505108845
1070
     1
1040
-461.05000000000058
1040
53.30802505108845
1040
-460.16802446316728
1040
53.30802505108845
1071
        0
1070
     0
1070
     1
1071
        1
1040
-460.0499999999999
1040
-12.50322583248469
1040
0.0
1002
}
  0
LINE
  5
393
  8
0
 10
-576.71130677723954
 20
76.000740090304603
 30
0.0
 11
-575.71130677723954
 21
76.000740090304603
 31
0.0
1001
REVIT
1002
{
1070
     3
1000
476644
1002
}
  0
LINE
  5
394
  8
0
 10
-575.71130677723954
 20
76.000740090304603
 30
0.0
 11
-575.71130677723954
 21
78.661464191428919
 31
0.0
1001
REVIT
1002
{
1070
     3
1000
476644
1002
}
  0
ARC
  5
395
  8
0
 10
-577.46130677723954
 20
78.661464191428919
 30
0.0
 40
1.75
 50
0.0
 51
90.0
1001
REVIT
1002
{
1070
     3
1000
476644
1002
}
  0
LINE
  5
396
  8
0
 10
-577.46130677723954
 20
80.411464191428905
 30
0.0
 11
-590.29033711720217
 21
80.411464191428905
 31
0.0
1001
REVIT
1002
{
1070
     3
1000
476644
1002
}
  0
ARC
  5
397
  8
0
 10
-590.29033711720217
 20
78.661464191425651
 30
0.0
 40
1.7500000000014491
 50
90.0
 51
169.5118037983689
1001
REVIT
1002
{
1070
     3
1000
476644
1002
}
  0
LINE
  5
398
  8
0
 10
-592.01109886966196
 20
78.980021864816536
 30
0.0
 11
-594.04612532181613
 21
67.987363465362719
 31
0.0
1001
REVIT
1002
{
1070
     3
1000
476644
1002
}
  0
ARC
  5
399
  8
0
 10
-591.3420711393801
 20
67.486772835748624
 30
0.0
 40
2.7500000000013221
 50
169.5118037983689
 51
237.7651800470787
1001
REVIT
1002
{
1070
     3
1000
476644
1002
}
  0
LINE
  5
39A
  8
0
 10
-592.80889481785675
 20
65.160632621516569
 30
0.0
 11
-587.3703606641925
 21
61.731187300898952
 31
0.0
1001
REVIT
1002
{
1070
     3
1000
476644
1002
}
  0
ARC
  5
39B
  8
0
 10
-602.97203069889179
 20
36.989514113169008
 30
0.0
 40
29.250000000001211
 50
14.337625853455391
 51
57.76518004708155
1001
REVIT
1002
{
1070
     3
1000
476644
1002
}
  0
LINE
  5
39C
  8
0
 10
-574.6330711049178
 20
44.232846849635969
 30
0.0
 11
-569.18550125762374
 21
22.91966583137506
 31
0.0
1001
REVIT
1002
{
1070
     3
1000
476644
1002
}
  0
ARC
  5
39D
  8
0
 10
-539.39326168447292
 20
30.53445152868613
 30
0.0
 40
30.749999999999812
 50
194.33762585345499
 51
229.3656677408556
1001
REVIT
1002
{
1070
     3
1000
476644
1002
}
  0
LINE
  5
39E
  8
0
 10
-559.41855540546851
 20
7.1988540135624826
 30
0.0
 11
-555.5254996001122
 21
3.8580530795404631
 31
0.0
1001
REVIT
1002
{
1070
     3
1000
476644
1002
}
  0
ARC
  5
39F
  8
0
 10
-568.06165908398646
 20
-10.750410405535909
 30
0.0
 40
19.249999999998529
 50
36.210836948253387
 51
49.365667740855763
1001
REVIT
1002
{
1070
     3
1000
476644
1002
}
  0
LINE
  5
3A0
  8
0
 10
-552.52982372068095
 20
0.6216865975288322
 30
0.0
 11
-551.80182537703888
 21
-0.3726023550857249
 31
0.0
1001
REVIT
1002
{
1070
     3
1000
476644
1002
}
  0
ARC
  5
3A1
  8
0
 10
-552.81038611491499
 20
-1.1110502124270469
 30
0.0
 40
1.2499999999989371
 50
351.2277387767702
 51
36.210836948254382
1001
REVIT
1002
{
1070
     3
1000
476644
1002
}
  0
LINE
  5
3A2
  8
0
 10
-551.57500820101563
 20
-1.301684442948962
 30
0.0
 11
-552.04990586115355
 21
-4.3791909279641219
 31
0.0
1001
REVIT
1002
{
1070
     3
1000
476644
1002
}
  0
ARC
  5
3A3
  8
0
 10
-546.36716745721242
 20
-5.2561083883653064
 30
0.0
 40
5.7499999999984253
 50
171.22773877677221
 51
207.97358915472449
1001
REVIT
1002
{
1070
     3
1000
476644
1002
}
  0
LINE
  5
3A4
  8
0
 10
-551.44535991026032
 20
-7.9532293366712317
 30
0.0
 11
-549.80424477485394
 21
-11.043153242544999
 31
0.0
1001
REVIT
1002
{
1070
     3
1000
476644
1002
}
  0
ARC
  5
3A5
  8
0
 10
-547.37554403644015
 20
-9.7532258324858567
 30
0.0
 40
2.74999999999884
 50
207.97358915472421
 51
270.0
1001
REVIT
1002
{
1070
     3
1000
476644
1002
}
  0
LINE
  5
3A6
  8
0
 10
-547.37554403644003
 20
-12.50322583248469
 30
0.0
 11
-462.79999999999961
 21
-12.50322583248469
 31
0.0
1001
REVIT
1002
{
1070
     3
1000
476644
1002
}
  0
ARC
  5
3A7
  8
0
 10
-462.79999999999939
 20
-9.7532258324851622
 30
0.0
 40
2.7499999999995191
 50
270.0
 51
0.0
1001
REVIT
1002
{
1070
     3
1000
476644
1002
}
  0
LINE
  5
3A8
  8
0
 10
-460.0499999999999
 20
-9.7532258324851622
 30
0.0
 11
-460.0499999999999
 21
52.308025051088279
 31
0.0
1001
REVIT
1002
{
1070
     3
1000
476644
1002
}
  0
LINE
  5
3A9
  8
0
 10
-460.0499999999999
 20
53.308025051088272
 30
0.0
 11
-460.0499999999999
 21
61.746774167515063
 31
0.0
1001
REVIT
1002
{
1070
     3
1000
476644
1002
}
  0
ARC
  5
3AA
  8
0
 10
-462.30000000000092
 20
61.746774167515042
 30
0.0
 40
2.2500000000009148
 50
0.0000000000002036
 51
179.99999999999949
1001
REVIT
1002
{
1070
     3
1000
476644
1002
}
  0
LINE
  5
3AB
  8
0
 10
-464.55000000000172
 20
61.746774167515063
 30
0.0
 11
-464.55000000000172
 21
56.746774167515042
 31
0.0
1001
REVIT
1002
{
1070
     3
1000
476644
1002
}
  0
LINE
  5
3AC
  8
0
 10
-464.55000000000172
 20
56.746774167515042
 30
0.0
 11
-463.55000000000177
 21
56.746774167515042
 31
0.0
1001
REVIT
1002
{
1070
     3
1000
476644
1002
}
  0
LINE
  5
3AD
  8
0
 10
-463.55000000000177
 20
56.746774167515042
 30
0.0
 11
-463.55000000000177
 21
61.746774167515063
 31
0.0
1001
REVIT
1002
{
1070
     3
1000
476644
1002
}
  0
ARC
  5
3AE
  8
0
 10
-462.30000000000092
 20
61.746774167515042
 30
0.0
 40
1.2500000000009139
 50
0.0000000000013231
 51
180.0
1001
REVIT
1002
{
1070
     3
1000
476644
1002
}
  0
LINE
  5
3AF
  8
0
 10
-461.05000000000001
 20
61.746774167515063
 30
0.0
 11
-461.05000000000001
 21
53.308025051088272
 31
0.0
1001
REVIT
1002
{
1070
     3
1000
476644
1002
}
  0
LINE
  5
3B0
  8
0
 10
-461.05000000000001
 20
52.308025051088279
 30
0.0
 11
-461.05000000000001
 21
-9.7532258324851622
 31
0.0
1001
REVIT
1002
{
1070
     3
1000
476644
1002
}
  0
ARC
  5
3B1
  8
0
 10
-462.79999999999939
 20
-9.7532258324851284
 30
0.0
 40
1.749999999999555
 50
270.0
 51
359.99999999999909
1001
REVIT
1002
{
1070
     3
1000
476644
1002
}
  0
LINE
  5
3B2
  8
0
 10
-462.79999999999961
 20
-11.5032258324847
 30
0.0
 11
-547.37554403644049
 21
-11.5032258324847
 31
0.0
1001
REVIT
1002
{
1070
     3
1000
476644
1002
}
  0
ARC
  5
3B3
  8
0
 10
-547.37554403644015
 20
-9.7532258324858727
 30
0.0
 40
1.7499999999988161
 50
207.97358915472421
 51
270.0
1001
REVIT
1002
{
1070
     3
1000
476644
1002
}
  0
LINE
  5
3B4
  8
0
 10
-548.92108086997575
 20
-10.57408872979601
 30
0.0
 11
-550.56219600538225
 21
-7.4841648239222769
 31
0.0
1001
REVIT
1002
{
1070
     3
1000
476644
1002
}
  0
ARC
  5
3B5
  8
0
 10
-546.3671674572123
 20
-5.2561083883652708
 30
0.0
 40
4.7499999999986988
 50
171.22773877677321
 51
207.97358915472401
1001
REVIT
1002
{
1070
     3
1000
476644
1002
}
  0
LINE
  5
3B6
  8
0
 10
-551.06160353003304
 20
-4.5316983123817574
 30
0.0
 11
-550.58670586989513
 21
-1.4541918273665959
 31
0.0
1001
REVIT
1002
{
1070
     3
1000
476644
1002
}
  0
ARC
  5
3B7
  8
0
 10
-552.81038611491499
 20
-1.1110502124270469
 30
0.0
 40
2.249999999998916
 50
351.22773877677059
 51
36.210836948253878
1001
REVIT
1002
{
1070
     3
1000
476644
1002
}
  0
LINE
  5
3B8
  8
0
 10
-550.9949767867372
 20
0.2181559307878178
 30
0.0
 11
-551.72297513037927
 21
1.212444883402348
 31
0.0
1001
REVIT
1002
{
1070
     3
1000
476644
1002
}
  0
ARC
  5
3B9
  8
0
 10
-568.06165908398691
 20
-10.75041040553632
 30
0.0
 40
20.24999999999908
 50
36.210836948253061
 51
49.365667740855507
1001
REVIT
1002
{
1070
     3
1000
476644
1002
}
  0
LINE
  5
3BA
  8
0
 10
-554.87427053601471
 20
4.6169342995444662
 30
0.0
 11
-558.76732634137113
 21
7.9577352335665363
 31
0.0
1001
REVIT
1002
{
1070
     3
1000
476644
1002
}
  0
ARC
  5
3BB
  8
0
 10
-539.39326168447292
 20
30.534451528686159
 30
0.0
 40
29.749999999999851
 50
194.33762585345539
 51
229.3656677408558
1001
REVIT
1002
{
1070
     3
1000
476644
1002
}
  0
LINE
  5
3BC
  8
0
 10
-568.21664793817172
 20
23.167301138604689
 30
0.0
 11
-573.66421778546567
 21
44.480482156865612
 31
0.0
1001
REVIT
1002
{
1070
     3
1000
476644
1002
}
  0
ARC
  5
3BD
  8
0
 10
-602.97203069889179
 20
36.989514113169008
 30
0.0
 40
30.250000000001151
 50
14.337625853454989
 51
57.765180047078687
1001
REVIT
1002
{
1070
     3
1000
476644
1002
}
  0
LINE
  5
3BE
  8
0
 10
-586.83697023565583
 20
62.577056469710229
 30
0.0
 11
-592.27550438931985
 21
66.006501790327818
 31
0.0
1001
REVIT
1002
{
1070
     3
1000
476644
1002
}
  0
ARC
  5
3BF
  8
0
 10
-591.3420711393801
 20
67.486772835748624
 30
0.0
 40
1.750000000001342
 50
169.5118037983697
 51
237.7651800470818
1001
REVIT
1002
{
1070
     3
1000
476644
1002
}
  0
LINE
  5
3C0
  8
0
 10
-593.06283289183978
 20
67.805330509139495
 30
0.0
 11
-591.02780643968583
 21
78.797988908593325
 31
0.0
1001
REVIT
1002
{
1070
     3
1000
476644
1002
}
  0
ARC
  5
3C1
  8
0
 10
-590.29033711720217
 20
78.661464191425608
 30
0.0
 40
0.7500000000014656
 50
90.000000000003254
 51
169.511803798366
1001
REVIT
1002
{
1070
     3
1000
476644
1002
}
  0
LINE
  5
3C2
  8
0
 10
-590.29033711720217
 20
79.411464191428905
 30
0.0
 11
-577.46130677723954
 21
79.411464191428905
 31
0.0
1001
REVIT
1002
{
1070
     3
1000
476644
1002
}
  0
ARC
  5
3C3
  8
0
 10
-577.46130677723954
 20
78.661464191428877
 30
0.0
 40
0.750000000000064
 50
0.000000000002748
 51
89.999999999996746
1001
REVIT
1002
{
1070
     3
1000
476644
1002
}
  0
LINE
  5
3C4
  8
0
 10
-576.71130677723954
 20
78.661464191428919
 30
0.0
 11
-576.71130677723954
 21
76.000740090304603
 31
0.0
1001
REVIT
1002
{
1070
     3
1000
476644
1002
}
  0
LINE
  5
3C5
  8
0
  6
DASH
 10
200.0453782280413
 20
321.35151266754798
 30
0.0
 11
-466.4790060060941
 21
78.756476393712546
 31
0.0
1001
REVIT
1002
{
1070
     3
1000
217411
1002
}
  0
ARC
  5
3C6
  8
0
 10
48.999999999999773
 20
-45.900000000000013
 30
0.0
 40
1.999999999999998
 50
0.0
 51
90.000000000000185
1001
REVIT
1002
{
1070
     3
1000
224526
1002
}
  0
ARC
  5
3C7
  8
0
 10
2.9999999999998082
 20
-45.899999999999942
 30
0.0
 40
2.0
 50
89.999999999999801
 51
180.0
1001
REVIT
1002
{
1070
     3
1000
224526
1002
}
  0
ARC
  5
3C8
  8
0
 10
2.9999999999998179
 20
-116.90000000000001
 30
0.0
 40
1.9999999999999949
 50
180.0
 51
269.99999999999977
1001
REVIT
1002
{
1070
     3
1000
224526
1002
}
  0
ARC
  5
3C9
  8
0
 10
48.999999999999837
 20
-116.90000000000001
 30
0.0
 40
1.999999999999996
 50
269.9999999999996
 51
0.0
1001
REVIT
1002
{
1070
     3
1000
224526
1002
}
  0
LINE
  5
3CA
  8
0
 10
48.999999999999773
 20
-43.899999999999942
 30
0.0
 11
2.9999999999998179
 21
-43.899999999999942
 31
0.0
1001
REVIT
1002
{
1070
     3
1000
224526
1002
}
  0
LINE
  5
3CB
  8
0
 10
0.9999999999998082
 20
-45.899999999999928
 30
0.0
 11
0.9999999999998082
 21
-116.90000000000001
 31
0.0
1001
REVIT
1002
{
1070
     3
1000
224526
1002
}
  0
LINE
  5
3CC
  8
0
 10
2.9999999999998042
 20
-118.90000000000001
 30
0.0
 11
48.999999999999837
 21
-118.90000000000001
 31
0.0
1001
REVIT
1002
{
1070
     3
1000
224526
1002
}
  0
LINE
  5
3CD
  8
0
 10
50.999999999999837
 20
-116.90000000000001
 30
0.0
 11
50.999999999999837
 21
-45.90000000000002
 31
0.0
1001
REVIT
1002
{
1070
     3
1000
224526
1002
}
  0
LINE
  5
3CE
  8
0
 10
2.9999999999996478
 20
-45.899999999999757
 30
0.0
 11
48.999999999999872
 21
-116.89999999999991
 31
0.0
  0
LINE
  5
3CF
  8
0
 10
48.999999999999872
 20
-45.899999999999757
 30
0.0
 11
2.9999999999998499
 21
-116.90000000000001
 31
0.0
  0
ARC
  5
3D0
  8
0
 10
-3.0000000000000169
 20
29.099999999999898
 30
0.0
 40
1.999999999999998
 50
0.0000000000001527
 51
90.000000000000185
1001
REVIT
1002
{
1070
     3
1000
224526
1002
}
  0
ARC
  5
3D1
  8
0
 10
-48.999999999999972
 20
29.09999999999998
 30
0.0
 40
2.0
 50
89.999999999999801
 51
179.9999999999998
1001
REVIT
1002
{
1070
     3
1000
224526
1002
}
  0
ARC
  5
3D2
  8
0
 10
-48.999999999999957
 20
-41.900000000000091
 30
0.0
 40
1.9999999999999949
 50
180.00000000000011
 51
269.99999999999977
1001
REVIT
1002
{
1070
     3
1000
224526
1002
}
  0
ARC
  5
3D3
  8
0
 10
-2.9999999999999432
 20
-41.900000000000098
 30
0.0
 40
1.999999999999996
 50
269.9999999999996
 51
0.0000000000000509
1001
REVIT
1002
{
1070
     3
1000
224526
1002
}
  0
LINE
  5
3D4
  8
0
 10
-3.0000000000000142
 20
31.09999999999998
 30
0.0
 11
-48.999999999999957
 21
31.09999999999998
 31
0.0
1001
REVIT
1002
{
1070
     3
1000
224526
1002
}
  0
LINE
  5
3D5
  8
0
 10
-50.999999999999972
 20
29.09999999999998
 30
0.0
 11
-50.999999999999972
 21
-41.900000000000077
 31
0.0
1001
REVIT
1002
{
1070
     3
1000
224526
1002
}
  0
LINE
  5
3D6
  8
0
 10
-48.999999999999979
 20
-43.900000000000098
 30
0.0
 11
-2.9999999999999392
 21
-43.900000000000098
 31
0.0
1001
REVIT
1002
{
1070
     3
1000
224526
1002
}
  0
LINE
  5
3D7
  8
0
 10
-0.9999999999999431
 20
-41.900000000000098
 30
0.0
 11
-0.9999999999999431
 21
29.099999999999891
 31
0.0
1001
REVIT
1002
{
1070
     3
1000
224526
1002
}
  0
LINE
  5
3D8
  8
0
 10
-49.000000000000128
 20
29.100000000000151
 30
0.0
 11
-2.9999999999999112
 21
-41.900000000000027
 31
0.0
  0
LINE
  5
3D9
  8
0
 10
-2.9999999999999178
 20
29.100000000000151
 30
0.0
 11
-48.999999999999929
 21
-41.900000000000098
 31
0.0
  0
LINE
  5
3DA
  8
0
  6
DASH
 10
-2.0000000000001008
 20
-43.899999999999999
 30
0.0
 11
-2.0000000000005498
 21
-272.6815408742865
 31
0.0
1001
REVIT
1002
{
1070
     3
1000
217411
1002
}
  0
INSERT
  5
3DB
  8
0
  6
CONTINUOUS
  2
*X47
 10
0.0
 20
0.0
 30
0.0
1001
ACAD
1000
HATCH
1002
{
1070
    19
1000
FP_1
1040
1.0
1040
0.0
1000
R14_HATCH_DATA
1000
3DB
1011
1.0
1021
0.0
1031
0.0
1021
0.0
1031
0.0
1011
0.0
1021
0.0
1031
0.0
1021
1.0
1031
0.0
1011
0.0
1021
0.0
1031
0.0
1021
0.0
1031
1.0
1040
0.0
1010
0.0
1020
0.0
1030
1.0
1000
FP_1
1070
     0
1070
     0
1071
        1
1071
        0
1071
        4
1070
     1
1040
-25.000000000000721
1040
-272.6815408742869
1040
-25.0000000000014
1040
-52.900000000000027
1070
     1
1040
-25.0000000000014
1040
-52.900000000000027
1040
-65.000000000001506
1040
-52.900000000000318
1070
     1
1040
-65.000000000001506
1040
-52.900000000000318
1040
-65.000000000000554
1040
-272.6815408742869
1070
     1
1040
-65.000000000000554
1040
-272.6815408742869
1040
-25.000000000000728
1040
-272.6815408742869
1071
        0
1070
     0
1070
     2
1040
0.0
1040
1.0
1070
     0
1070
     1
1040
0.0
1040
-0.0000000000000995
1040
0.0004591257134621
1040
0.0
1040
15.0
1070
     0
1071
        1
1040
-45.000000000000092
1040
-272.6815408742865
1040
0.0
1002
}
  0
LINE
  5
3DC
  8
0
 10
-25.000000000001261
 20
-52.900000000000091
 30
0.0
 11
-65.000000000001251
 21
-52.900000000000198
 31
0.0
1001
REVIT
1002
{
1070
     3
1000
224526
1002
}
  0
LINE
  5
3DD
  8
0
 10
-65.000000000001251
 20
-52.900000000000198
 30
0.0
 11
-65.000000000000526
 21
-272.68154087428672
 31
0.0
1001
REVIT
1002
{
1070
     3
1000
224526
1002
}
  0
LINE
  5
3DE
  8
0
 10
-25.000000000000529
 20
-272.68154087428661
 30
0.0
 11
-25.000000000001261
 21
-52.900000000000091
 31
0.0
1001
REVIT
1002
{
1070
     3
1000
224526
1002
}
  0
LINE
  5
3DF
  8
0
 10
-1.9999999999997149
 20
-44.899999999999679
 30
0.0
 11
-404.24999999999977
 21
-44.899999999999679
 31
0.0
1001
REVIT
1002
{
1070
     3
1000
211597
1002
}
  0
LINE
  5
3E0
  8
0
 10
-404.24999999999977
 20
-50.899999999999842
 30
0.0
 11
-1.9999999999997149
 21
-50.899999999999842
 31
0.0
1001
REVIT
1002
{
1070
     3
1000
211597
1002
}
  0
LINE
  5
3E1
  8
0
 10
-1.9999999999996581
 20
-44.900000000000126
 30
0.0
 11
-1.9999999999996581
 21
-50.900000000000141
 31
0.0
1001
REVIT
1002
{
1070
     3
1000
211597
1002
}
  0
LINE
  5
3E2
  8
0
 10
-404.24999999999977
 20
-44.899999999999729
 30
0.0
 11
-404.24999999999977
 21
-50.899999999999899
 31
0.0
1001
REVIT
1002
{
1070
     3
1000
211597
1002
}
  0
ARC
  5
3E3
  8
0
 10
-87.614288445974637
 20
290.68324507078393
 30
0.0
 40
1.9999999999999969
 50
20.000000000003428
 51
110.00000000000369
1001
REVIT
1002
{
1070
     3
1000
224526
1002
}
  0
ARC
  5
3E4
  8
0
 10
-130.8401490021254
 20
274.95031847780052
 30
0.0
 40
2.0
 50
110.00000000000369
 51
200.0000000000035
1001
REVIT
1002
{
1070
     3
1000
224526
1002
}
  0
ARC
  5
3E5
  8
0
 10
-118.5274238423992
 20
241.12138412950861
 30
0.0
 40
1.999999999999996
 50
200.0000000000035
 51
290.00000000000301
1001
REVIT
1002
{
1070
     3
1000
224526
1002
}
  0
ARC
  5
3E6
  8
0
 10
-75.301563286248381
 20
256.85431072249207
 30
0.0
 40
1.9999999999999989
 50
290.00000000000369
 51
20.000000000003428
1001
REVIT
1002
{
1070
     3
1000
224526
1002
}
  0
LINE
  5
3E7
  8
0
 10
-88.298328732626118
 20
292.56263031235568
 30
0.0
 11
-131.5241892887768
 21
276.82970371937228
 31
0.0
1001
REVIT
1002
{
1070
     3
1000
224526
1002
}
  0
LINE
  5
3E8
  8
0
 10
-132.71953424369721
 20
274.26627819114913
 30
0.0
 11
-131.2088857652937
 21
270.11580560800292
 31
0.0
1001
REVIT
1002
{
1070
     3
1000
224526
1002
}
  0
LINE
  5
3E9
  8
0
 10
-130.86058936726539
 20
269.15886911914311
 30
0.0
 11
-120.4068090839709
 21
240.4373438428571
 31
0.0
1001
REVIT
1002
{
1070
     3
1000
224526
1002
}
  0
LINE
  5
3EA
  8
0
 10
-117.84338355574771
 20
239.2419988879368
 30
0.0
 11
-74.617522999596929
 21
254.97492548092029
 31
0.0
1001
REVIT
1002
{
1070
     3
1000
224526
1002
}
  0
LINE
  5
3EB
  8
0
 10
-73.422178044676613
 20
257.53835100914353
 30
0.0
 11
-85.734903204402798
 21
291.36728535743538
 31
0.0
1001
REVIT
1002
{
1070
     3
1000
224526
1002
}
  0
LINE
  5
3EC
  8
0
 10
-130.8401490021256
 20
274.95031847780058
 30
0.0
 11
-121.0165905603658
 21
271.74953135916161
 31
0.0
  0
LINE
  5
3ED
  8
0
 10
-118.9332174991204
 20
271.0707107772626
 30
0.0
 11
-75.301563286248381
 21
256.85431072249207
 31
0.0
  0
LINE
  5
3EE
  8
0
 10
-87.614288445974637
 20
290.68324507078421
 30
0.0
 11
-118.5274238423991
 21
241.12138412950861
 31
0.0
  0
LINE
  5
3EF
  8
0
 10
199.90491168224281
 20
284.56486362353689
 30
0.0
 11
-404.25
 21
64.670458885474787
 31
0.0
1001
REVIT
1002
{
1070
     3
1000
206265
1002
}
  0
LINE
  5
3F0
  8
0
 10
-404.25000000000028
 20
-41.747318362116658
 30
0.0
 11
199.9049116822425
 21
178.14708637594549
 31
0.0
1001
REVIT
1002
{
1070
     3
1000
206265
1002
}
  0
LINE
  5
3F1
  8
0
 10
-50.999999999999552
 20
31.100000000000499
 30
0.0
 11
-204.10363773226101
 21
31.100000000000499
 31
0.0
1001
REVIT
1002
{
1070
     3
1000
206265
1002
}
  0
LINE
  5
3F2
  8
0
 10
-404.24999999999977
 20
-43.899999999999658
 30
0.0
 11
-50.999999999999552
 21
-43.899999999999658
 31
0.0
1001
REVIT
1002
{
1070
     3
1000
206265
1002
}
  0
ARC
  5
3F3
  8
0
 10
98.00000000000027
 20
138.71516235161761
 30
0.0
 40
1.9999999999999969
 50
0.0
 51
90.0
1001
REVIT
1002
{
1070
     3
1000
224526
1002
}
  0
ARC
  5
3F4
  8
0
 10
2.0000000000003411
 20
92.715162351617693
 30
0.0
 40
1.999999999999992
 50
180.0
 51
269.9999999999996
1001
REVIT
1002
{
1070
     3
1000
224526
1002
}
  0
ARC
  5
3F5
  8
0
 10
98.000000000000341
 20
92.715162351617664
 30
0.0
 40
2.0000000000000071
 50
269.9999999999996
 51
0.0
1001
REVIT
1002
{
1070
     3
1000
224526
1002
}
  0
LINE
  5
3F6
  8
0
 10
98.00000000000027
 20
140.71516235161769
 30
0.0
 11
97.061545658660833
 21
140.71516235161769
 31
0.0
1001
REVIT
1002
{
1070
     3
1000
224526
1002
}
  0
LINE
  5
3F7
  8
0
 10
0.000000000000334
 20
105.38764883999551
 30
0.0
 11
0.000000000000334
 21
92.715162351617693
 31
0.0
1001
REVIT
1002
{
1070
     3
1000
224526
1002
}
  0
LINE
  5
3F8
  8
0
 10
2.0000000000003331
 20
90.715162351617678
 30
0.0
 11
98.000000000000341
 21
90.715162351617678
 31
0.0
1001
REVIT
1002
{
1070
     3
1000
224526
1002
}
  0
LINE
  5
3F9
  8
0
 10
100.0000000000003
 20
92.715162351617664
 30
0.0
 11
100.0000000000003
 21
138.71516235161761
 31
0.0
1001
REVIT
1002
{
1070
     3
1000
224526
1002
}
  0
LINE
  5
3FA
  8
0
 10
40.664626120646922
 20
120.18836233547459
 30
0.0
 11
98.000000000000384
 21
92.715162351617764
 31
0.0
  0
LINE
  5
3FB
  8
0
 10
98.000000000000384
 20
138.71516235161789
 30
0.0
 11
2.0000000000003761
 21
92.715162351617693
 31
0.0
  0
LINE
  5
3FC
  8
0
 10
100.0000000000005
 20
-272.68154087428712
 30
0.0
 11
100.00000000000119
 21
90.715162351617806
 31
0.0
1001
REVIT
1002
{
1070
     3
1000
206265
1002
}
  0
LINE
  5
3FD
  8
0
 10
100.00000000000129
 20
140.71516235161781
 30
0.0
 11
100.00000000000129
 21
141.06894158504269
 31
0.0
1001
REVIT
1002
{
1070
     3
1000
206265
1002
}
  0
LINE
  5
3FE
  8
0
 10
0.0000000000011013
 20
90.715162351617778
 30
0.0
 11
0.0000000000003908
 21
-272.6815408742869
 31
0.0
1001
REVIT
1002
{
1070
     3
1000
206265
1002
}
  0
INSERT
  5
3FF
  8
0
  6
CONTINUOUS
  2
*U48
 10
0.0
 20
0.0
 30
0.0
1001
ACAD
1002
{
1000
R14_HATCH_DATA
1000
3FF
1011
1.0
1021
0.0
1031
0.0
1021
0.0
1031
0.0
1011
0.0
1021
0.0
1031
0.0
1021
1.0
1031
0.0
1011
0.0
1021
0.0
1031
0.0
1021
0.0
1031
1.0
1040
0.0
1010
0.0
1020
0.0
1030
1.0
1000
SOLID
1070
     1
1070
     0
1071
        2
1071
        0
1071
        5
1070
     1
1040
-139.40602668553109
1040
258.50677525930439
1040
-138.4197323113969
1040
258.67177043363318
1070
     1
1040
-138.4197323113969
1040
258.67177043363318
1040
-139.93088112337921
1040
267.70498960382872
1070
     1
1040
-139.93088112337921
1040
267.70498960382878
1040
-140.91829993138711
1040
267.54671597640862
1070
     1
1040
-140.91829993138711
1040
267.54671597640862
1040
-140.9027185985189
1040
267.45357518600599
1070
     1
1040
-140.90271859851879
1040
267.45357518600599
1040
-139.40602668553109
1040
258.50677525930428
1071
        0
1071
        0
1071
       13
1070
     1
1040
-141.08329893715191
1040
268.53303325377982
1040
-140.09588012914401
1040
268.69130688119992
1070
     1
1040
-140.09588012914401
1040
268.69130688119992
1040
-141.39706652796229
1040
276.46943027222778
1070
     1
1040
-141.39706652796229
1040
276.4694302722279
1040
-138.77971573625041
1040
283.67687340778872
1070
     1
1040
-138.77971573625041
1040
283.67687340778861
1040
-131.83324375981289
1040
290.00245685442837
1070
     1
1040
-131.83324375981289
1040
290.00245685442837
1040
40.302278724018059
1040
332.4468696451205
1070
     1
1040
40.302278724018109
1040
332.4468696451205
1040
183.55821923020321
1040
375.10694855443148
1070
     1
1040
183.55821923020321
1040
375.10694855443148
1040
183.6423656488173
1040
376.1754039981181
1070
     1
1040
183.6423656488173
1040
376.1754039981181
1040
40.039725303755262
1040
333.41208160423008
1070
     1
1040
40.039725303755262
1040
333.41208160423008
1040
-132.3189616782137
1040
290.91264190251752
1070
     1
1040
-132.3189616782137
1040
290.91264190251752
1040
-139.63543753141201
1040
284.25012621085199
1070
     1
1040
-139.63543753141201
1040
284.25012621085199
1040
-142.42673156546121
1040
276.56369262741907
1070
     1
1040
-142.42673156546121
1040
276.56369262741907
1040
-141.2958097125464
1040
269.80336241987209
1070
     1
1040
-141.2958097125464
1040
269.80336241987209
1040
-141.08329893715191
1040
268.53303325377982
1071
        0
1070
     0
1070
     1
1071
        1
1040
40.039725303773238
1040
333.41208160423417
1040
0.0
1002
}
  0
LINE
  5
400
  8
0
 10
183.64236564881739
 20
376.1754039981177
 30
0.0
 11
40.039725303758281
 21
333.41208160422968
 31
0.0
1001
REVIT
1002
{
1070
     3
1000
476644
1002
}
  0
LINE
  5
401
  8
0
 10
40.039725303755368
 20
333.4120816042298
 30
0.0
 11
-132.3189616782135
 21
290.91264190251718
 31
0.0
1001
REVIT
1002
{
1070
     3
1000
476644
1002
}
  0
LINE
  5
402
  8
0
 10
-132.3189616782135
 20
290.91264190251718
 30
0.0
 11
-139.6354375314117
 21
284.2501262108517
 31
0.0
1001
REVIT
1002
{
1070
     3
1000
476644
1002
}
  0
LINE
  5
403
  8
0
 10
-139.6354375314117
 20
284.2501262108517
 30
0.0
 11
-142.4267315654609
 21
276.5636926274189
 31
0.0
1001
REVIT
1002
{
1070
     3
1000
476644
1002
}
  0
LINE
  5
404
  8
0
 10
-142.4267315654609
 20
276.5636926274189
 30
0.0
 11
-141.0832989371516
 21
268.53303325377948
 31
0.0
1001
REVIT
1002
{
1070
     3
1000
476644
1002
}
  0
LINE
  5
405
  8
0
 10
-140.9182999313868
 20
267.54671597640828
 30
0.0
 11
-139.40602668553061
 21
258.50677525930399
 31
0.0
1001
REVIT
1002
{
1070
     3
1000
476644
1002
}
  0
LINE
  5
406
  8
0
 10
-139.40602668553061
 20
258.50677525930399
 30
0.0
 11
-138.4197323113967
 21
258.6717704336329
 31
0.0
1001
REVIT
1002
{
1070
     3
1000
476644
1002
}
  0
LINE
  5
407
  8
0
 10
-138.4197323113967
 20
258.6717704336329
 30
0.0
 11
-139.9308811233789
 21
267.70498960382838
 31
0.0
1001
REVIT
1002
{
1070
     3
1000
476644
1002
}
  0
LINE
  5
408
  8
0
 10
-140.09588012914369
 20
268.69130688119958
 30
0.0
 11
-141.39706652796201
 21
276.4694302722275
 31
0.0
1001
REVIT
1002
{
1070
     3
1000
476644
1002
}
  0
LINE
  5
409
  8
0
 10
-141.39706652796201
 20
276.46943027222761
 30
0.0
 11
-138.77971573625001
 21
283.67687340778832
 31
0.0
1001
REVIT
1002
{
1070
     3
1000
476644
1002
}
  0
LINE
  5
40A
  8
0
 10
-138.77971573625001
 20
283.67687340778832
 30
0.0
 11
-131.83324375981249
 21
290.00245685442798
 31
0.0
1001
REVIT
1002
{
1070
     3
1000
476644
1002
}
  0
LINE
  5
40B
  8
0
 10
-131.83324375981249
 20
290.00245685442798
 30
0.0
 11
40.302278724033712
 21
332.4468696451238
 31
0.0
1001
REVIT
1002
{
1070
     3
1000
476644
1002
}
  0
LINE
  5
40C
  8
0
 10
40.30227872401835
 20
332.4468696451201
 30
0.0
 11
183.55821923020341
 21
375.10694855443109
 31
0.0
1001
REVIT
1002
{
1070
     3
1000
476644
1002
}
  0
LINE
  5
40D
  8
0
 10
183.55821923020341
 20
375.10694855443109
 30
0.0
 11
183.64236564881739
 21
376.1754039981177
 31
0.0
1001
REVIT
1002
{
1070
     3
1000
476644
1002
}
  0
LINE
  5
40E
  8
0
 10
96.995167394100221
 20
357.82816035472069
 30
0.0
 11
183.77852654413039
 21
377.90431714986659
 31
0.0
1001
REVIT
1002
{
1070
     3
1000
211597
1002
}
  0
LINE
  5
40F
  8
0
 10
27.26884708757067
 20
333.37483677767239
 30
0.0
 11
96.9951673941016
 21
357.82816035472109
 31
0.0
1001
REVIT
1002
{
1070
     3
1000
211597
1002
}
  0
LINE
  5
410
  8
0
 10
-137.44862109672059
 20
295.2696775564167
 30
0.0
 11
27.268847087570361
 21
333.37483677767199
 31
0.0
1001
REVIT
1002
{
1070
     3
1000
211597
1002
}
  0
ARC
  5
411
  8
0
 10
-136.32170017443281
 20
290.39832771936841
 30
0.0
 40
4.9999999999999982
 50
103.0254706119922
 51
175.4969541356775
1001
REVIT
1002
{
1070
     3
1000
211597
1002
}
  0
LINE
  5
412
  8
0
 10
-142.4267315654609
 20
276.5636926274189
 30
0.0
 11
-141.30626598148601
 21
290.79088817987991
 31
0.0
1001
REVIT
1002
{
1070
     3
1000
211597
1002
}
  0
INSERT
  5
413
  8
0
  6
CONTINUOUS
  2
*U49
 10
0.0
 20
0.0
 30
0.0
1001
ACAD
1002
{
1000
R14_HATCH_DATA
1000
413
1011
1.0
1021
0.0
1031
0.0
1021
0.0
1031
0.0
1011
0.0
1021
0.0
1031
0.0
1021
1.0
1031
0.0
1011
0.0
1021
0.0
1031
0.0
1021
0.0
1031
1.0
1040
0.0
1010
0.0
1020
0.0
1030
1.0
1000
SOLID
1070
     1
1070
     0
1071
        2
1071
        0
1071
       18
1070
     1
1040
-484.62733953088792
1040
131.7364505636323
1040
-483.64285622840271
1040
131.91192884470419
1070
     1
1040
-483.64285622840271
1040
131.91192884470419
1040
-486.8093578707967
1040
149.67690793605601
1070
     1
1040
-486.80935787079682
1040
149.67690793605601
1040
-484.2688297514664
1040
156.91178724355731
1070
     1
1040
-484.26882975146628
1040
156.91178724355731
1040
-477.39004398121131
1040
163.31091102629281
1070
     1
1040
-477.39004398121131
1040
163.3109110262927
1040
-305.71579641913661
1040
207.5841422379811
1070
     1
1040
-305.71579641913661
1040
207.5841422379811
1040
-200.74386902388511
1040
240.0633326179028
1070
     1
1040
-200.74386902388511
1040
240.0633326179028
1040
-134.4200615936081
1040
255.87794141917379
1070
     1
1040
-134.4200615936081
1040
255.87794141917379
1040
-133.66005602412321
1040
258.80096657649727
1070
     1
1040
-133.66005602412309
1040
258.80096657649727
1040
-135.44311282355409
1040
268.42433519667571
1070
     1
1040
-135.44311282355409
1040
268.42433519667571
1040
-136.43079953380101
1040
268.26601862713318
1070
     1
1040
-136.43079953380101
1040
268.26601862713318
1040
-134.6838289837724
1040
258.8374117667754
1070
     1
1040
-134.6838289837724
1040
258.8374117667754
1040
-135.2366404512307
1040
256.71126704952968
1070
     1
1040
-135.2366404512307
1040
256.71126704952968
1040
-201.00791936783261
1040
241.02840614745
1070
     1
1040
-201.00791936783261
1040
241.02840614745
1040
-305.98860314559619
1040
208.54650646970339
1070
     1
1040
-305.98860314559619
1040
208.54650646970339
1040
-477.88541718754442
1040
164.21587738172701
1070
     1
1040
-477.88541718754431
1040
164.21587738172701
1040
-485.13060152833049
1040
157.4759042274668
1070
     1
1040
-485.13060152833049
1040
157.4759042274668
1040
-487.83996742810831
1040
149.7602111258613
1070
     1
1040
-487.83996742810831
1040
149.7602111258613
1040
-484.62733953088792
1040
131.7364505636323
1071
        0
1071
        0
1071
        9
1070
     1
1040
-136.61303644974649
1040
269.24957283522588
1040
-135.62534973949951
1040
269.40788940476841
1070
     1
1040
-135.6253497394996
1040
269.40788940476841
1040
-137.00061489109169
1040
276.83035822824161
1070
     1
1040
-137.00061489109169
1040
276.83035822824161
1040
-134.74236706916591
1040
278.98751734570499
1070
     1
1040
-134.74236706916591
1040
278.98751734570499
1040
-110.9641115208327
1040
285.39772864351511
1070
     1
1040
-110.9641115208328
1040
285.39772864351511
1040
-111.22440200233881
1040
286.36325899789932
1070
     1
1040
-111.22440200233881
1040
286.36325899789932
1040
-135.24877864803901
1040
279.8866976587347
1070
     1
1040
-135.24877864803901
1040
279.8866976587347
1040
-138.0824030388207
1040
277.17991825627371
1070
     1
1040
-138.0824030388207
1040
277.17991825627371
1040
-137.2843126080476
1040
272.8725297255109
1070
     1
1040
-137.2843126080476
1040
272.87252972551079
1040
-136.6130364497466
1040
269.24957283522588
1071
        0
1070
     0
1070
     1
1071
        1
1040
-305.98860314557788
1040
208.54650646970779
1040
0.0
1002
}
  0
LINE
  5
414
  8
0
 10
-138.08240303882019
 20
277.17991825627331
 30
0.0
 11
-136.6130364497462
 21
269.24957283522548
 31
0.0
1001
REVIT
1002
{
1070
     3
1000
476644
1002
}
  0
LINE
  5
415
  8
0
 10
-136.43079953380061
 20
268.26601862713289
 30
0.0
 11
-134.683828983772
 21
258.83741176677501
 31
0.0
1001
REVIT
1002
{
1070
     3
1000
476644
1002
}
  0
LINE
  5
416
  8
0
 10
-134.683828983772
 20
258.83741176677512
 30
0.0
 11
-135.23664045123039
 21
256.71126704952928
 31
0.0
1001
REVIT
1002
{
1070
     3
1000
476644
1002
}
  0
LINE
  5
417
  8
0
 10
-135.2366404512303
 20
256.71126704952928
 30
0.0
 11
-201.0079193678306
 21
241.0284061474502
 31
0.0
1001
REVIT
1002
{
1070
     3
1000
476644
1002
}
  0
LINE
  5
418
  8
0
 10
-201.0079193678321
 20
241.0284061474496
 30
0.0
 11
-305.98860314559278
 21
208.5465064697031
 31
0.0
1001
REVIT
1002
{
1070
     3
1000
476644
1002
}
  0
LINE
  5
419
  8
0
 10
-305.98860314559568
 20
208.54650646970319
 30
0.0
 11
-477.88541718754391
 21
164.21587738172681
 31
0.0
1001
REVIT
1002
{
1070
     3
1000
476644
1002
}
  0
LINE
  5
41A
  8
0
 10
-477.88541718754391
 20
164.21587738172681
 30
0.0
 11
-485.13060152832992
 21
157.47590422746649
 31
0.0
1001
REVIT
1002
{
1070
     3
1000
476644
1002
}
  0
LINE
  5
41B
  8
0
 10
-485.13060152832992
 20
157.47590422746649
 30
0.0
 11
-487.8399674281078
 21
149.76021112586099
 31
0.0
1001
REVIT
1002
{
1070
     3
1000
476644
1002
}
  0
LINE
  5
41C
  8
0
 10
-487.8399674281078
 20
149.76021112586099
 30
0.0
 11
-484.6273395308873
 21
131.73645056363199
 31
0.0
1001
REVIT
1002
{
1070
     3
1000
476644
1002
}
  0
LINE
  5
41D
  8
0
 10
-484.6273395308873
 20
131.73645056363199
 30
0.0
 11
-483.6428562284022
 21
131.91192884470391
 31
0.0
1001
REVIT
1002
{
1070
     3
1000
476644
1002
}
  0
LINE
  5
41E
  8
0
 10
-483.6428562284022
 20
131.91192884470391
 30
0.0
 11
-486.80935787079619
 21
149.67690793605561
 31
0.0
1001
REVIT
1002
{
1070
     3
1000
476644
1002
}
  0
LINE
  5
41F
  8
0
 10
-486.80935787079619
 20
149.6769079360557
 30
0.0
 11
-484.26882975146572
 21
156.91178724355709
 31
0.0
1001
REVIT
1002
{
1070
     3
1000
476644
1002
}
  0
LINE
  5
420
  8
0
 10
-484.26882975146572
 20
156.911787243557
 30
0.0
 11
-477.39004398121062
 21
163.3109110262925
 31
0.0
1001
REVIT
1002
{
1070
     3
1000
476644
1002
}
  0
LINE
  5
421
  8
0
 10
-477.39004398121068
 20
163.3109110262925
 30
0.0
 11
-305.7157964191195
 21
207.58414223798499
 31
0.0
1001
REVIT
1002
{
1070
     3
1000
476644
1002
}
  0
LINE
  5
422
  8
0
 10
-305.71579641913621
 20
207.5841422379807
 30
0.0
 11
-200.74386902388281
 21
240.06333261790309
 31
0.0
1001
REVIT
1002
{
1070
     3
1000
476644
1002
}
  0
LINE
  5
423
  8
0
 10
-200.74386902388471
 20
240.06333261790249
 30
0.0
 11
-134.4200615936077
 21
255.87794141917351
 31
0.0
1001
REVIT
1002
{
1070
     3
1000
476644
1002
}
  0
LINE
  5
424
  8
0
 10
-134.4200615936077
 20
255.87794141917351
 30
0.0
 11
-133.66005602412281
 21
258.80096657649688
 31
0.0
1001
REVIT
1002
{
1070
     3
1000
476644
1002
}
  0
LINE
  5
425
  8
0
 10
-133.66005602412281
 20
258.80096657649688
 30
0.0
 11
-135.44311282355361
 21
268.42433519667532
 31
0.0
1001
REVIT
1002
{
1070
     3
1000
476644
1002
}
  0
LINE
  5
426
  8
0
 10
-135.6253497394992
 20
269.40788940476801
 30
0.0
 11
-137.0006148910914
 21
276.83035822824132
 31
0.0
1001
REVIT
1002
{
1070
     3
1000
476644
1002
}
  0
LINE
  5
427
  8
0
 10
-137.0006148910914
 20
276.83035822824132
 30
0.0
 11
-134.74236706916571
 21
278.98751734570459
 31
0.0
1001
REVIT
1002
{
1070
     3
1000
476644
1002
}
  0
LINE
  5
428
  8
0
 10
-134.74236706916571
 20
278.98751734570459
 30
0.0
 11
-110.9641115208324
 21
285.39772864351482
 31
0.0
1001
REVIT
1002
{
1070
     3
1000
476644
1002
}
  0
LINE
  5
429
  8
0
 10
-110.9641115208324
 20
285.39772864351482
 30
0.0
 11
-111.22440200233849
 21
286.36325899789898
 31
0.0
1001
REVIT
1002
{
1070
     3
1000
476644
1002
}
  0
LINE
  5
42A
  8
0
 10
-111.22440200233849
 20
286.36325899789898
 30
0.0
 11
-135.24877864803861
 21
279.88669765873431
 31
0.0
1001
REVIT
1002
{
1070
     3
1000
476644
1002
}
  0
LINE
  5
42B
  8
0
 10
-135.24877864803861
 20
279.88669765873431
 30
0.0
 11
-138.08240303882019
 21
277.17991825627331
 31
0.0
1001
REVIT
1002
{
1070
     3
1000
476644
1002
}
  0
LINE
  5
42C
  8
0
 10
-249.2961283192972
 20
233.56710964641169
 30
0.0
 11
-139.60636057861791
 21
259.70431447524732
 31
0.0
1001
REVIT
1002
{
1070
     3
1000
211597
1002
}
  0
LINE
  5
42D
  8
0
 10
-138.63133100421629
 20
259.93664742867787
 30
0.0
 11
-136.87715005877001
 21
260.35463889335449
 31
0.0
1001
REVIT
1002
{
1070
     3
1000
211597
1002
}
  0
LINE
  5
42E
  8
0
 10
-136.8771500587701
 20
260.35463889335449
 30
0.0
 11
-135.79280372978889
 21
262.02251470498908
 31
0.0
1001
REVIT
1002
{
1070
     3
1000
211597
1002
}
  0
LINE
  5
42F
  8
0
 10
-318.75836246679359
 20
208.3734039902171
 30
0.0
 11
-249.2961283192966
 21
233.56710964641181
 31
0.0
1001
REVIT
1002
{
1070
     3
1000
211597
1002
}
  0
LINE
  5
430
  8
0
 10
-483.06113755286918
 20
168.51809589537589
 30
0.0
 11
-318.75836246679398
 21
208.37340399021679
 31
0.0
1001
REVIT
1002
{
1070
     3
1000
211597
1002
}
  0
ARC
  5
431
  8
0
 10
-481.88245777631943
 20
163.6590101805163
 30
0.0
 40
4.9999999999999982
 50
103.6350087804345
 51
176.1064923041202
1001
REVIT
1002
{
1070
     3
1000
211597
1002
}
  0
LINE
  5
432
  8
0
 10
-487.8399674281078
 20
149.76021112586099
 30
0.0
 11
-486.87091767324409
 21
163.99852138324181
 31
0.0
1001
REVIT
1002
{
1070
     3
1000
211597
1002
}
  0
VIEWPORT
  5
30F
 67
     1
  8
0
 10
143.41473388671869
 20
99.790247440338135
 30
0.0
 40
334.673629294997
 41
222.15178063964851
 68
     1
 69
     1
1001
ACAD
1000
MVIEW
1002
{
1070
    16
1010
0.0
1020
0.0
1030
0.0
1010
0.0
1020
0.0
1030
1.0
1040
0.0
1040
222.15178063964851
1040
143.41473388671869
1040
99.790247440338135
1040
50.0
1040
0.0
1040
0.0
1070
     0
1070
   100
1070
     1
1070
     1
1070
     0
1070
     0
1070
     0
1070
     0
1040
0.0
1040
0.0
1040
0.0
1040
10.0
1040
10.0
1040
10.0
1040
10.0
1070
     0
1002
{
1002
}
1002
}
  0
VIEWPORT
  5
313
 67
     1
  8
0
 10
143.3724060058594
 20
99.832585573196425
 30
0.0
 40
229.39584960937501
 41
159.73213691711419
 68
     2
 69
     2
1001
ACAD
1000
MVIEW
1002
{
1070
    16
1010
0.0
1020
0.0
1030
0.0
1010
0.0
1020
0.0
1030
1.0
1040
0.0
1040
757.19260452564538
1040
-248.31871522829439
1040
91.895413774098856
1040
50.0
1040
0.0
1040
0.0
1070
     0
1070
  1000
1070
     1
1070
     1
1070
     0
1070
     0
1070
     0
1070
     0
1040
0.0
1040
0.0
1040
0.0
1040
1.0
1040
1.0
1040
0.0
1040
0.0
1070
     0
1002
{
1002
}
1002
}
  0
ENDSEC
  0
EOF
