  0
SECTION
  2
HEADER
  9
$ACADVER
  1
AC1009
  9
$INSBASE
 10
0.0
 20
0.0
 30
0.0
  9
$EXTMIN
 10
-599.5571993910321
 20
-248.6238997485697
 30
0.0
  9
$EXTMAX
 10
601.65719489036121
 20
196.55177027528799
 30
0.0
  9
$LIMMIN
 10
0.0
 20
0.0
  9
$LIMMAX
 10
12.0
 20
9.0
  9
$ORTHOMODE
 70
     0
  9
$REGENMODE
 70
     1
  9
$FILLMODE
 70
     1
  9
$QTEXTMODE
 70
     0
  9
$MIRRTEXT
 70
     0
  9
$DRAGMODE
 70
     2
  9
$LTSCALE
 40
1.0
  9
$OSMODE
 70
     0
  9
$ATTMODE
 70
     1
  9
$TEXTSIZE
 40
0.2
  9
$TRACEWID
 40
0.05
  9
$TEXTSTYLE
  7
STANDARD
  9
$CLAYER
  8
0
  9
$CELTYPE
  6
CONTINUOUS
  9
$CECOLOR
 62
   256
  9
$DIMSCALE
 40
1.0
  9
$DIMASZ
 40
0.18
  9
$DIMEXO
 40
0.0625
  9
$DIMDLI
 40
0.38
  9
$DIMRND
 40
0.0
  9
$DIMDLE
 40
0.0
  9
$DIMEXE
 40
0.18
  9
$DIMTP
 40
0.0
  9
$DIMTM
 40
0.0
  9
$DIMTXT
 40
0.18
  9
$DIMCEN
 40
0.09
  9
$DIMTSZ
 40
0.0
  9
$DIMTOL
 70
     0
  9
$DIMLIM
 70
     0
  9
$DIMTIH
 70
     1
  9
$DIMTOH
 70
     1
  9
$DIMSE1
 70
     0
  9
$DIMSE2
 70
     0
  9
$DIMTAD
 70
     0
  9
$DIMZIN
 70
     0
  9
$DIMBLK
  1

  9
$DIMASO
 70
     1
  9
$DIMSHO
 70
     1
  9
$DIMPOST
  1

  9
$DIMAPOST
  1

  9
$DIMALT
 70
     0
  9
$DIMALTD
 70
     2
  9
$DIMALTF
 40
25.399999999999999
  9
$DIMLFAC
 40
1.0
  9
$DIMTOFL
 70
     0
  9
$DIMTVP
 40
0.0
  9
$DIMTIX
 70
     0
  9
$DIMSOXD
 70
     0
  9
$DIMSAH
 70
     0
  9
$DIMBLK1
  1

  9
$DIMBLK2
  1

  9
$DIMSTYLE
  2
STANDARD
  9
$DIMCLRD
 70
     0
  9
$DIMCLRE
 70
     0
  9
$DIMCLRT
 70
     0
  9
$DIMTFAC
 40
1.0
  9
$DIMGAP
 40
0.09
  9
$LUNITS
 70
     2
  9
$LUPREC
 70
     4
  9
$SKETCHINC
 40
0.1
  9
$FILLETRAD
 40
0.0
  9
$AUNITS
 70
     0
  9
$AUPREC
 70
     0
  9
$MENU
  1
.
  9
$ELEVATION
 40
0.0
  9
$PELEVATION
 40
0.0
  9
$THICKNESS
 40
0.0
  9
$LIMCHECK
 70
     0
  9
$BLIPMODE
 70
     0
  9
$CHAMFERA
 40
0.0
  9
$CHAMFERB
 40
0.0
  9
$SKPOLY
 70
     0
  9
$TDCREATE
 40
2458069.9977262961
  9
$TDUPDATE
 40
2458070.0789454752
  9
$TDINDWG
 40
0.0006365394
  9
$TDUSRTIMER
 40
0.0006365394
  9
$USRTIMER
 70
     1
  9
$ANGBASE
 50
0.0
  9
$ANGDIR
 70
     0
  9
$PDMODE
 70
     0
  9
$PDSIZE
 40
0.0
  9
$PLINEWID
 40
0.0
  9
$COORDS
 70
     2
  9
$SPLFRAME
 70
     0
  9
$SPLINETYPE
 70
     6
  9
$SPLINESEGS
 70
     8
  9
$ATTDIA
 70
     1
  9
$ATTREQ
 70
     0
  9
$HANDLING
 70
     1
  9
$HANDSEED
  5
51B
  9
$SURFTAB1
 70
     6
  9
$SURFTAB2
 70
     6
  9
$SURFTYPE
 70
     6
  9
$SURFU
 70
     6
  9
$SURFV
 70
     6
  9
$UCSNAME
  2

  9
$UCSORG
 10
0.0
 20
0.0
 30
0.0
  9
$UCSXDIR
 10
1.0
 20
0.0
 30
0.0
  9
$UCSYDIR
 10
0.0
 20
1.0
 30
0.0
  9
$PUCSNAME
  2

  9
$PUCSORG
 10
0.0
 20
0.0
 30
0.0
  9
$PUCSXDIR
 10
1.0
 20
0.0
 30
0.0
  9
$PUCSYDIR
 10
0.0
 20
1.0
 30
0.0
  9
$USERI1
 70
     0
  9
$USERI2
 70
     0
  9
$USERI3
 70
     0
  9
$USERI4
 70
     0
  9
$USERI5
 70
     0
  9
$USERR1
 40
0.0
  9
$USERR2
 40
0.0
  9
$USERR3
 40
0.0
  9
$USERR4
 40
0.0
  9
$USERR5
 40
0.0
  9
$WORLDVIEW
 70
     1
  9
$SHADEDGE
 70
     3
  9
$SHADEDIF
 70
    70
  9
$TILEMODE
 70
     1
  9
$MAXACTVP
 70
    64
  9
$PLIMCHECK
 70
     0
  9
$PEXTMIN
 10
0.0
 20
0.0
 30
0.0
  9
$PEXTMAX
 10
0.0
 20
0.0
 30
0.0
  9
$PLIMMIN
 10
0.0
 20
0.0
  9
$PLIMMAX
 10
12.0
 20
9.0
  9
$UNITMODE
 70
     0
  9
$VISRETAIN
 70
     1
  9
$PLINEGEN
 70
     0
  9
$PSLTSCALE
 70
     1
  0
ENDSEC
  0
SECTION
  2
TABLES
  0
TABLE
  2
VPORT
 70
     1
  0
VPORT
  2
*ACTIVE
 70
     0
 10
0.0
 20
0.0
 11
1.0
 21
1.0
 12
285.02080890862442
 22
-26.03375754582709
 13
0.0
 23
0.0
 14
1.0
 24
1.0
 15
0.0
 25
0.0
 16
0.0
 26
0.0
 36
1.0
 17
0.0
 27
0.0
 37
0.0
 40
675.8272104578399
 41
2.6232876712328759
 42
50.0
 43
0.0
 44
0.0
 50
0.0
 51
0.0
 71
     0
 72
  1000
 73
     1
 74
     3
 75
     0
 76
     0
 77
     0
 78
     0
  0
ENDTAB
  0
TABLE
  2
LTYPE
 70
     2
  0
LTYPE
  2
CONTINUOUS
 70
     0
  3
Solid line
 72
    65
 73
     0
 40
0.0
  0
LTYPE
  2
DASH
 70
     0
  3

 72
    65
 73
     2
 40
6.3499999999999988
 49
3.1749999999999989
 49
-3.1749999999999989
  0
ENDTAB
  0
TABLE
  2
LAYER
 70
     7
  0
LAYER
  2
0
 70
     0
 62
     7
  6
CONTINUOUS
  0
ENDTAB
  0
TABLE
  2
STYLE
 70
     2
  0
STYLE
  2
STANDARD
 70
     0
 40
0.0
 41
1.0
 50
0.0
 71
     0
 42
0.2
  3
txt
  4

  0
STYLE
  2
ARIAL
 70
     0
 40
9.8353293413173617
 41
1.0
 50
0.0
 71
     0
 42
0.2
  3
txt
  4

  0
ENDTAB
  0
TABLE
  2
VIEW
 70
     0
  0
ENDTAB
  0
TABLE
  2
UCS
 70
     0
  0
ENDTAB
  0
TABLE
  2
APPID
 70
     6
  0
APPID
  2
ACAD
 70
     0
  0
APPID
  2
ACADANNOTATIVE
 70
     0
  0
APPID
  2
REVIT
 70
     0
  0
APPID
  2
ACAD_PSEXT
 70
     0
  0
APPID
  2
ACAD_MLEADERVER
 70
     0
  0
APPID
  2
ACAD_NAV_VCDISPLAY
 70
     0
  0
ENDTAB
  0
TABLE
  2
DIMSTYLE
 70
     1
  0
DIMSTYLE
  2
STANDARD
 70
     0
  3

  4

  5

  6

  7

 40
1.0
 41
0.18
 42
0.0625
 43
0.38
 44
0.18
 45
0.0
 46
0.0
 47
0.0
 48
0.0
140
0.18
141
0.09
142
0.0
143
25.399999999999999
144
1.0
145
0.0
146
1.0
147
0.09
 71
     0
 72
     0
 73
     1
 74
     1
 75
     0
 76
     0
 77
     0
 78
     0
170
     0
171
     2
172
     0
173
     0
174
     0
175
     0
176
     0
177
     0
178
     0
  0
ENDTAB
  0
ENDSEC
  0
SECTION
  2
BLOCKS
  0
BLOCK
  8
0
  2
$MODEL_SPACE
 70
     0
 10
0.0
 20
0.0
 30
0.0
  3
$MODEL_SPACE
  1

  0
ENDBLK
  5
72
  8
0
  0
BLOCK
 67
     1
  8
0
  2
$PAPER_SPACE
 70
     0
 10
0.0
 20
0.0
 30
0.0
  3
$PAPER_SPACE
  1

  0
ENDBLK
  5
369
 67
     1
  8
0
  0
BLOCK
  8
0
  2
*U16
 70
     1
 10
0.0
 20
0.0
 30
0.0
  3
*U16
  1

  0
SOLID
  5
47E
  8
0
  6
CONTINUOUS
 10
62.970946004005391
 20
5.723423584889912
 30
0.0
 11
62.205579139275208
 21
5.5711826499124859
 31
0.0
 12
63.736312868735567
 22
5.5711826499124859
 32
0.0
 13
63.736312868735567
 23
5.5711826499124859
 33
0.0
210
0.0
220
0.0
230
1.0
  0
SOLID
  5
47F
  8
0
  6
CONTINUOUS
 10
62.205579139275208
 20
5.5711826499124859
 30
0.0
 11
61.556732441632299
 21
5.1376371472630078
 31
0.0
 12
64.385159566378491
 22
5.1376371472630078
 32
0.0
 13
64.385159566378491
 23
5.1376371472630078
 33
0.0
210
0.0
220
0.0
230
1.0
  0
SOLID
  5
480
  8
0
  6
CONTINUOUS
 10
-62.205579139275208
 20
5.5711826499124859
 30
0.0
 11
-63.736312868735567
 21
5.5711826499124859
 31
0.0
 12
-64.385159566378491
 22
5.1376371472630078
 32
0.0
 13
-64.385159566378491
 23
5.1376371472630078
 33
0.0
210
0.0
220
0.0
230
-1.0
  0
SOLID
  5
481
  8
0
  6
CONTINUOUS
 10
61.556732441632299
 20
5.1376371472630078
 30
0.0
 11
61.123186938982819
 21
4.488790449620093
 31
0.0
 12
64.818705069027956
 22
4.488790449620093
 32
0.0
 13
64.818705069027956
 23
4.488790449620093
 33
0.0
210
0.0
220
0.0
230
1.0
  0
SOLID
  5
482
  8
0
  6
CONTINUOUS
 10
-61.556732441632299
 20
5.1376371472630078
 30
0.0
 11
-64.385159566378491
 21
5.1376371472630078
 31
0.0
 12
-64.818705069027956
 22
4.488790449620093
 32
0.0
 13
-64.818705069027956
 23
4.488790449620093
 33
0.0
210
0.0
220
0.0
230
-1.0
  0
SOLID
  5
483
  8
0
  6
CONTINUOUS
 10
61.123186938982819
 20
4.488790449620093
 30
0.0
 11
60.970946004005391
 21
3.7234235848899142
 31
0.0
 12
64.970946004005384
 22
3.7234235848899142
 32
0.0
 13
64.970946004005384
 23
3.7234235848899142
 33
0.0
210
0.0
220
0.0
230
1.0
  0
SOLID
  5
484
  8
0
  6
CONTINUOUS
 10
-61.123186938982819
 20
4.488790449620093
 30
0.0
 11
-64.818705069027956
 21
4.488790449620093
 31
0.0
 12
-64.970946004005384
 22
3.7234235848899142
 32
0.0
 13
-64.970946004005384
 23
3.7234235848899142
 33
0.0
210
0.0
220
0.0
230
-1.0
  0
SOLID
  5
485
  8
0
  6
CONTINUOUS
 10
60.970946004005391
 20
3.7234235848899142
 30
0.0
 11
61.123186938982819
 21
2.958056720159735
 31
0.0
 12
64.81870506902797
 22
2.958056720159735
 32
0.0
 13
64.81870506902797
 23
2.958056720159735
 33
0.0
  0
SOLID
  5
486
  8
0
  6
CONTINUOUS
 10
-60.970946004005391
 20
3.7234235848899142
 30
0.0
 11
-64.970946004005384
 21
3.7234235848899142
 31
0.0
 12
-64.81870506902797
 22
2.958056720159735
 32
0.0
 13
-64.81870506902797
 23
2.958056720159735
 33
0.0
210
0.0
220
0.0
230
-1.0
  0
SOLID
  5
487
  8
0
  6
CONTINUOUS
 10
61.123186938982819
 20
2.958056720159735
 30
0.0
 11
61.556732441632299
 21
2.3092100225168202
 31
0.0
 12
64.385159566378491
 22
2.3092100225168202
 32
0.0
 13
64.385159566378491
 23
2.3092100225168202
 33
0.0
210
0.0
220
0.0
230
1.0
  0
SOLID
  5
488
  8
0
  6
CONTINUOUS
 10
-61.123186938982819
 20
2.958056720159735
 30
0.0
 11
-64.81870506902797
 21
2.958056720159735
 31
0.0
 12
-64.385159566378491
 22
2.3092100225168202
 32
0.0
 13
-64.385159566378491
 23
2.3092100225168202
 33
0.0
210
0.0
220
0.0
230
-1.0
  0
SOLID
  5
489
  8
0
  6
CONTINUOUS
 10
-62.205579139275208
 20
1.8756645198673421
 30
0.0
 11
-63.736312868735567
 21
1.8756645198673421
 31
0.0
 12
-62.970946004005391
 22
1.723423584889916
 32
0.0
 13
-62.970946004005391
 23
1.723423584889916
 33
0.0
210
0.0
220
0.0
230
-1.0
  0
SOLID
  5
48A
  8
0
  6
CONTINUOUS
 10
61.556732441632299
 20
2.3092100225168202
 30
0.0
 11
62.205579139275208
 21
1.8756645198673421
 31
0.0
 12
63.736312868735567
 22
1.8756645198673421
 32
0.0
 13
63.736312868735567
 23
1.8756645198673421
 33
0.0
210
0.0
220
0.0
230
1.0
  0
SOLID
  5
48B
  8
0
  6
CONTINUOUS
 10
-61.556732441632299
 20
2.3092100225168202
 30
0.0
 11
-64.385159566378491
 21
2.3092100225168202
 31
0.0
 12
-63.736312868735567
 22
1.8756645198673421
 32
0.0
 13
-63.736312868735567
 23
1.8756645198673421
 33
0.0
210
0.0
220
0.0
230
-1.0
  0
LINE
  5
48C
  8
0
  6
CONTINUOUS
 10
62.970946004005391
 20
5.723423584889912
 30
0.0
 11
62.205579139275208
 21
5.5711826499124859
 31
0.0
  0
LINE
  5
48D
  8
0
  6
CONTINUOUS
 10
63.736312868735567
 20
5.5711826499124859
 30
0.0
 11
62.970946004005391
 21
5.723423584889912
 31
0.0
  0
LINE
  5
48E
  8
0
  6
CONTINUOUS
 10
62.205579139275208
 20
5.5711826499124859
 30
0.0
 11
61.556732441632299
 21
5.1376371472630078
 31
0.0
  0
LINE
  5
48F
  8
0
  6
CONTINUOUS
 10
63.736312868735567
 20
5.5711826499124859
 30
0.0
 11
64.385159566378491
 21
5.1376371472630078
 31
0.0
  0
LINE
  5
490
  8
0
  6
CONTINUOUS
 10
61.556732441632299
 20
5.1376371472630078
 30
0.0
 11
61.123186938982819
 21
4.488790449620093
 31
0.0
  0
LINE
  5
491
  8
0
  6
CONTINUOUS
 10
64.385159566378491
 20
5.1376371472630078
 30
0.0
 11
64.818705069027956
 21
4.488790449620093
 31
0.0
  0
LINE
  5
492
  8
0
  6
CONTINUOUS
 10
61.123186938982819
 20
4.488790449620093
 30
0.0
 11
60.970946004005391
 21
3.7234235848899142
 31
0.0
  0
LINE
  5
493
  8
0
  6
CONTINUOUS
 10
64.818705069027956
 20
4.488790449620093
 30
0.0
 11
64.970946004005384
 21
3.7234235848899142
 31
0.0
  0
LINE
  5
494
  8
0
  6
CONTINUOUS
 10
60.970946004005391
 20
3.7234235848899142
 30
0.0
 11
61.123186938982819
 21
2.958056720159735
 31
0.0
  0
LINE
  5
495
  8
0
  6
CONTINUOUS
 10
64.970946004005384
 20
3.7234235848899142
 30
0.0
 11
64.81870506902797
 21
2.958056720159735
 31
0.0
  0
LINE
  5
496
  8
0
  6
CONTINUOUS
 10
61.123186938982819
 20
2.958056720159735
 30
0.0
 11
61.556732441632299
 21
2.3092100225168202
 31
0.0
  0
LINE
  5
497
  8
0
  6
CONTINUOUS
 10
64.81870506902797
 20
2.958056720159735
 30
0.0
 11
64.385159566378491
 21
2.3092100225168202
 31
0.0
  0
LINE
  5
498
  8
0
  6
CONTINUOUS
 10
63.736312868735567
 20
1.8756645198673421
 30
0.0
 11
62.970946004005391
 21
1.723423584889916
 31
0.0
  0
LINE
  5
499
  8
0
  6
CONTINUOUS
 10
62.970946004005391
 20
1.723423584889916
 30
0.0
 11
62.205579139275208
 21
1.8756645198673421
 31
0.0
  0
LINE
  5
49A
  8
0
  6
CONTINUOUS
 10
61.556732441632299
 20
2.3092100225168202
 30
0.0
 11
62.205579139275208
 21
1.8756645198673421
 31
0.0
  0
LINE
  5
49B
  8
0
  6
CONTINUOUS
 10
64.385159566378491
 20
2.3092100225168202
 30
0.0
 11
63.736312868735567
 21
1.8756645198673421
 31
0.0
  0
ENDBLK
  5
49D
  8
0
  0
BLOCK
  8
0
  2
*U17
 70
     1
 10
0.0
 20
0.0
 30
0.0
  3
*U17
  1

  0
TEXT
  5
49F
  8
0
  6
CONTINUOUS
 10
320.92939279966322
 20
143.01260502315
 30
0.0
 40
9.8353293413173617
  1
904 CF Hip Under Channel
  7
ARIAL
  0
ENDBLK
  5
4A1
  8
0
  0
BLOCK
  8
0
  2
*U18
 70
     1
 10
0.0
 20
0.0
 30
0.0
  3
*U18
  1

  0
SOLID
  5
4A3
  8
0
  6
CONTINUOUS
 10
32.612466975832582
 20
41.490337067909181
 30
0.0
 11
31.847100111102399
 21
41.338096132931753
 31
0.0
 12
33.377833840562758
 22
41.338096132931753
 32
0.0
 13
33.377833840562758
 23
41.338096132931753
 33
0.0
210
0.0
220
0.0
230
1.0
  0
SOLID
  5
4A4
  8
0
  6
CONTINUOUS
 10
31.847100111102399
 20
41.338096132931753
 30
0.0
 11
31.198253413459479
 21
40.904550630282273
 31
0.0
 12
34.026680538205667
 22
40.904550630282273
 32
0.0
 13
34.026680538205667
 23
40.904550630282273
 33
0.0
210
0.0
220
0.0
230
1.0
  0
SOLID
  5
4A5
  8
0
  6
CONTINUOUS
 10
-31.847100111102399
 20
41.338096132931753
 30
0.0
 11
-33.377833840562758
 21
41.338096132931753
 31
0.0
 12
-34.026680538205667
 22
40.904550630282273
 32
0.0
 13
-34.026680538205667
 23
40.904550630282273
 33
0.0
210
0.0
220
0.0
230
-1.0
  0
SOLID
  5
4A6
  8
0
  6
CONTINUOUS
 10
31.198253413459479
 20
40.904550630282273
 30
0.0
 11
30.764707910809999
 21
40.255703932639364
 31
0.0
 12
34.460226040855147
 22
40.255703932639364
 32
0.0
 13
34.460226040855147
 23
40.255703932639364
 33
0.0
  0
SOLID
  5
4A7
  8
0
  6
CONTINUOUS
 10
-31.198253413459479
 20
40.904550630282273
 30
0.0
 11
-34.026680538205667
 21
40.904550630282273
 31
0.0
 12
-34.460226040855147
 22
40.255703932639364
 32
0.0
 13
-34.460226040855147
 23
40.255703932639364
 33
0.0
210
0.0
220
0.0
230
-1.0
  0
SOLID
  5
4A8
  8
0
  6
CONTINUOUS
 10
30.764707910809999
 20
40.255703932639364
 30
0.0
 11
30.612466975832572
 21
39.490337067909181
 31
0.0
 12
34.612466975832582
 22
39.490337067909181
 32
0.0
 13
34.612466975832582
 23
39.490337067909181
 33
0.0
210
0.0
220
0.0
230
1.0
  0
SOLID
  5
4A9
  8
0
  6
CONTINUOUS
 10
-30.764707910809999
 20
40.255703932639364
 30
0.0
 11
-34.460226040855147
 21
40.255703932639364
 31
0.0
 12
-34.612466975832582
 22
39.490337067909181
 32
0.0
 13
-34.612466975832582
 23
39.490337067909181
 33
0.0
210
0.0
220
0.0
230
-1.0
  0
SOLID
  5
4AA
  8
0
  6
CONTINUOUS
 10
30.612466975832572
 20
39.490337067909181
 30
0.0
 11
30.764707910809999
 21
38.724970203178998
 31
0.0
 12
34.460226040855147
 22
38.724970203178998
 32
0.0
 13
34.460226040855147
 23
38.724970203178998
 33
0.0
  0
SOLID
  5
4AB
  8
0
  6
CONTINUOUS
 10
-30.612466975832572
 20
39.490337067909181
 30
0.0
 11
-34.612466975832582
 21
39.490337067909181
 31
0.0
 12
-34.460226040855147
 22
38.724970203178998
 32
0.0
 13
-34.460226040855147
 23
38.724970203178998
 33
0.0
210
0.0
220
0.0
230
-1.0
  0
SOLID
  5
4AC
  8
0
  6
CONTINUOUS
 10
30.764707910809999
 20
38.724970203178998
 30
0.0
 11
31.198253413459479
 21
38.076123505536088
 31
0.0
 12
34.026680538205667
 22
38.076123505536088
 32
0.0
 13
34.026680538205667
 23
38.076123505536088
 33
0.0
210
0.0
220
0.0
230
1.0
  0
SOLID
  5
4AD
  8
0
  6
CONTINUOUS
 10
-30.764707910809999
 20
38.724970203178998
 30
0.0
 11
-34.46022604085514
 21
38.724970203178998
 31
0.0
 12
-34.026680538205667
 22
38.076123505536088
 32
0.0
 13
-34.026680538205667
 23
38.076123505536088
 33
0.0
210
0.0
220
0.0
230
-1.0
  0
SOLID
  5
4AE
  8
0
  6
CONTINUOUS
 10
-31.847100111102399
 20
37.642578002886609
 30
0.0
 11
-33.377833840562758
 21
37.642578002886609
 31
0.0
 12
-32.612466975832582
 22
37.490337067909181
 32
0.0
 13
-32.612466975832582
 23
37.490337067909181
 33
0.0
210
0.0
220
0.0
230
-1.0
  0
SOLID
  5
4AF
  8
0
  6
CONTINUOUS
 10
31.198253413459479
 20
38.076123505536088
 30
0.0
 11
31.847100111102399
 21
37.642578002886609
 31
0.0
 12
33.377833840562758
 22
37.642578002886609
 32
0.0
 13
33.377833840562758
 23
37.642578002886609
 33
0.0
210
0.0
220
0.0
230
1.0
  0
SOLID
  5
4B0
  8
0
  6
CONTINUOUS
 10
-31.198253413459479
 20
38.076123505536088
 30
0.0
 11
-34.026680538205667
 21
38.076123505536088
 31
0.0
 12
-33.377833840562758
 22
37.642578002886609
 32
0.0
 13
-33.377833840562758
 23
37.642578002886609
 33
0.0
210
0.0
220
0.0
230
-1.0
  0
LINE
  5
4B1
  8
0
  6
CONTINUOUS
 10
32.612466975832582
 20
41.490337067909181
 30
0.0
 11
31.847100111102399
 21
41.338096132931753
 31
0.0
  0
LINE
  5
4B2
  8
0
  6
CONTINUOUS
 10
33.377833840562758
 20
41.338096132931753
 30
0.0
 11
32.612466975832582
 21
41.490337067909181
 31
0.0
  0
LINE
  5
4B3
  8
0
  6
CONTINUOUS
 10
31.847100111102399
 20
41.338096132931753
 30
0.0
 11
31.198253413459479
 21
40.904550630282273
 31
0.0
  0
LINE
  5
4B4
  8
0
  6
CONTINUOUS
 10
33.377833840562758
 20
41.338096132931753
 30
0.0
 11
34.026680538205667
 21
40.904550630282273
 31
0.0
  0
LINE
  5
4B5
  8
0
  6
CONTINUOUS
 10
31.198253413459479
 20
40.904550630282273
 30
0.0
 11
30.764707910809999
 21
40.255703932639364
 31
0.0
  0
LINE
  5
4B6
  8
0
  6
CONTINUOUS
 10
34.026680538205667
 20
40.904550630282273
 30
0.0
 11
34.460226040855147
 21
40.255703932639364
 31
0.0
  0
LINE
  5
4B7
  8
0
  6
CONTINUOUS
 10
30.764707910809999
 20
40.255703932639364
 30
0.0
 11
30.612466975832572
 21
39.490337067909181
 31
0.0
  0
LINE
  5
4B8
  8
0
  6
CONTINUOUS
 10
34.460226040855147
 20
40.255703932639364
 30
0.0
 11
34.612466975832582
 21
39.490337067909181
 31
0.0
  0
LINE
  5
4B9
  8
0
  6
CONTINUOUS
 10
30.612466975832572
 20
39.490337067909181
 30
0.0
 11
30.764707910809999
 21
38.724970203178998
 31
0.0
  0
LINE
  5
4BA
  8
0
  6
CONTINUOUS
 10
34.612466975832582
 20
39.490337067909181
 30
0.0
 11
34.460226040855147
 21
38.724970203178998
 31
0.0
  0
LINE
  5
4BB
  8
0
  6
CONTINUOUS
 10
30.764707910809999
 20
38.724970203178998
 30
0.0
 11
31.198253413459479
 21
38.076123505536088
 31
0.0
  0
LINE
  5
4BC
  8
0
  6
CONTINUOUS
 10
34.46022604085514
 20
38.724970203178998
 30
0.0
 11
34.026680538205667
 21
38.076123505536088
 31
0.0
  0
LINE
  5
4BD
  8
0
  6
CONTINUOUS
 10
33.377833840562758
 20
37.642578002886609
 30
0.0
 11
32.612466975832582
 21
37.490337067909181
 31
0.0
  0
LINE
  5
4BE
  8
0
  6
CONTINUOUS
 10
32.612466975832582
 20
37.490337067909181
 30
0.0
 11
31.847100111102399
 21
37.642578002886609
 31
0.0
  0
LINE
  5
4BF
  8
0
  6
CONTINUOUS
 10
31.198253413459479
 20
38.076123505536088
 30
0.0
 11
31.847100111102399
 21
37.642578002886609
 31
0.0
  0
LINE
  5
4C0
  8
0
  6
CONTINUOUS
 10
34.026680538205667
 20
38.076123505536088
 30
0.0
 11
33.377833840562758
 21
37.642578002886609
 31
0.0
  0
ENDBLK
  5
4C2
  8
0
  0
BLOCK
  8
0
  2
*U19
 70
     1
 10
0.0
 20
0.0
 30
0.0
  3
*U19
  1

  0
TEXT
  5
4C4
  8
0
  6
CONTINUOUS
 10
320.81534054945701
 20
184.11336604690979
 30
0.0
 40
9.8353293413173617
  1
CF Trim 400
  7
ARIAL
  0
ENDBLK
  5
4C6
  8
0
  0
BLOCK
  8
0
  2
*U20
 70
     1
 10
0.0
 20
0.0
 30
0.0
  3
*U20
  1

  0
SOLID
  5
4C8
  8
0
  6
CONTINUOUS
 10
245.7889104368206
 20
-66.413450730603941
 30
0.0
 11
245.0235435720904
 21
-66.565691665581369
 31
0.0
 12
246.5542773015508
 22
-66.565691665581369
 32
0.0
 13
246.5542773015508
 23
-66.565691665581369
 33
0.0
210
0.0
220
0.0
230
1.0
  0
SOLID
  5
4C9
  8
0
  6
CONTINUOUS
 10
245.0235435720904
 20
-66.565691665581369
 30
0.0
 11
244.37469687444749
 21
-66.999237168230849
 31
0.0
 12
247.20312399919371
 22
-66.999237168230849
 32
0.0
 13
247.20312399919371
 23
-66.999237168230849
 33
0.0
210
0.0
220
0.0
230
1.0
  0
SOLID
  5
4CA
  8
0
  6
CONTINUOUS
 10
-245.0235435720904
 20
-66.565691665581369
 30
0.0
 11
-246.5542773015508
 21
-66.565691665581369
 31
0.0
 12
-247.20312399919371
 22
-66.999237168230849
 32
0.0
 13
-247.20312399919371
 23
-66.999237168230849
 33
0.0
210
0.0
220
0.0
230
-1.0
  0
SOLID
  5
4CB
  8
0
  6
CONTINUOUS
 10
244.37469687444749
 20
-66.999237168230849
 30
0.0
 11
243.94115137179799
 21
-67.648083865873744
 31
0.0
 12
247.63666950184319
 22
-67.648083865873744
 32
0.0
 13
247.63666950184319
 23
-67.648083865873744
 33
0.0
210
0.0
220
0.0
230
1.0
  0
SOLID
  5
4CC
  8
0
  6
CONTINUOUS
 10
-244.37469687444749
 20
-66.999237168230849
 30
0.0
 11
-247.20312399919371
 21
-66.999237168230849
 31
0.0
 12
-247.63666950184319
 22
-67.648083865873744
 32
0.0
 13
-247.63666950184319
 23
-67.648083865873744
 33
0.0
210
0.0
220
0.0
230
-1.0
  0
SOLID
  5
4CD
  8
0
  6
CONTINUOUS
 10
243.94115137179799
 20
-67.648083865873744
 30
0.0
 11
243.7889104368206
 21
-68.413450730603941
 31
0.0
 12
247.7889104368206
 22
-68.413450730603941
 32
0.0
 13
247.7889104368206
 23
-68.413450730603941
 33
0.0
210
0.0
220
0.0
230
1.0
  0
SOLID
  5
4CE
  8
0
  6
CONTINUOUS
 10
-243.94115137179799
 20
-67.648083865873744
 30
0.0
 11
-247.63666950184319
 21
-67.648083865873744
 31
0.0
 12
-247.7889104368206
 22
-68.413450730603941
 32
0.0
 13
-247.7889104368206
 23
-68.413450730603941
 33
0.0
210
0.0
220
0.0
230
-1.0
  0
SOLID
  5
4CF
  8
0
  6
CONTINUOUS
 10
243.7889104368206
 20
-68.413450730603941
 30
0.0
 11
243.94115137179799
 21
-69.178817595334124
 31
0.0
 12
247.63666950184319
 22
-69.178817595334124
 32
0.0
 13
247.63666950184319
 23
-69.178817595334124
 33
0.0
210
0.0
220
0.0
230
1.0
  0
SOLID
  5
4D0
  8
0
  6
CONTINUOUS
 10
-243.7889104368206
 20
-68.413450730603941
 30
0.0
 11
-247.7889104368206
 21
-68.413450730603941
 31
0.0
 12
-247.63666950184319
 22
-69.178817595334124
 32
0.0
 13
-247.63666950184319
 23
-69.178817595334124
 33
0.0
210
0.0
220
0.0
230
-1.0
  0
SOLID
  5
4D1
  8
0
  6
CONTINUOUS
 10
243.94115137179799
 20
-69.178817595334124
 30
0.0
 11
244.37469687444749
 21
-69.827664292977033
 31
0.0
 12
247.20312399919371
 22
-69.827664292977033
 32
0.0
 13
247.20312399919371
 23
-69.827664292977033
 33
0.0
210
0.0
220
0.0
230
1.0
  0
SOLID
  5
4D2
  8
0
  6
CONTINUOUS
 10
-243.94115137179799
 20
-69.178817595334124
 30
0.0
 11
-247.63666950184319
 21
-69.178817595334124
 31
0.0
 12
-247.20312399919371
 22
-69.827664292977033
 32
0.0
 13
-247.20312399919371
 23
-69.827664292977033
 33
0.0
210
0.0
220
0.0
230
-1.0
  0
SOLID
  5
4D3
  8
0
  6
CONTINUOUS
 10
-245.0235435720904
 20
-70.261209795626513
 30
0.0
 11
-246.5542773015508
 21
-70.261209795626513
 31
0.0
 12
-245.7889104368206
 22
-70.413450730603941
 32
0.0
 13
-245.7889104368206
 23
-70.413450730603941
 33
0.0
210
0.0
220
0.0
230
-1.0
  0
SOLID
  5
4D4
  8
0
  6
CONTINUOUS
 10
244.37469687444749
 20
-69.827664292977033
 30
0.0
 11
245.0235435720904
 21
-70.261209795626513
 31
0.0
 12
246.5542773015508
 22
-70.261209795626513
 32
0.0
 13
246.5542773015508
 23
-70.261209795626513
 33
0.0
210
0.0
220
0.0
230
1.0
  0
SOLID
  5
4D5
  8
0
  6
CONTINUOUS
 10
-244.37469687444749
 20
-69.827664292977033
 30
0.0
 11
-247.20312399919371
 21
-69.827664292977033
 31
0.0
 12
-246.5542773015508
 22
-70.261209795626513
 32
0.0
 13
-246.5542773015508
 23
-70.261209795626513
 33
0.0
210
0.0
220
0.0
230
-1.0
  0
LINE
  5
4D6
  8
0
  6
CONTINUOUS
 10
245.7889104368206
 20
-66.413450730603941
 30
0.0
 11
245.0235435720904
 21
-66.565691665581369
 31
0.0
  0
LINE
  5
4D7
  8
0
  6
CONTINUOUS
 10
246.5542773015508
 20
-66.565691665581369
 30
0.0
 11
245.7889104368206
 21
-66.413450730603941
 31
0.0
  0
LINE
  5
4D8
  8
0
  6
CONTINUOUS
 10
245.0235435720904
 20
-66.565691665581369
 30
0.0
 11
244.37469687444749
 21
-66.999237168230849
 31
0.0
  0
LINE
  5
4D9
  8
0
  6
CONTINUOUS
 10
246.5542773015508
 20
-66.565691665581369
 30
0.0
 11
247.20312399919371
 21
-66.999237168230849
 31
0.0
  0
LINE
  5
4DA
  8
0
  6
CONTINUOUS
 10
244.37469687444749
 20
-66.999237168230849
 30
0.0
 11
243.94115137179799
 21
-67.648083865873744
 31
0.0
  0
LINE
  5
4DB
  8
0
  6
CONTINUOUS
 10
247.20312399919371
 20
-66.999237168230849
 30
0.0
 11
247.63666950184319
 21
-67.648083865873744
 31
0.0
  0
LINE
  5
4DC
  8
0
  6
CONTINUOUS
 10
243.94115137179799
 20
-67.648083865873744
 30
0.0
 11
243.7889104368206
 21
-68.413450730603941
 31
0.0
  0
LINE
  5
4DD
  8
0
  6
CONTINUOUS
 10
247.63666950184319
 20
-67.648083865873744
 30
0.0
 11
247.7889104368206
 21
-68.413450730603941
 31
0.0
  0
LINE
  5
4DE
  8
0
  6
CONTINUOUS
 10
243.7889104368206
 20
-68.413450730603941
 30
0.0
 11
243.94115137179799
 21
-69.178817595334124
 31
0.0
  0
LINE
  5
4DF
  8
0
  6
CONTINUOUS
 10
247.7889104368206
 20
-68.413450730603941
 30
0.0
 11
247.63666950184319
 21
-69.178817595334124
 31
0.0
  0
LINE
  5
4E0
  8
0
  6
CONTINUOUS
 10
243.94115137179799
 20
-69.178817595334124
 30
0.0
 11
244.37469687444749
 21
-69.827664292977033
 31
0.0
  0
LINE
  5
4E1
  8
0
  6
CONTINUOUS
 10
247.63666950184319
 20
-69.178817595334124
 30
0.0
 11
247.20312399919371
 21
-69.827664292977033
 31
0.0
  0
LINE
  5
4E2
  8
0
  6
CONTINUOUS
 10
246.5542773015508
 20
-70.261209795626513
 30
0.0
 11
245.7889104368206
 21
-70.413450730603941
 31
0.0
  0
LINE
  5
4E3
  8
0
  6
CONTINUOUS
 10
245.7889104368206
 20
-70.413450730603941
 30
0.0
 11
245.0235435720904
 21
-70.261209795626513
 31
0.0
  0
LINE
  5
4E4
  8
0
  6
CONTINUOUS
 10
244.37469687444749
 20
-69.827664292977033
 30
0.0
 11
245.0235435720904
 21
-70.261209795626513
 31
0.0
  0
LINE
  5
4E5
  8
0
  6
CONTINUOUS
 10
247.20312399919371
 20
-69.827664292977033
 30
0.0
 11
246.5542773015508
 21
-70.261209795626513
 31
0.0
  0
ENDBLK
  5
4E7
  8
0
  0
BLOCK
  8
0
  2
*U21
 70
     1
 10
0.0
 20
0.0
 30
0.0
  3
*U21
  1

  0
TEXT
  5
4E9
  8
0
  6
CONTINUOUS
 10
320.88243010840182
 20
4.4244757392878418
 30
0.0
 40
9.8353293413173617
  1
Substrate
  7
ARIAL
  0
ENDBLK
  5
4EB
  8
0
  0
BLOCK
  8
0
  2
*U22
 70
     1
 10
0.0
 20
0.0
 30
0.0
  3
*U22
  1

  0
SOLID
  5
4ED
  8
0
  6
CONTINUOUS
 10
149.7676409038308
 20
-16.633033751517111
 30
0.0
 11
149.00227403910071
 21
-16.785274686494539
 31
0.0
 12
150.53300776856099
 22
-16.785274686494539
 32
0.0
 13
150.53300776856099
 23
-16.785274686494539
 33
0.0
210
0.0
220
0.0
230
1.0
  0
SOLID
  5
4EE
  8
0
  6
CONTINUOUS
 10
149.00227403910071
 20
-16.785274686494539
 30
0.0
 11
148.35342734145769
 21
-17.218820189144019
 31
0.0
 12
151.1818544662039
 22
-17.218820189144019
 32
0.0
 13
151.1818544662039
 23
-17.218820189144019
 33
0.0
210
0.0
220
0.0
230
1.0
  0
SOLID
  5
4EF
  8
0
  6
CONTINUOUS
 10
-149.00227403910071
 20
-16.785274686494539
 30
0.0
 11
-150.53300776856099
 21
-16.785274686494539
 31
0.0
 12
-151.1818544662039
 22
-17.218820189144019
 32
0.0
 13
-151.1818544662039
 23
-17.218820189144019
 33
0.0
210
0.0
220
0.0
230
-1.0
  0
SOLID
  5
4F0
  8
0
  6
CONTINUOUS
 10
148.35342734145769
 20
-17.218820189144019
 30
0.0
 11
147.91988183880821
 21
-17.867666886786932
 31
0.0
 12
151.61539996885341
 22
-17.867666886786932
 32
0.0
 13
151.61539996885341
 23
-17.867666886786932
 33
0.0
  0
SOLID
  5
4F1
  8
0
  6
CONTINUOUS
 10
-148.35342734145769
 20
-17.218820189144019
 30
0.0
 11
-151.1818544662039
 21
-17.218820189144019
 31
0.0
 12
-151.61539996885341
 22
-17.867666886786932
 32
0.0
 13
-151.61539996885341
 23
-17.867666886786932
 33
0.0
210
0.0
220
0.0
230
-1.0
  0
SOLID
  5
4F2
  8
0
  6
CONTINUOUS
 10
147.91988183880821
 20
-17.867666886786932
 30
0.0
 11
147.7676409038308
 21
-18.633033751517122
 31
0.0
 12
151.7676409038308
 22
-18.633033751517122
 32
0.0
 13
151.7676409038308
 23
-18.633033751517122
 33
0.0
210
0.0
220
0.0
230
1.0
  0
SOLID
  5
4F3
  8
0
  6
CONTINUOUS
 10
-147.91988183880821
 20
-17.867666886786932
 30
0.0
 11
-151.61539996885341
 21
-17.867666886786932
 31
0.0
 12
-151.7676409038308
 22
-18.633033751517122
 32
0.0
 13
-151.7676409038308
 23
-18.633033751517122
 33
0.0
210
0.0
220
0.0
230
-1.0
  0
SOLID
  5
4F4
  8
0
  6
CONTINUOUS
 10
147.7676409038308
 20
-18.633033751517122
 30
0.0
 11
147.91988183880821
 21
-19.398400616247301
 31
0.0
 12
151.61539996885341
 22
-19.398400616247301
 32
0.0
 13
151.61539996885341
 23
-19.398400616247301
 33
0.0
210
0.0
220
0.0
230
1.0
  0
SOLID
  5
4F5
  8
0
  6
CONTINUOUS
 10
-147.7676409038308
 20
-18.633033751517122
 30
0.0
 11
-151.7676409038308
 21
-18.633033751517122
 31
0.0
 12
-151.61539996885341
 22
-19.398400616247301
 32
0.0
 13
-151.61539996885341
 23
-19.398400616247301
 33
0.0
210
0.0
220
0.0
230
-1.0
  0
SOLID
  5
4F6
  8
0
  6
CONTINUOUS
 10
147.91988183880821
 20
-19.398400616247301
 30
0.0
 11
148.35342734145769
 21
-20.047247313890221
 31
0.0
 12
151.1818544662039
 22
-20.047247313890221
 32
0.0
 13
151.1818544662039
 23
-20.047247313890221
 33
0.0
210
0.0
220
0.0
230
1.0
  0
SOLID
  5
4F7
  8
0
  6
CONTINUOUS
 10
-147.91988183880821
 20
-19.398400616247301
 30
0.0
 11
-151.61539996885341
 21
-19.398400616247301
 31
0.0
 12
-151.1818544662039
 22
-20.047247313890221
 32
0.0
 13
-151.1818544662039
 23
-20.047247313890221
 33
0.0
210
0.0
220
0.0
230
-1.0
  0
SOLID
  5
4F8
  8
0
  6
CONTINUOUS
 10
-149.00227403910071
 20
-20.480792816539701
 30
0.0
 11
-150.53300776856099
 21
-20.480792816539701
 31
0.0
 12
-149.7676409038308
 22
-20.633033751517129
 32
0.0
 13
-149.7676409038308
 23
-20.633033751517129
 33
0.0
210
0.0
220
0.0
230
-1.0
  0
SOLID
  5
4F9
  8
0
  6
CONTINUOUS
 10
148.35342734145769
 20
-20.047247313890221
 30
0.0
 11
149.00227403910071
 21
-20.480792816539701
 31
0.0
 12
150.53300776856099
 22
-20.480792816539701
 32
0.0
 13
150.53300776856099
 23
-20.480792816539701
 33
0.0
210
0.0
220
0.0
230
1.0
  0
SOLID
  5
4FA
  8
0
  6
CONTINUOUS
 10
-148.35342734145769
 20
-20.047247313890221
 30
0.0
 11
-151.1818544662039
 21
-20.047247313890221
 31
0.0
 12
-150.53300776856099
 22
-20.480792816539701
 32
0.0
 13
-150.53300776856099
 23
-20.480792816539701
 33
0.0
210
0.0
220
0.0
230
-1.0
  0
LINE
  5
4FB
  8
0
  6
CONTINUOUS
 10
149.7676409038308
 20
-16.633033751517111
 30
0.0
 11
149.00227403910071
 21
-16.785274686494539
 31
0.0
  0
LINE
  5
4FC
  8
0
  6
CONTINUOUS
 10
150.53300776856099
 20
-16.785274686494539
 30
0.0
 11
149.7676409038308
 21
-16.633033751517111
 31
0.0
  0
LINE
  5
4FD
  8
0
  6
CONTINUOUS
 10
149.00227403910071
 20
-16.785274686494539
 30
0.0
 11
148.35342734145769
 21
-17.218820189144019
 31
0.0
  0
LINE
  5
4FE
  8
0
  6
CONTINUOUS
 10
150.53300776856099
 20
-16.785274686494539
 30
0.0
 11
151.1818544662039
 21
-17.218820189144019
 31
0.0
  0
LINE
  5
4FF
  8
0
  6
CONTINUOUS
 10
148.35342734145769
 20
-17.218820189144019
 30
0.0
 11
147.91988183880821
 21
-17.867666886786932
 31
0.0
  0
LINE
  5
500
  8
0
  6
CONTINUOUS
 10
151.1818544662039
 20
-17.218820189144019
 30
0.0
 11
151.61539996885341
 21
-17.867666886786932
 31
0.0
  0
LINE
  5
501
  8
0
  6
CONTINUOUS
 10
147.91988183880821
 20
-17.867666886786932
 30
0.0
 11
147.7676409038308
 21
-18.633033751517122
 31
0.0
  0
LINE
  5
502
  8
0
  6
CONTINUOUS
 10
151.61539996885341
 20
-17.867666886786932
 30
0.0
 11
151.7676409038308
 21
-18.633033751517122
 31
0.0
  0
LINE
  5
503
  8
0
  6
CONTINUOUS
 10
147.7676409038308
 20
-18.633033751517122
 30
0.0
 11
147.91988183880821
 21
-19.398400616247301
 31
0.0
  0
LINE
  5
504
  8
0
  6
CONTINUOUS
 10
151.7676409038308
 20
-18.633033751517122
 30
0.0
 11
151.61539996885341
 21
-19.398400616247301
 31
0.0
  0
LINE
  5
505
  8
0
  6
CONTINUOUS
 10
147.91988183880821
 20
-19.398400616247301
 30
0.0
 11
148.35342734145769
 21
-20.047247313890221
 31
0.0
  0
LINE
  5
506
  8
0
  6
CONTINUOUS
 10
151.61539996885341
 20
-19.398400616247301
 30
0.0
 11
151.1818544662039
 21
-20.047247313890221
 31
0.0
  0
LINE
  5
507
  8
0
  6
CONTINUOUS
 10
150.53300776856099
 20
-20.480792816539701
 30
0.0
 11
149.7676409038308
 21
-20.633033751517129
 31
0.0
  0
LINE
  5
508
  8
0
  6
CONTINUOUS
 10
149.7676409038308
 20
-20.633033751517129
 30
0.0
 11
149.00227403910071
 21
-20.480792816539701
 31
0.0
  0
LINE
  5
509
  8
0
  6
CONTINUOUS
 10
148.35342734145769
 20
-20.047247313890221
 30
0.0
 11
149.00227403910071
 21
-20.480792816539701
 31
0.0
  0
LINE
  5
50A
  8
0
  6
CONTINUOUS
 10
151.1818544662039
 20
-20.047247313890221
 30
0.0
 11
150.53300776856099
 21
-20.480792816539701
 31
0.0
  0
ENDBLK
  5
50C
  8
0
  0
BLOCK
  8
0
  2
*U23
 70
     1
 10
0.0
 20
0.0
 30
0.0
  3
*U23
  1

  0
TEXT
  5
50E
  8
0
  6
CONTINUOUS
 10
320.59542732264458
 20
92.97291020933595
 30
0.0
 40
9.8353293413173617
  1
CF Shake Panel
  7
ARIAL
  0
ENDBLK
  5
510
  8
0
  0
ENDSEC
  0
SECTION
  2
ENTITIES
  0
LINE
  5
D4
  8
0
 10
-0.0000000000054956
 20
-48.360310564780903
 30
0.0
 11
-0.0000000000054368
 21
-11.942533317189559
 31
0.0
1001
REVIT
1002
{
1070
     1
1000
809274
1002
}
1002
{
1070
     2
1000
-2000051
1002
}
1002
{
1070
     3
1000
-2000042
1002
}
  0
CIRCLE
  5
14B
  8
0
 10
62.970946004005391
 20
3.7234235848899142
 30
0.0
 40
1.999999999999998
1001
REVIT
1002
{
1070
     1
1000
785417
1002
}
1002
{
1070
     5
1000
233013
1002
}
1002
{
1070
     2
1000
-2005028
1002
}
  0
INSERT
  5
14C
  8
0
  6
CONTINUOUS
  2
*U16
 10
0.0
 20
0.0
 30
0.0
1001
REVIT
1002
{
1070
     1
1000
785417
1002
}
1002
{
1070
     5
1000
233013
1002
}
1002
{
1070
     2
1000
-2005028
1002
}
1001
ACAD
1002
{
1000
R14_HATCH_DATA
1000
14C
1011
1.0
1021
0.0
1031
0.0
1021
0.0
1031
0.0
1011
0.0
1021
0.0
1031
0.0
1021
1.0
1031
0.0
1011
0.0
1021
0.0
1031
0.0
1021
0.0
1031
1.0
1040
0.0
1010
0.0
1020
0.0
1030
1.0
1000
SOLID
1070
     1
1070
     0
1071
        1
1071
        0
1071
        1
1070
     2
1040
62.970946004005391
1040
3.7234235848899142
1040
1.999999999999998
1040
0.0
1040
6.2831853071795862
1070
     1
1071
        0
1070
     0
1070
     1
1071
        1
1040
-0.0000000000055037
1040
-123.3603105647809
1040
0.0
1002
}
  0
LINE
  5
14D
  8
0
 10
163.95115312467061
 20
147.55106656161149
 30
0.0
 11
319.60654744709382
 21
147.55106656161149
 31
0.0
1001
REVIT
1002
{
1070
     1
1000
785417
1002
}
1002
{
1070
     5
1000
233013
1002
}
1002
{
1070
     2
1000
-2005028
1002
}
  0
LINE
  5
14E
  8
0
 10
62.970946004005391
 20
3.7234235848899142
 30
0.0
 11
163.95115312467061
 21
147.55106656161149
 31
0.0
1001
REVIT
1002
{
1070
     1
1000
785417
1002
}
1002
{
1070
     5
1000
233013
1002
}
1002
{
1070
     2
1000
-2005028
1002
}
  0
INSERT
  5
150
  8
0
  6
CONTINUOUS
  2
*U17
 10
0.0
 20
0.0
 30
0.0
  0
CIRCLE
  5
151
  8
0
 10
32.612466975832582
 20
39.490337067909181
 30
0.0
 40
2.0
1001
REVIT
1002
{
1070
     1
1000
809276
1002
}
1002
{
1070
     5
1000
233013
1002
}
1002
{
1070
     2
1000
-2005028
1002
}
  0
INSERT
  5
152
  8
0
  6
CONTINUOUS
  2
*U18
 10
0.0
 20
0.0
 30
0.0
1001
REVIT
1002
{
1070
     1
1000
809276
1002
}
1002
{
1070
     5
1000
233013
1002
}
1002
{
1070
     2
1000
-2005028
1002
}
1001
ACAD
1002
{
1000
R14_HATCH_DATA
1000
152
1011
1.0
1021
0.0
1031
0.0
1021
0.0
1031
0.0
1011
0.0
1021
0.0
1031
0.0
1021
1.0
1031
0.0
1011
0.0
1021
0.0
1031
0.0
1021
0.0
1031
1.0
1040
0.0
1010
0.0
1020
0.0
1030
1.0
1000
SOLID
1070
     1
1070
     0
1071
        1
1071
        0
1071
        1
1070
     2
1040
32.612466975832582
1040
39.490337067909181
1040
2.0
1040
0.0
1040
6.2831853071795862
1070
     1
1071
        0
1070
     0
1070
     1
1071
        1
1040
-0.0000000000055037
1040
-123.3603105647809
1040
0.0
1002
}
  0
LINE
  5
153
  8
0
 10
126.7427094571657
 20
188.65182758537139
 30
0.0
 11
319.60654744709382
 21
188.65182758537131
 31
0.0
1001
REVIT
1002
{
1070
     1
1000
809276
1002
}
1002
{
1070
     5
1000
233013
1002
}
1002
{
1070
     2
1000
-2005028
1002
}
  0
LINE
  5
154
  8
0
 10
32.612466975832582
 20
39.490337067909181
 30
0.0
 11
126.7427094571657
 21
188.65182758537139
 31
0.0
1001
REVIT
1002
{
1070
     1
1000
809276
1002
}
1002
{
1070
     5
1000
233013
1002
}
1002
{
1070
     2
1000
-2005028
1002
}
  0
INSERT
  5
155
  8
0
  6
CONTINUOUS
  2
*U19
 10
0.0
 20
0.0
 30
0.0
  0
CIRCLE
  5
156
  8
0
 10
245.7889104368206
 20
-68.413450730603941
 30
0.0
 40
1.9999999999999949
1001
REVIT
1002
{
1070
     1
1000
809278
1002
}
1002
{
1070
     5
1000
233013
1002
}
1002
{
1070
     2
1000
-2005028
1002
}
  0
INSERT
  5
157
  8
0
  6
CONTINUOUS
  2
*U20
 10
0.0
 20
0.0
 30
0.0
1001
REVIT
1002
{
1070
     1
1000
809278
1002
}
1002
{
1070
     5
1000
233013
1002
}
1002
{
1070
     2
1000
-2005028
1002
}
1001
ACAD
1002
{
1000
R14_HATCH_DATA
1000
157
1011
1.0
1021
0.0
1031
0.0
1021
0.0
1031
0.0
1011
0.0
1021
0.0
1031
0.0
1021
1.0
1031
0.0
1011
0.0
1021
0.0
1031
0.0
1021
0.0
1031
1.0
1040
0.0
1010
0.0
1020
0.0
1030
1.0
1000
SOLID
1070
     1
1070
     0
1071
        1
1071
        0
1071
        1
1070
     2
1040
245.7889104368206
1040
-68.413450730603941
1040
1.9999999999999949
1040
0.0
1040
6.2831853071795862
1070
     1
1071
        0
1070
     0
1070
     1
1071
        1
1040
-0.0000000000055037
1040
-123.3603105647809
1040
0.0
1002
}
  0
LINE
  5
158
  8
0
 10
288.2621282091356
 20
8.9629372777493899
 30
0.0
 11
319.60654744709382
 21
8.9629372777493899
 31
0.0
1001
REVIT
1002
{
1070
     1
1000
809278
1002
}
1002
{
1070
     5
1000
233013
1002
}
1002
{
1070
     2
1000
-2005028
1002
}
  0
LINE
  5
159
  8
0
 10
245.7889104368206
 20
-68.413450730603941
 30
0.0
 11
288.2621282091356
 21
8.9629372777493899
 31
0.0
1001
REVIT
1002
{
1070
     1
1000
809278
1002
}
1002
{
1070
     5
1000
233013
1002
}
1002
{
1070
     2
1000
-2005028
1002
}
  0
INSERT
  5
15A
  8
0
  6
CONTINUOUS
  2
*U21
 10
0.0
 20
0.0
 30
0.0
  0
CIRCLE
  5
15B
  8
0
 10
149.7676409038308
 20
-18.633033751517122
 30
0.0
 40
2.0000000000000049
1001
REVIT
1002
{
1070
     1
1000
809279
1002
}
1002
{
1070
     5
1000
233013
1002
}
1002
{
1070
     2
1000
-2005028
1002
}
  0
INSERT
  5
15C
  8
0
  6
CONTINUOUS
  2
*U22
 10
0.0
 20
0.0
 30
0.0
1001
REVIT
1002
{
1070
     1
1000
809279
1002
}
1002
{
1070
     5
1000
233013
1002
}
1002
{
1070
     2
1000
-2005028
1002
}
1001
ACAD
1002
{
1000
R14_HATCH_DATA
1000
15C
1011
1.0
1021
0.0
1031
0.0
1021
0.0
1031
0.0
1011
0.0
1021
0.0
1031
0.0
1021
1.0
1031
0.0
1011
0.0
1021
0.0
1031
0.0
1021
0.0
1031
1.0
1040
0.0
1010
0.0
1020
0.0
1030
1.0
1000
SOLID
1070
     1
1070
     0
1071
        1
1071
        0
1071
        1
1070
     2
1040
149.7676409038308
1040
-18.633033751517122
1040
2.0000000000000049
1040
0.0
1040
6.2831853071795862
1070
     1
1071
        0
1070
     0
1070
     1
1071
        1
1040
-0.0000000000055037
1040
-123.3603105647809
1040
0.0
1002
}
  0
LINE
  5
15D
  8
0
 10
211.61809597618731
 20
97.511371747797469
 30
0.0
 11
319.38663422028139
 21
97.511371747797469
 31
0.0
1001
REVIT
1002
{
1070
     1
1000
809279
1002
}
1002
{
1070
     5
1000
233013
1002
}
1002
{
1070
     2
1000
-2005028
1002
}
  0
LINE
  5
15E
  8
0
 10
149.7676409038308
 20
-18.633033751517122
 30
0.0
 11
211.61809597618731
 21
97.511371747797469
 31
0.0
1001
REVIT
1002
{
1070
     1
1000
809279
1002
}
1002
{
1070
     5
1000
233013
1002
}
1002
{
1070
     2
1000
-2005028
1002
}
  0
INSERT
  5
15F
  8
0
  6
CONTINUOUS
  2
*U23
 10
0.0
 20
0.0
 30
0.0
  0
LINE
  5
36B
  8
0
 10
529.17852865271834
 20
-248.6238997485697
 30
0.0
 11
529.17852865271834
 21
-187.4670942618497
 31
0.0
  0
LINE
  5
36C
  8
0
 10
529.17852865271834
 20
-120.6238997485696
 30
0.0
 11
529.17852865271834
 21
-181.78070523528959
 31
0.0
  0
LINE
  5
36D
  8
0
 10
529.17852865271834
 20
-120.6238997485696
 30
0.0
 11
529.17852865271834
 21
-181.78070523528959
 31
0.0
  0
LINE
  5
36E
  8
0
 10
529.17852865271834
 20
-181.78070523528959
 30
0.0
 11
537.424623981423
 21
-183.2347143272342
 31
0.0
  0
LINE
  5
36F
  8
0
 10
537.424623981423
 20
-183.2347143272342
 30
0.0
 11
520.93243332401346
 21
-186.01308516990511
 31
0.0
  0
LINE
  5
370
  8
0
 10
520.93243332401346
 20
-186.01308516990511
 30
0.0
 11
529.17852865271834
 21
-187.4670942618497
 31
0.0
  0
LINE
  5
371
  8
0
 10
529.17852865271834
 20
-187.4670942618497
 30
0.0
 11
529.17852865271834
 21
-248.6238997485697
 31
0.0
  0
LINE
  5
372
  8
0
 10
-529.17852865272903
 20
-248.6238997485697
 30
0.0
 11
-529.17852865272903
 21
-187.4670942618497
 31
0.0
  0
LINE
  5
373
  8
0
 10
-529.17852865272903
 20
-120.6238997485696
 30
0.0
 11
-529.17852865272903
 21
-181.78070523528959
 31
0.0
  0
LINE
  5
374
  8
0
 10
-529.17852865272903
 20
-248.6238997485697
 30
0.0
 11
-529.17852865272903
 21
-187.4670942618497
 31
0.0
  0
LINE
  5
375
  8
0
 10
-529.17852865272903
 20
-187.4670942618497
 30
0.0
 11
-520.93243332402426
 21
-186.01308516990511
 31
0.0
  0
LINE
  5
376
  8
0
 10
-520.93243332402426
 20
-186.01308516990511
 30
0.0
 11
-537.42462398143357
 21
-183.2347143272342
 31
0.0
  0
LINE
  5
377
  8
0
 10
-537.42462398143357
 20
-183.2347143272342
 30
0.0
 11
-529.17852865272903
 21
-181.78070523528959
 31
0.0
  0
LINE
  5
378
  8
0
 10
-529.17852865272903
 20
-181.78070523528959
 30
0.0
 11
-529.17852865272903
 21
-120.6238997485696
 31
0.0
  0
LINE
  5
379
  8
0
 10
-1.1723855295269341
 20
34.236727741348567
 30
0.0
 11
-0.9290573187677182
 21
29.242652112981649
 31
0.0
1001
REVIT
1002
{
1070
     3
1000
773559
1002
}
  0
LINE
  5
37A
  8
0
 10
-4.7541919526057654
 20
27.635543262347841
 30
0.0
 11
-0.9290573187676613
 21
29.242652112981681
 31
0.0
1001
REVIT
1002
{
1070
     3
1000
773559
1002
}
  0
LINE
  5
37B
  8
0
 10
-249.9217179092179
 20
-52.891546883733831
 30
0.0
 11
-4.7541919525995686
 21
27.635543262349898
 31
0.0
1001
REVIT
1002
{
1070
     3
1000
773559
1002
}
  0
LINE
  5
37C
  8
0
 10
-251.0796400738684
 20
-55.60165216169468
 30
0.0
 11
-250.90189772994981
 21
-54.109455541222211
 31
0.0
1001
REVIT
1002
{
1070
     3
1000
773559
1002
}
  0
LINE
  5
37D
  8
0
 10
-251.04113709996901
 20
-56.156973897437332
 30
0.0
 11
-251.0796400738684
 21
-55.60165216169468
 31
0.0
1001
REVIT
1002
{
1070
     3
1000
773559
1002
}
  0
LINE
  5
37E
  8
0
 10
-249.35132916293659
 20
-62.397025244700821
 30
0.0
 11
-251.04113709996901
 21
-56.156973897437332
 31
0.0
1001
REVIT
1002
{
1070
     3
1000
773559
1002
}
  0
LINE
  5
37F
  8
0
 10
-237.75693129593299
 20
-60.672427457233383
 30
0.0
 11
-247.67609988489119
 21
-63.358314584936821
 31
0.0
1001
REVIT
1002
{
1070
     3
1000
773559
1002
}
  0
ARC
  5
380
  8
0
 10
-249.49979965148071
 20
-54.234490577953828
 30
0.0
 40
1.4076621690083111
 50
107.4413731941179
 51
174.90400888400021
1001
REVIT
1002
{
1070
     3
1000
773559
1002
}
  0
ARC
  5
381
  8
0
 10
-248.03305960756069
 20
-62.040037419785051
 30
0.0
 40
1.3657506828732919
 50
195.1523060767118
 51
285.15108467593461
1001
REVIT
1002
{
1070
     3
1000
773559
1002
}
  0
LINE
  5
382
  8
0
 10
1.1308121337440289
 20
34.249401348425877
 30
0.0
 11
0.9372600765460106
 21
29.253148992794308
 31
0.0
1001
REVIT
1002
{
1070
     3
1000
773559
1002
}
  0
LINE
  5
383
  8
0
 10
4.7782190310386454
 20
27.68423595037412
 30
0.0
 11
0.9372600765460106
 21
29.253148992794351
 31
0.0
1001
REVIT
1002
{
1070
     3
1000
773559
1002
}
  0
LINE
  5
384
  8
0
 10
250.73599485686449
 20
-50.395854609857707
 30
0.0
 11
4.7782190310323918
 21
27.68423595037612
 31
0.0
1001
REVIT
1002
{
1070
     3
1000
773559
1002
}
  0
LINE
  5
385
  8
0
 10
251.92086470590939
 20
-53.094287080356906
 30
0.0
 11
251.7282620122065
 21
-51.603935679730348
 31
0.0
1001
REVIT
1002
{
1070
     3
1000
773559
1002
}
  0
LINE
  5
386
  8
0
 10
251.88789721444979
 20
-53.64996491300294
 30
0.0
 11
251.92086470590939
 21
-53.094287080356906
 31
0.0
1001
REVIT
1002
{
1070
     3
1000
773559
1002
}
  0
LINE
  5
387
  8
0
 10
250.26035292219709
 20
-59.906544750046358
 30
0.0
 11
251.88789721444979
 21
-53.649964913002933
 31
0.0
1001
REVIT
1002
{
1070
     3
1000
773559
1002
}
  0
LINE
  5
388
  8
0
 10
238.64934573070821
 20
-58.297566370419503
 30
0.0
 11
248.5947857003687
 21
-60.884479389601971
 31
0.0
1001
REVIT
1002
{
1070
     3
1000
773559
1002
}
  0
ARC
  5
389
  8
0
 10
250.32747947200431
 20
-51.742935885204417
 30
0.0
 40
1.4076621690083111
 50
5.666931314301018
 51
73.129567004183627
1001
REVIT
1002
{
1070
     3
1000
773559
1002
}
  0
ARC
  5
38A
  8
0
 10
248.9385915678503
 20
-59.56271070588528
 30
0.0
 40
1.3657506828732919
 50
255.41985552236699
 51
345.41863412158909
1001
REVIT
1002
{
1070
     3
1000
773559
1002
}
  0
ARC
  5
38B
  8
0
 10
597.14194179338119
 20
-191.6372978747323
 30
0.0
 40
1.999816468760713
 50
255.25305736757079
 51
345.25183596679187
1001
REVIT
1002
{
1070
     3
1000
773559
1002
}
  0
ARC
  5
38C
  8
0
 10
599.20896209539217
 20
-180.19306976282331
 30
0.0
 40
2.0611858542965171
 50
5.5001331594971612
 51
72.962768849426737
1001
REVIT
1002
{
1070
     3
1000
773559
1002
}
  0
ARC
  5
38D
  8
0
 10
234.05824015688941
 20
-57.551964553602161
 30
0.0
 40
2.6309694047366419
 50
74.321744651333489
 51
246.97770938844039
1001
REVIT
1002
{
1070
     3
1000
773559
1002
}
  0
ARC
  5
38E
  8
0
 10
246.3642516120149
 20
-55.301540319644438
 30
0.0
 40
3.0000413488272741
 50
254.44716671571979
 51
72.782241969917166
1001
REVIT
1002
{
1070
     3
1000
773559
1002
}
  0
LINE
  5
38F
  8
0
 10
582.08124959706845
 20
-189.74094311673491
 30
0.0
 11
596.63288782096458
 21
-193.57123943586939
 31
0.0
1001
REVIT
1002
{
1070
     3
1000
773559
1002
}
  0
LINE
  5
390
  8
0
 10
599.07587250233871
 20
-192.1463930737649
 30
0.0
 11
601.4856832801529
 21
-182.99209919150701
 31
0.0
1001
REVIT
1002
{
1070
     3
1000
773559
1002
}
  0
LINE
  5
391
  8
0
 10
601.4856832801529
 20
-182.99209919150701
 30
0.0
 11
601.53632481042905
 21
-182.17858538144139
 31
0.0
1001
REVIT
1002
{
1070
     3
1000
773559
1002
}
  0
LINE
  5
392
  8
0
 10
601.53632481042905
 20
-182.17858538144151
 30
0.0
 11
601.26065819974735
 21
-179.99550908524509
 31
0.0
1001
REVIT
1002
{
1070
     3
1000
773559
1002
}
  0
LINE
  5
393
  8
0
 10
599.81287523715741
 20
-178.22233993782049
 30
0.0
 11
240.00067450008791
 21
-62.844686391790781
 31
0.0
1001
REVIT
1002
{
1070
     3
1000
773559
1002
}
  0
LINE
  5
394
  8
0
 10
240.0006745000957
 20
-62.844686391793289
 30
0.0
 11
233.02929639422911
 21
-59.973384538227528
 31
0.0
1001
REVIT
1002
{
1070
     3
1000
773559
1002
}
  0
LINE
  5
395
  8
0
 10
234.76922035763801
 20
-55.018882011953757
 30
0.0
 11
245.5598600046672
 21
-58.191731011744508
 31
0.0
1001
REVIT
1002
{
1070
     3
1000
773559
1002
}
  0
LINE
  5
396
  8
0
 10
247.25227618467849
 20
-52.435940826864808
 30
0.0
 11
201.12290777253679
 21
-38.872192502703662
 31
0.0
1001
REVIT
1002
{
1070
     3
1000
773559
1002
}
  0
ARC
  5
397
  8
0
 10
-594.91495485967289
 20
-197.22825326113841
 30
0.0
 40
1.999816468760713
 50
195.3191042315089
 51
285.31788283073058
1001
REVIT
1002
{
1070
     3
1000
773559
1002
}
  0
ARC
  5
398
  8
0
 10
-597.09590993824372
 20
-185.80519040778819
 30
0.0
 40
2.0611858542965171
 50
107.60817134887481
 51
175.07080703880439
1001
REVIT
1002
{
1070
     3
1000
773559
1002
}
  0
ARC
  5
399
  8
0
 10
-233.185389208267
 20
-59.531585401887511
 30
0.0
 40
2.6309694047366419
 50
293.5932308098603
 51
106.2491955469676
1001
REVIT
1002
{
1070
     3
1000
773559
1002
}
  0
ARC
  5
39A
  8
0
 10
-245.51321431908659
 20
-57.403897642014869
 30
0.0
 40
3.0000413488272741
 50
107.78869822838379
 51
286.12377348258019
1001
REVIT
1002
{
1070
     3
1000
773559
1002
}
  0
LINE
  5
39B
  8
0
 10
-579.8739068548598
 20
-195.18191855802681
 30
0.0
 11
-594.3866551653748
 21
-199.15702627570781
 31
0.0
1001
REVIT
1002
{
1070
     3
1000
773559
1002
}
  0
LINE
  5
39C
  8
0
 10
-596.84371661179375
 20
-197.75659407186771
 30
0.0
 11
-599.3446268196958
 21
-188.6267675346532
 31
0.0
1001
REVIT
1002
{
1070
     3
1000
773559
1002
}
  0
LINE
  5
39D
  8
0
 10
-599.3446268196958
 20
-188.6267675346532
 30
0.0
 11
-599.40337219282321
 21
-187.8137987376553
 31
0.0
1001
REVIT
1002
{
1070
     3
1000
773559
1002
}
  0
LINE
  5
39E
  8
0
 10
-599.40337219282321
 20
-187.8137987376553
 30
0.0
 11
-599.14947279719468
 21
-185.6280839135855
 31
0.0
1001
REVIT
1002
{
1070
     3
1000
773559
1002
}
  0
LINE
  5
39F
  8
0
 10
-597.71943067343614
 20
-183.84057619152659
 30
0.0
 11
-239.0747885518644
 21
-64.88325857495208
 31
0.0
1001
REVIT
1002
{
1070
     3
1000
773559
1002
}
  0
LINE
  5
3A0
  8
0
 10
-239.0747885518721
 20
-64.883258574954667
 30
0.0
 11
-232.13236799732971
 21
-61.94263213266165
 31
0.0
1001
REVIT
1002
{
1070
     3
1000
773559
1002
}
  0
LINE
  5
3A1
  8
0
 10
-233.92157531867369
 20
-57.005713271413612
 30
0.0
 11
-244.6800629922657
 21
-60.285929383909817
 31
0.0
1001
REVIT
1002
{
1070
     3
1000
773559
1002
}
  0
LINE
  5
3A2
  8
0
 10
-246.42974941701721
 20
-54.547289249369072
 30
0.0
 11
-200.43782885564181
 21
-40.524552648391342
 31
0.0
1001
REVIT
1002
{
1070
     3
1000
773559
1002
}
  0
LINE
  5
3A3
  8
0
 10
-56.010589418848518
 20
36.374330821934208
 30
0.0
 11
-52.206363353666617
 21
37.610398799434421
 31
0.0
1001
REVIT
1002
{
1070
     3
1000
211597
1002
}
  0
LINE
  5
3A4
  8
0
 10
-39.519426168627461
 20
-9.5261488558922451
 30
0.0
 11
-54.352241898625017
 21
36.12456392627513
 31
0.0
1001
REVIT
1002
{
1070
     3
1000
211597
1002
}
  0
LINE
  5
3A5
  8
0
 10
-38.425863921728912
 20
-11.273753391294701
 30
0.0
 11
-39.519426168627461
 21
-9.5261488558922451
 31
0.0
1001
REVIT
1002
{
1070
     3
1000
211597
1002
}
  0
LINE
  5
3A6
  8
0
 10
-38.568369652332308
 20
-9.217131861517295
 30
0.0
 11
-38.425863921728912
 21
-11.273753391294701
 31
0.0
1001
REVIT
1002
{
1070
     3
1000
211597
1002
}
  0
LINE
  5
3A7
  8
0
 10
-53.401185382329857
 20
36.433580920650073
 30
0.0
 11
-38.568369652332308
 21
-9.217131861517295
 31
0.0
1001
REVIT
1002
{
1070
     3
1000
211597
1002
}
  0
LINE
  5
3A8
  8
0
 10
-52.260047342890857
 20
36.80435914578441
 30
0.0
 11
-53.401185382329857
 21
36.433580920650073
 31
0.0
1001
REVIT
1002
{
1070
     3
1000
211597
1002
}
  0
LINE
  5
3A9
  8
0
 10
-54.352241898625017
 20
36.12456392627513
 30
0.0
 11
-55.493379938063583
 21
35.753785701140927
 31
0.0
1001
REVIT
1002
{
1070
     3
1000
211597
1002
}
  0
LINE
  5
3AA
  8
0
 10
-56.010589418848518
 20
36.374330821934208
 30
0.0
 11
-55.493379938063583
 21
35.753785701140927
 31
0.0
1001
REVIT
1002
{
1070
     3
1000
211597
1002
}
  0
LINE
  5
3AB
  8
0
 10
-52.206363353666617
 20
37.610398799434421
 30
0.0
 11
-52.260047342890857
 21
36.80435914578441
 31
0.0
1001
REVIT
1002
{
1070
     3
1000
211597
1002
}
  0
LINE
  5
3AC
  8
0
 10
56.010589418837547
 20
36.374330821934201
 30
0.0
 11
52.20636335365564
 21
37.610398799434428
 31
0.0
1001
REVIT
1002
{
1070
     3
1000
211597
1002
}
  0
LINE
  5
3AD
  8
0
 10
39.51942616861642
 20
-9.5261488558922238
 30
0.0
 11
54.352241898614039
 21
36.12456392627513
 31
0.0
1001
REVIT
1002
{
1070
     3
1000
211597
1002
}
  0
LINE
  5
3AE
  8
0
 10
38.425863921717877
 20
-11.273753391294679
 30
0.0
 11
39.51942616861642
 21
-9.5261488558922238
 31
0.0
1001
REVIT
1002
{
1070
     3
1000
211597
1002
}
  0
LINE
  5
3AF
  8
0
 10
38.56836965232128
 20
-9.2171318615172737
 30
0.0
 11
38.425863921717877
 21
-11.273753391294679
 31
0.0
1001
REVIT
1002
{
1070
     3
1000
211597
1002
}
  0
LINE
  5
3B0
  8
0
 10
53.401185382318893
 20
36.433580920650073
 30
0.0
 11
38.56836965232128
 21
-9.2171318615172737
 31
0.0
1001
REVIT
1002
{
1070
     3
1000
211597
1002
}
  0
LINE
  5
3B1
  8
0
 10
52.260047342879894
 20
36.80435914578441
 30
0.0
 11
53.401185382318879
 21
36.433580920650073
 31
0.0
1001
REVIT
1002
{
1070
     3
1000
211597
1002
}
  0
LINE
  5
3B2
  8
0
 10
54.352241898614039
 20
36.12456392627513
 30
0.0
 11
55.493379938052598
 21
35.753785701140927
 31
0.0
1001
REVIT
1002
{
1070
     3
1000
211597
1002
}
  0
LINE
  5
3B3
  8
0
 10
56.010589418837547
 20
36.374330821934201
 30
0.0
 11
55.493379938052598
 21
35.753785701140927
 31
0.0
1001
REVIT
1002
{
1070
     3
1000
211597
1002
}
  0
LINE
  5
3B4
  8
0
 10
52.20636335365564
 20
37.610398799434428
 30
0.0
 11
52.260047342879894
 21
36.80435914578441
 31
0.0
1001
REVIT
1002
{
1070
     3
1000
211597
1002
}
  0
LINE
  5
3B5
  8
0
 10
-0.0000000000054968
 20
50.472950445863113
 30
0.0
 11
52.427893117392472
 21
33.438095340026912
 31
0.0
1001
REVIT
1002
{
1070
     3
1000
224528
1002
}
  0
LINE
  5
3B6
  8
0
 10
53.378949633687519
 20
33.12907834565199
 30
0.0
 11
133.9643266527691
 21
6.9453021237978003
 31
0.0
1001
REVIT
1002
{
1070
     3
1000
224528
1002
}
  0
LINE
  5
3B7
  8
0
 10
133.9643266527691
 20
6.9453021237978181
 30
0.0
 11
137.9273002235964
 21
-8.9493167141829737
 31
0.0
1001
REVIT
1002
{
1070
     3
1000
224528
1002
}
  0
LINE
  5
3B8
  8
0
 10
-0.0000000000055092
 20
50.472950445863113
 30
0.0
 11
-52.427893117404047
 21
33.43809534002672
 31
0.0
1001
REVIT
1002
{
1070
     3
1000
224528
1002
}
  0
LINE
  5
3B9
  8
0
 10
-53.378949633699193
 20
33.129078345651777
 30
0.0
 11
-133.96432665278019
 21
6.9453021237977826
 31
0.0
1001
REVIT
1002
{
1070
     3
1000
224528
1002
}
  0
LINE
  5
3BA
  8
0
 10
-133.9643266527801
 20
6.9453021237977914
 30
0.0
 11
-137.9273002236074
 21
-8.9493167141829737
 31
0.0
1001
REVIT
1002
{
1070
     3
1000
224528
1002
}
  0
LINE
  5
3BB
  8
0
 10
-0.0000000000055037
 20
24.283555449756442
 30
0.0
 11
-23.49231551965315
 21
15.733051866614741
 31
0.0
1001
REVIT
1002
{
1070
     3
1000
735057
1002
}
  0
LINE
  5
3BC
  8
0
 10
-30.07016386515425
 20
13.33891086333516
 30
0.0
 11
-44.223484915569429
 21
8.1875232849707782
 31
0.0
1001
REVIT
1002
{
1070
     3
1000
735057
1002
}
  0
LINE
  5
3BD
  8
0
 10
-45.163750320634882
 20
7.8452946652167022
 30
0.0
 11
-59.200635109517741
 21
2.73628642023932
 31
0.0
1001
REVIT
1002
{
1070
     3
1000
735057
1002
}
  0
LINE
  5
3BE
  8
0
 10
-65.778483455019014
 20
0.3421454169596636
 30
0.0
 11
-84.572335870737319
 21
-6.4982574495537611
 31
0.0
1001
REVIT
1002
{
1070
     3
1000
735057
1002
}
  0
LINE
  5
3BF
  8
0
 10
-84.572335870737277
 20
-6.4982574495537513
 30
0.0
 11
-78.144459773871887
 21
1.1621869816360251
 31
0.0
1001
REVIT
1002
{
1070
     3
1000
735057
1002
}
  0
LINE
  5
3C0
  8
0
 10
-0.0000000000055037
 20
24.283555449756442
 30
0.0
 11
23.49231551964213
 21
15.73305186661471
 31
0.0
1001
REVIT
1002
{
1070
     3
1000
735057
1002
}
  0
LINE
  5
3C1
  8
0
 10
65.778483455007972
 20
0.3421454169595428
 30
0.0
 11
84.572335870726249
 21
-6.4982574495539112
 31
0.0
1001
REVIT
1002
{
1070
     3
1000
735057
1002
}
  0
LINE
  5
3C2
  8
0
 10
84.572335870726235
 20
-6.4982574495539041
 30
0.0
 11
78.144459773860845
 21
1.162186981635887
 31
0.0
1001
REVIT
1002
{
1070
     3
1000
735057
1002
}
  0
LINE
  5
3C3
  8
0
 10
-65.778483455019014
 20
0.3421454169596636
 30
0.0
 11
-59.350607358153717
 21
8.0025898481493201
 31
0.0
1001
REVIT
1002
{
1070
     3
1000
735057
1002
}
  0
LINE
  5
3C4
  8
0
 10
-59.350607358153731
 20
8.0025898481493059
 30
0.0
 11
-59.200635109517741
 21
2.73628642023932
 31
0.0
1001
REVIT
1002
{
1070
     3
1000
735057
1002
}
  0
LINE
  5
3C5
  8
0
 10
-30.07016386515425
 20
13.33891086333516
 30
0.0
 11
-23.642287768289119
 21
20.999355294524619
 31
0.0
1001
REVIT
1002
{
1070
     3
1000
735057
1002
}
  0
LINE
  5
3C6
  8
0
 10
-23.642287768289119
 20
20.999355294524609
 30
0.0
 11
-23.49231551965314
 21
15.733051866614749
 31
0.0
1001
REVIT
1002
{
1070
     3
1000
735057
1002
}
  0
LINE
  5
3C7
  8
0
 10
30.070163865143218
 20
13.33891086333511
 30
0.0
 11
44.223484915555431
 21
8.1875232849717854
 31
0.0
1001
REVIT
1002
{
1070
     3
1000
735057
1002
}
  0
LINE
  5
3C8
  8
0
 10
45.163750320620878
 20
7.845294665217704
 30
0.0
 11
59.200635109506699
 21
2.736286420239217
 31
0.0
1001
REVIT
1002
{
1070
     3
1000
735057
1002
}
  0
LINE
  5
3C9
  8
0
 10
65.778483455007972
 20
0.3421454169595428
 30
0.0
 11
59.350607358142689
 21
8.0025898481492082
 31
0.0
1001
REVIT
1002
{
1070
     3
1000
735057
1002
}
  0
LINE
  5
3CA
  8
0
 10
59.350607358142689
 20
8.0025898481492135
 30
0.0
 11
59.200635109506699
 21
2.736286420239217
 31
0.0
1001
REVIT
1002
{
1070
     3
1000
735057
1002
}
  0
LINE
  5
3CB
  8
0
 10
30.070163865143229
 20
13.33891086333511
 30
0.0
 11
23.642287768278109
 21
20.99935529452458
 31
0.0
1001
REVIT
1002
{
1070
     3
1000
735057
1002
}
  0
LINE
  5
3CC
  8
0
 10
23.642287768278109
 20
20.99935529452458
 30
0.0
 11
23.492315519642119
 21
15.73305186661471
 31
0.0
1001
REVIT
1002
{
1070
     3
1000
735057
1002
}
  0
LINE
  5
3CD
  8
0
 10
-529.72003662196164
 20
-192.80232582455571
 30
0.0
 11
-0.0000000000082321
 21
-0.0000000000063753
 31
0.0
  0
LINE
  5
3CE
  8
0
 10
-0.0000000000082321
 20
-0.0000000000063753
 30
0.0
 11
-5.1303021498875756
 21
14.095389311784491
 31
0.0
  0
LINE
  5
3CF
  8
0
 10
-5.1303021498875756
 20
14.095389311784491
 30
0.0
 11
-41.805784177727361
 21
0.746605526302667
 31
0.0
  0
LINE
  5
3D0
  8
0
 10
-42.746049582792971
 20
0.4043769065489622
 30
0.0
 11
-534.85033877184094
 21
-178.7069365127648
 31
0.0
  0
LINE
  5
3D1
  8
0
 10
-2.565151074948071
 20
7.0476946558895177
 30
0.0
 11
-39.486744023311672
 21
-6.3906661789907089
 31
0.0
1001
REVIT
1002
{
1070
     3
1000
456193
1002
}
  0
LINE
  5
3D2
  8
0
 10
-40.427009428377403
 20
-6.7328947987444581
 30
0.0
 11
-532.28518769690152
 21
-185.75463116865981
 31
0.0
1001
REVIT
1002
{
1070
     3
1000
456193
1002
}
  0
LINE
  5
3D3
  8
0
 10
-1.7101007166346609
 20
4.69846310392386
 30
0.0
 11
-38.722938502067038
 21
-8.7731081356798342
 31
0.0
1001
REVIT
1002
{
1070
     3
1000
456193
1002
}
  0
LINE
  5
3D4
  8
0
 10
-39.653996043571809
 20
-9.1119853671762101
 30
0.0
 11
-531.430137338588
 21
-188.1038627206255
 31
0.0
1001
REVIT
1002
{
1070
     3
1000
456193
1002
}
  0
LINE
  5
3D5
  8
0
 10
-3.4202014332610049
 20
9.3969262078538645
 30
0.0
 11
-40.259757408116762
 21
-4.0115756105602669
 31
0.0
1001
REVIT
1002
{
1070
     3
1000
456193
1002
}
  0
LINE
  5
3D6
  8
0
 10
-41.200022813182343
 20
-4.3538042303139601
 30
0.0
 11
-533.14023805521379
 21
-183.40539961669521
 31
0.0
1001
REVIT
1002
{
1070
     3
1000
456193
1002
}
  0
LINE
  5
3D7
  8
0
 10
-4.2752517915742203
 20
11.746157759818979
 30
0.0
 11
-41.032770792921951
 21
-1.632485042128976
 31
0.0
1001
REVIT
1002
{
1070
     3
1000
456193
1002
}
  0
LINE
  5
3D8
  8
0
 10
-41.973036197987561
 20
-1.974713661882685
 30
0.0
 11
-533.99528841352708
 21
-181.05616806473009
 31
0.0
1001
REVIT
1002
{
1070
     3
1000
456193
1002
}
  0
LINE
  5
3D9
  8
0
 10
-0.8550503583214461
 20
2.349231551958741
 30
0.0
 11
-530.57508698027459
 21
-190.4530942725905
 31
0.0
1001
REVIT
1002
{
1070
     3
1000
456193
1002
}
  0
LINE
  5
3DA
  8
0
 10
534.63962253423858
 20
-178.63024207440591
 30
0.0
 11
42.746049582783982
 21
0.4043769065550294
 31
0.0
  0
LINE
  5
3DB
  8
0
 10
41.805784177718387
 20
0.7466055263087413
 30
0.0
 11
5.1303021498795358
 21
14.09538931179079
 31
0.0
  0
LINE
  5
3DC
  8
0
 10
5.1303021498795358
 20
14.09538931179079
 30
0.0
 11
-0.0000000000000009
 21
-0.0000000000000036
 31
0.0
  0
LINE
  5
3DD
  8
0
 10
0.0
 20
-0.0000000000000018
 30
0.0
 11
529.50932038435894
 21
-192.72563138619671
 31
0.0
  0
LINE
  5
3DE
  8
0
 10
2.5651510749399362
 20
7.0476946558958558
 30
0.0
 11
39.48674402330284
 21
-6.3906661789846932
 31
0.0
1001
REVIT
1002
{
1070
     3
1000
456193
1002
}
  0
LINE
  5
3DF
  8
0
 10
40.427009428368287
 20
-6.7328947987383509
 30
0.0
 11
532.07447145929905
 21
-185.6779367303009
 31
0.0
1001
REVIT
1002
{
1070
     3
1000
456193
1002
}
  0
LINE
  5
3E0
  8
0
 10
1.710100716626493
 20
4.6984631039302096
 30
0.0
 11
38.722938502058163
 21
-8.7731081356737981
 31
0.0
1001
REVIT
1002
{
1070
     3
1000
456193
1002
}
  0
LINE
  5
3E1
  8
0
 10
39.653996043562707
 20
-9.1119853671701065
 30
0.0
 11
531.21942110098553
 21
-188.02716828226639
 31
0.0
1001
REVIT
1002
{
1070
     3
1000
456193
1002
}
  0
LINE
  5
3E2
  8
0
 10
3.420201433252902
 20
9.3969262078601901
 30
0.0
 11
40.259757408107632
 21
-4.0115756105541394
 31
0.0
1001
REVIT
1002
{
1070
     3
1000
456193
1002
}
  0
LINE
  5
3E3
  8
0
 10
41.200022813173248
 20
-4.3538042303078539
 30
0.0
 11
532.9295218176112
 21
-183.32870517833629
 31
0.0
1001
REVIT
1002
{
1070
     3
1000
456193
1002
}
  0
LINE
  5
3E4
  8
0
 10
4.2752517915661494
 20
11.746157759825291
 30
0.0
 11
41.032770792913013
 21
-1.6324850421229149
 31
0.0
1001
REVIT
1002
{
1070
     3
1000
456193
1002
}
  0
LINE
  5
3E5
  8
0
 10
41.973036197978637
 20
-1.9747136618766381
 30
0.0
 11
533.78457217592438
 21
-180.9794736263712
 31
0.0
1001
REVIT
1002
{
1070
     3
1000
456193
1002
}
  0
LINE
  5
3E6
  8
0
 10
0.8550503583132461
 20
2.3492315519651021
 30
0.0
 11
530.36437074267224
 21
-190.37639983423151
 31
0.0
1001
REVIT
1002
{
1070
     3
1000
456193
1002
}
  0
LINE
  5
3E7
  8
0
  6
DASH
 10
-0.0000000000055037
 20
21.283555449756491
 30
0.0
 11
-43.351810947405433
 21
5.5047866633672511
 31
0.0
1001
REVIT
1002
{
1070
     3
1000
217411
1002
}
  0
LINE
  5
3E8
  8
0
  6
DASH
 10
-44.292076352470957
 20
5.1625580436131422
 30
0.0
 11
-152.27382421143179
 21
-34.139584021086762
 31
0.0
1001
REVIT
1002
{
1070
     3
1000
217411
1002
}
  0
LINE
  5
3E9
  8
0
  6
DASH
 10
538.12857768949846
 20
-174.57922903723141
 30
0.0
 11
44.292076352458537
 21
5.162558043614097
 31
0.0
1001
REVIT
1002
{
1070
     3
1000
217411
1002
}
  0
LINE
  5
3EA
  8
0
  6
DASH
 10
43.351810947393062
 20
5.5047866633682068
 30
0.0
 11
-0.0000000000032969
 21
21.28355544975631
 31
0.0
1001
REVIT
1002
{
1070
     3
1000
217411
1002
}
  0
LINE
  5
3EB
  8
0
  6
DASH
 10
-5.8143424366161174
 20
15.97477455357089
 30
0.0
 11
-42.424194885637107
 21
2.649877981249646
 31
0.0
1001
REVIT
1002
{
1070
     3
1000
217411
1002
}
  0
LINE
  5
3EC
  8
0
  6
DASH
 10
-43.364460290702631
 20
2.3076493614955398
 30
0.0
 11
-529.17852865273005
 21
-174.51421091004809
 31
0.0
1001
REVIT
1002
{
1070
     3
1000
217411
1002
}
  0
ENDSEC
  0
EOF
